ISO-10303-21;
HEADER;
FILE_DESCRIPTION (( 'STEP AP203' ),
    '1' );
FILE_NAME ('3435-50-019-01_REV_.step',
    '2025-11-20T01:04:10',
    ( '' ),
    ( '' ),
    'SwSTEP 2.0',
    'SolidWorks 2025',
    '' );
FILE_SCHEMA (( 'CONFIG_CONTROL_DESIGN' ));
ENDSEC;

DATA;
#1 = APPROVAL_DATE_TIME ( #305, #351 ) ;
#2 = DIRECTION ( 'NONE',  ( 0.000000000000000000, -1.000000000000000000, 0.000000000000000000 ) ) ;
#3 = AXIS2_PLACEMENT_3D ( 'NONE', #408, #21, #184 ) ;
#4 = LOCAL_TIME ( 12, 4, 10.00000000000000000, #90 ) ;
#5 = VERTEX_POINT ( 'NONE', #355 ) ;
#6 = ADVANCED_FACE ( 'NONE', ( #236 ), #69, .T. ) ;
#7 = PLANE ( 'NONE',  #179 ) ;
#8 = ORIENTED_EDGE ( 'NONE', *, *, #100, .T. ) ;
#9 = EDGE_CURVE ( 'NONE', #60, #180, #210, .T. ) ;
#10 = EDGE_LOOP ( 'NONE', ( #68, #103 ) ) ;
#11 = DIRECTION ( 'NONE',  ( 0.000000000000000000, -1.000000000000000000, 6.123233995736766036E-17 ) ) ;
#12 = APPLICATION_CONTEXT ( 'configuration controlled 3d designs of mechanical parts and assemblies' ) ;
#13 = CARTESIAN_POINT ( 'NONE',  ( 0.000000000000000000, -183.8000000000000114, 0.000000000000000000 ) ) ;
#14 = ADVANCED_BREP_SHAPE_REPRESENTATION ( '3435-50-019-01_REV_', ( #82, #84, #120 ), #388 ) ;
#15 = LOCAL_TIME ( 12, 4, 10.00000000000000000, #400 ) ;
#16 = EDGE_CURVE ( 'NONE', #93, #23, #106, .T. ) ;
#17 = LINE ( 'NONE', #302, #328 ) ;
#18 = DIRECTION ( 'NONE',  ( 1.000000000000000000, 0.000000000000000000, 0.000000000000000000 ) ) ;
#19 = CARTESIAN_POINT ( 'NONE',  ( 3.692310099429270397E-15, -139.6999999999999886, -30.14999999999999858 ) ) ;
#20 = CARTESIAN_POINT ( 'NONE',  ( -255.0000000000000000, -260.0000000000000000, -118.7500000000000000 ) ) ;
#21 = DIRECTION ( 'NONE',  ( -0.000000000000000000, 1.000000000000000000, -0.000000000000000000 ) ) ;
#22 = ORIENTED_EDGE ( 'NONE', *, *, #207, .F. ) ;
#23 = VERTEX_POINT ( 'NONE', #19 ) ;
#24 = PERSON_AND_ORGANIZATION_ROLE ( 'creator' ) ;
#25 = DIRECTION ( 'NONE',  ( -1.000000000000000000, 0.000000000000000000, 0.000000000000000000 ) ) ;
#26 = DIRECTION ( 'NONE',  ( 0.000000000000000000, 0.000000000000000000, 1.000000000000000000 ) ) ;
#27 = EDGE_CURVE ( 'NONE', #378, #190, #269, .T. ) ;
#28 = APPROVAL_DATE_TIME ( #124, #217 ) ;
#29 = DIRECTION ( 'NONE',  ( -1.000000000000000000, 0.000000000000000000, 0.000000000000000000 ) ) ;
#30 = ORIENTED_EDGE ( 'NONE', *, *, #371, .T. ) ;
#31 = EDGE_CURVE ( 'NONE', #279, #229, #144, .T. ) ;
#32 = AXIS2_PLACEMENT_3D ( 'NONE', #13, #268, #331 ) ;
#33 = CIRCLE ( 'NONE', #81, 26.25000000000000000 ) ;
#34 = ORIENTED_EDGE ( 'NONE', *, *, #207, .T. ) ;
#35 = ORIENTED_EDGE ( 'NONE', *, *, #405, .T. ) ;
#36 = DIRECTION ( 'NONE',  ( 0.000000000000000000, 0.000000000000000000, -1.000000000000000000 ) ) ;
#37 = ORIENTED_EDGE ( 'NONE', *, *, #100, .F. ) ;
#38 = PLANE ( 'NONE',  #304 ) ;
#39 = EDGE_LOOP ( 'NONE', ( #375, #323, #34, #104 ) ) ;
#40 = AXIS2_PLACEMENT_3D ( 'NONE', #221, #189, #314 ) ;
#41 = DIRECTION ( 'NONE',  ( 1.000000000000000000, -0.000000000000000000, -0.000000000000000000 ) ) ;
#42 = LINE ( 'NONE', #209, #174 ) ;
#43 = ADVANCED_FACE ( 'NONE', ( #77 ), #283, .T. ) ;
#44 = DIRECTION ( 'NONE',  ( 0.000000000000000000, -1.000000000000000000, 0.000000000000000000 ) ) ;
#45 = CC_DESIGN_APPROVAL ( #217, ( #406 ) ) ;
#46 = DIRECTION ( 'NONE',  ( 1.000000000000000000, -0.000000000000000000, -0.000000000000000000 ) ) ;
#47 = ADVANCED_FACE ( 'NONE', ( #379 ), #228, .T. ) ;
#48 = CARTESIAN_POINT ( 'NONE',  ( 3.692310099429270397E-15, -183.8000000000000114, -30.14999999999999858 ) ) ;
#49 = DIRECTION ( 'NONE',  ( -0.000000000000000000, 1.000000000000000000, -0.000000000000000000 ) ) ;
#50 = DATE_TIME_ROLE ( 'classification_date' ) ;
#51 = CC_DESIGN_APPROVAL ( #351, ( #237 ) ) ;
#52 = CARTESIAN_POINT ( 'NONE',  ( 0.000000000000000000, -183.8000000000000114, 26.25000000000000000 ) ) ;
#53 = PERSON_AND_ORGANIZATION_ROLE ( 'design_supplier' ) ;
#54 = SECURITY_CLASSIFICATION_LEVEL ( 'unclassified' ) ;
#55 = FACE_OUTER_BOUND ( 'NONE', #102, .T. ) ;
#56 = CARTESIAN_POINT ( 'NONE',  ( 0.000000000000000000, -183.8000000000000114, 0.000000000000000000 ) ) ;
#57 = VERTEX_POINT ( 'NONE', #404 ) ;
#58 = PERSON_AND_ORGANIZATION_ROLE ( 'creator' ) ;
#59 = DIRECTION ( 'NONE',  ( 0.000000000000000000, 0.000000000000000000, -1.000000000000000000 ) ) ;
#60 = VERTEX_POINT ( 'NONE', #341 ) ;
#61 = CC_DESIGN_PERSON_AND_ORGANIZATION_ASSIGNMENT ( #244, #361, ( #121 ) ) ;
#62 = LINE ( 'NONE', #377, #118 ) ;
#63 = EDGE_LOOP ( 'NONE', ( #292, #290, #35, #381 ) ) ;
#64 = CYLINDRICAL_SURFACE ( 'NONE', #299, 26.25000000000000000 ) ;
#65 = AXIS2_PLACEMENT_3D ( 'NONE', #163, #95, #286 ) ;
#66 = EDGE_LOOP ( 'NONE', ( #263, #342 ) ) ;
#67 = FACE_BOUND ( 'NONE', #10, .T. ) ;
#68 = ORIENTED_EDGE ( 'NONE', *, *, #83, .T. ) ;
#69 = CYLINDRICAL_SURFACE ( 'NONE', #242, 30.15000000000000924 ) ;
#70 = AXIS2_PLACEMENT_3D ( 'NONE', #199, #142, #36 ) ;
#71 = LOCAL_TIME ( 12, 4, 10.00000000000000000, #282 ) ;
#72 = CARTESIAN_POINT ( 'NONE',  ( 0.000000000000000000, -139.6999999999999886, 0.000000000000000000 ) ) ;
#73 =( NAMED_UNIT ( * ) PLANE_ANGLE_UNIT ( ) SI_UNIT ( $, .RADIAN. ) );
#74 = AXIS2_PLACEMENT_3D ( 'NONE', #112, #359, #114 ) ;
#75 = DIRECTION ( 'NONE',  ( 0.000000000000000000, -1.000000000000000000, 6.123233995736766036E-17 ) ) ;
#76 = APPLICATION_PROTOCOL_DEFINITION ( 'international standard', 'config_control_design', 1994, #257 ) ;
#77 = FACE_OUTER_BOUND ( 'NONE', #39, .T. ) ;
#78 = ORIENTED_EDGE ( 'NONE', *, *, #27, .T. ) ;
#79 = APPLICATION_PROTOCOL_DEFINITION ( 'international standard', 'config_control_design', 1994, #12 ) ;
#80 = PERSON ( 'UNSPECIFIED', 'UNSPECIFIED', 'UNSPECIFIED', ('UNSPECIFIED'), ('UNSPECIFIED'), ('UNSPECIFIED') ) ;
#81 = AXIS2_PLACEMENT_3D ( 'NONE', #240, #75, #392 ) ;
#82 = MANIFOLD_SOLID_BREP ( 'Stainless chs 60.3 X 3.9 CHS(1)[1]', #386 ) ;
#83 = EDGE_CURVE ( 'NONE', #319, #339, #360, .T. ) ;
#84 = MANIFOLD_SOLID_BREP ( 'Stainless chs 60.3 X 3.9 CHS(1)[2]', #101 ) ;
#85 = CALENDAR_DATE ( 2025, 20, 11 ) ;
#86 = DIRECTION ( 'NONE',  ( 0.000000000000000000, 0.000000000000000000, 1.000000000000000000 ) ) ;
#87 = APPROVAL_DATE_TIME ( #191, #154 ) ;
#88 = FACE_OUTER_BOUND ( 'NONE', #192, .T. ) ;
#89 = ORIENTED_EDGE ( 'NONE', *, *, #298, .F. ) ;
#90 = COORDINATED_UNIVERSAL_TIME_OFFSET ( 10, 0, .AHEAD. ) ;
#91 = CIRCLE ( 'NONE', #105, 26.24999999999999645 ) ;
#92 = PLANE ( 'NONE',  #40 ) ;
#93 = VERTEX_POINT ( 'NONE', #253 ) ;
#94 = DATE_AND_TIME ( #252, #213 ) ;
#95 = DIRECTION ( 'NONE',  ( -0.000000000000000000, 1.000000000000000000, -0.000000000000000000 ) ) ;
#96 = ORIENTED_EDGE ( 'NONE', *, *, #131, .F. ) ;
#97 = DIRECTION ( 'NONE',  ( 0.000000000000000000, -6.123233995736766036E-17, -1.000000000000000000 ) ) ;
#98 = ADVANCED_FACE ( 'NONE', ( #226 ), #64, .F. ) ;
#99 = VERTEX_POINT ( 'NONE', #230 ) ;
#100 = EDGE_CURVE ( 'NONE', #279, #57, #62, .T. ) ;
#101 = CLOSED_SHELL ( 'NONE', ( #246, #127, #109, #6, #136, #116 ) ) ;
#102 = EDGE_LOOP ( 'NONE', ( #366, #233 ) ) ;
#103 = ORIENTED_EDGE ( 'NONE', *, *, #172, .T. ) ;
#104 = ORIENTED_EDGE ( 'NONE', *, *, #195, .F. ) ;
#105 = AXIS2_PLACEMENT_3D ( 'NONE', #356, #293, #384 ) ;
#106 = LINE ( 'NONE', #48, #223 ) ;
#107 = CIRCLE ( 'NONE', #197, 26.24999999999999645 ) ;
#108 = DIRECTION ( 'NONE',  ( -1.000000000000000000, 0.000000000000000000, 0.000000000000000000 ) ) ;
#109 = ADVANCED_FACE ( 'NONE', ( #193 ), #261, .F. ) ;
#110 = CARTESIAN_POINT ( 'NONE',  ( -255.0000000000000000, -260.0000000000000000, -145.0000000000000000 ) ) ;
#111 = ADVANCED_FACE ( 'NONE', ( #310, #157 ), #289, .T. ) ;
#112 = CARTESIAN_POINT ( 'NONE',  ( 0.000000000000000000, -139.6999999999999886, 0.000000000000000000 ) ) ;
#113 = CIRCLE ( 'NONE', #395, 26.24999999999999645 ) ;
#114 = DIRECTION ( 'NONE',  ( 0.000000000000000000, 0.000000000000000000, -1.000000000000000000 ) ) ;
#115 = CARTESIAN_POINT ( 'NONE',  ( -255.0000000000000000, -260.0000000000000000, -145.0000000000000000 ) ) ;
#116 = ADVANCED_FACE ( 'NONE', ( #123, #55 ), #7, .F. ) ;
#117 = VERTEX_POINT ( 'NONE', #166 ) ;
#118 = VECTOR ( 'NONE', #129, 1000.000000000000000 ) ;
#119 = VECTOR ( 'NONE', #147, 1000.000000000000000 ) ;
#120 = AXIS2_PLACEMENT_3D ( 'NONE', #176, #390, #18 ) ;
#121 = PRODUCT ( '3435-50-019-01_REV_', '3435-50-019-01_REV_', '', ( #150 ) ) ;
#122 = PERSON_AND_ORGANIZATION_ROLE ( 'classification_officer' ) ;
#123 = FACE_BOUND ( 'NONE', #66, .T. ) ;
#124 = DATE_AND_TIME ( #85, #4 ) ;
#125 = DIRECTION ( 'NONE',  ( 0.000000000000000000, -1.000000000000000000, 6.123233995736766036E-17 ) ) ;
#126 = CARTESIAN_POINT ( 'NONE',  ( -76.20000000000000284, -260.0000000000000000, -145.0000000000000000 ) ) ;
#127 = ADVANCED_FACE ( 'NONE', ( #315 ), #291, .F. ) ;
#128 = PERSON_AND_ORGANIZATION ( #80, #374 ) ;
#129 = DIRECTION ( 'NONE',  ( 1.000000000000000000, -0.000000000000000000, -0.000000000000000000 ) ) ;
#130 = ORIENTED_EDGE ( 'NONE', *, *, #83, .F. ) ;
#131 = EDGE_CURVE ( 'NONE', #409, #93, #264, .T. ) ;
#132 = DATE_TIME_ROLE ( 'creation_date' ) ;
#133 = DIRECTION ( 'NONE',  ( 0.000000000000000000, -1.000000000000000000, 0.000000000000000000 ) ) ;
#134 = ORIENTED_EDGE ( 'NONE', *, *, #391, .T. ) ;
#135 = DIRECTION ( 'NONE',  ( 1.000000000000000000, -0.000000000000000000, -0.000000000000000000 ) ) ;
#136 = ADVANCED_FACE ( 'NONE', ( #372, #88 ), #92, .T. ) ;
#137 = ORIENTED_EDGE ( 'NONE', *, *, #398, .F. ) ;
#138 = AXIS2_PLACEMENT_3D ( 'NONE', #411, #308, #86 ) ;
#139 = AXIS2_PLACEMENT_3D ( 'NONE', #126, #278, #306 ) ;
#140 = ORIENTED_EDGE ( 'NONE', *, *, #9, .T. ) ;
#141 = EDGE_CURVE ( 'NONE', #57, #262, #113, .T. ) ;
#142 = DIRECTION ( 'NONE',  ( 0.000000000000000000, -1.000000000000000000, 6.123233995736766036E-17 ) ) ;
#143 = DIRECTION ( 'NONE',  ( -1.000000000000000000, 0.000000000000000000, 0.000000000000000000 ) ) ;
#144 = CIRCLE ( 'NONE', #394, 26.24999999999999645 ) ;
#145 = AXIS2_PLACEMENT_3D ( 'NONE', #259, #385, #167 ) ;
#146 = CC_DESIGN_PERSON_AND_ORGANIZATION_ASSIGNMENT ( #128, #122, ( #237 ) ) ;
#147 = DIRECTION ( 'NONE',  ( 1.000000000000000000, -0.000000000000000000, -0.000000000000000000 ) ) ;
#148 = CC_DESIGN_PERSON_AND_ORGANIZATION_ASSIGNMENT ( #181, #58, ( #406 ) ) ;
#149 = DIRECTION ( 'NONE',  ( 0.000000000000000000, -1.000000000000000000, 0.000000000000000000 ) ) ;
#150 = MECHANICAL_CONTEXT ( 'NONE', #12, 'mechanical' ) ;
#151 = CARTESIAN_POINT ( 'NONE',  ( -255.0000000000000000, -260.0000000000000000, -145.0000000000000000 ) ) ;
#152 = CYLINDRICAL_SURFACE ( 'NONE', #403, 30.15000000000000924 ) ;
#153 = DIRECTION ( 'NONE',  ( -0.000000000000000000, 1.000000000000000000, -0.000000000000000000 ) ) ;
#154 = APPROVAL ( #225, 'UNSPECIFIED' ) ;
#155 = ORIENTED_EDGE ( 'NONE', *, *, #131, .T. ) ;
#156 = CALENDAR_DATE ( 2025, 20, 11 ) ;
#157 = FACE_OUTER_BOUND ( 'NONE', #168, .T. ) ;
#158 = VECTOR ( 'NONE', #49, 1000.000000000000000 ) ;
#159 = COORDINATED_UNIVERSAL_TIME_OFFSET ( 10, 0, .AHEAD. ) ;
#160 = DIRECTION ( 'NONE',  ( 0.000000000000000000, 0.000000000000000000, -1.000000000000000000 ) ) ;
#161 = EDGE_LOOP ( 'NONE', ( #285, #22 ) ) ;
#162 = PERSON_AND_ORGANIZATION ( #80, #374 ) ;
#163 = CARTESIAN_POINT ( 'NONE',  ( 0.000000000000000000, -183.8000000000000114, 0.000000000000000000 ) ) ;
#164 = ORIENTED_EDGE ( 'NONE', *, *, #273, .T. ) ;
#165 = AXIS2_PLACEMENT_3D ( 'NONE', #303, #399, #149 ) ;
#166 = CARTESIAN_POINT ( 'NONE',  ( 0.000000000000000000, -139.6999999999999886, 30.14999999999999858 ) ) ;
#167 = DIRECTION ( 'NONE',  ( 0.000000000000000000, 0.000000000000000000, -1.000000000000000000 ) ) ;
#168 = EDGE_LOOP ( 'NONE', ( #155, #324 ) ) ;
#169 = EDGE_CURVE ( 'NONE', #93, #409, #258, .T. ) ;
#170 = EDGE_LOOP ( 'NONE', ( #137, #164, #347, #296 ) ) ;
#171 = DIRECTION ( 'NONE',  ( 0.000000000000000000, 0.000000000000000000, -1.000000000000000000 ) ) ;
#172 = EDGE_CURVE ( 'NONE', #339, #319, #373, .T. ) ;
#173 = DIRECTION ( 'NONE',  ( 1.000000000000000000, -0.000000000000000000, -0.000000000000000000 ) ) ;
#174 = VECTOR ( 'NONE', #173, 1000.000000000000000 ) ;
#175 = DIRECTION ( 'NONE',  ( 1.000000000000000000, -0.000000000000000000, -0.000000000000000000 ) ) ;
#176 = CARTESIAN_POINT ( 'NONE',  ( 0.000000000000000000, 0.000000000000000000, 0.000000000000000000 ) ) ;
#177 = DIRECTION ( 'NONE',  ( -0.000000000000000000, 1.000000000000000000, -0.000000000000000000 ) ) ;
#178 = DIRECTION ( 'NONE',  ( 0.000000000000000000, 0.000000000000000000, -1.000000000000000000 ) ) ;
#179 = AXIS2_PLACEMENT_3D ( 'NONE', #251, #25, #2 ) ;
#180 = VERTEX_POINT ( 'NONE', #270 ) ;
#181 = PERSON_AND_ORGANIZATION ( #80, #374 ) ;
#182 = ADVANCED_FACE ( 'NONE', ( #67, #389 ), #38, .F. ) ;
#183 = APPROVAL_STATUS ( 'not_yet_approved' ) ;
#184 = DIRECTION ( 'NONE',  ( 0.000000000000000000, 0.000000000000000000, 1.000000000000000000 ) ) ;
#185 = EDGE_CURVE ( 'NONE', #229, #279, #91, .T. ) ;
#186 = CALENDAR_DATE ( 2025, 20, 11 ) ;
#187 = DIRECTION ( 'NONE',  ( -0.000000000000000000, 1.000000000000000000, -0.000000000000000000 ) ) ;
#188 = PERSON_AND_ORGANIZATION ( #80, #374 ) ;
#189 = DIRECTION ( 'NONE',  ( -1.000000000000000000, 0.000000000000000000, 0.000000000000000000 ) ) ;
#190 = VERTEX_POINT ( 'NONE', #235 ) ;
#191 = DATE_AND_TIME ( #156, #15 ) ;
#192 = EDGE_LOOP ( 'NONE', ( #260, #78 ) ) ;
#193 = FACE_OUTER_BOUND ( 'NONE', #218, .T. ) ;
#194 = ORIENTED_EDGE ( 'NONE', *, *, #16, .F. ) ;
#195 = EDGE_CURVE ( 'NONE', #409, #117, #322, .T. ) ;
#196 = AXIS2_PLACEMENT_3D ( 'NONE', #368, #125, #59 ) ;
#197 = AXIS2_PLACEMENT_3D ( 'NONE', #401, #108, #393 ) ;
#198 = ORIENTED_EDGE ( 'NONE', *, *, #398, .T. ) ;
#199 = CARTESIAN_POINT ( 'NONE',  ( 0.000000000000000000, -139.6999999999999886, 0.000000000000000000 ) ) ;
#200 = ADVANCED_FACE ( 'NONE', ( #358 ), #365, .F. ) ;
#201 = ORIENTED_EDGE ( 'NONE', *, *, #294, .F. ) ;
#202 = AXIS2_PLACEMENT_3D ( 'NONE', #56, #340, #97 ) ;
#203 = CARTESIAN_POINT ( 'NONE',  ( -255.0000000000000000, -260.0000000000000000, -145.0000000000000000 ) ) ;
#204 = PERSON_AND_ORGANIZATION ( #80, #374 ) ;
#205 = EDGE_CURVE ( 'NONE', #5, #99, #325, .T. ) ;
#206 = EDGE_LOOP ( 'NONE', ( #345, #402 ) ) ;
#207 = EDGE_CURVE ( 'NONE', #23, #117, #354, .T. ) ;
#208 = DIRECTION ( 'NONE',  ( -0.000000000000000000, 1.000000000000000000, -0.000000000000000000 ) ) ;
#209 = CARTESIAN_POINT ( 'NONE',  ( -255.0000000000000000, -260.0000000000000000, -114.8499999999999943 ) ) ;
#210 = CIRCLE ( 'NONE', #32, 26.25000000000000000 ) ;
#211 = DIRECTION ( 'NONE',  ( 0.000000000000000000, 0.000000000000000000, -1.000000000000000000 ) ) ;
#212 = VECTOR ( 'NONE', #153, 1000.000000000000000 ) ;
#213 = LOCAL_TIME ( 12, 4, 10.00000000000000000, #220 ) ;
#214 = ORIENTED_EDGE ( 'NONE', *, *, #195, .T. ) ;
#215 = APPROVAL_ROLE ( '' ) ;
#216 = DIRECTION ( 'NONE',  ( 0.000000000000000000, 0.000000000000000000, -1.000000000000000000 ) ) ;
#217 = APPROVAL ( #250, 'UNSPECIFIED' ) ;
#218 = EDGE_LOOP ( 'NONE', ( #201, #222, #8, #295 ) ) ;
#219 = EDGE_CURVE ( 'NONE', #60, #319, #336, .T. ) ;
#220 = COORDINATED_UNIVERSAL_TIME_OFFSET ( 10, 0, .AHEAD. ) ;
#221 = CARTESIAN_POINT ( 'NONE',  ( -255.0000000000000000, -260.0000000000000000, -145.0000000000000000 ) ) ;
#222 = ORIENTED_EDGE ( 'NONE', *, *, #185, .T. ) ;
#223 = VECTOR ( 'NONE', #177, 1000.000000000000000 ) ;
#224 = AXIS2_PLACEMENT_3D ( 'NONE', #110, #143, #44 ) ;
#225 = APPROVAL_STATUS ( 'not_yet_approved' ) ;
#226 = FACE_OUTER_BOUND ( 'NONE', #170, .T. ) ;
#227 = ORIENTED_EDGE ( 'NONE', *, *, #185, .F. ) ;
#228 = CYLINDRICAL_SURFACE ( 'NONE', #138, 30.14999999999999858 ) ;
#229 = VERTEX_POINT ( 'NONE', #280 ) ;
#230 = CARTESIAN_POINT ( 'NONE',  ( -76.20000000000000284, -260.0000000000000000, -114.8499999999999801 ) ) ;
#231 = EDGE_LOOP ( 'NONE', ( #140, #198, #130, #349 ) ) ;
#232 = CIRCLE ( 'NONE', #74, 30.14999999999999858 ) ;
#233 = ORIENTED_EDGE ( 'NONE', *, *, #405, .F. ) ;
#234 = DESIGN_CONTEXT ( 'detailed design', #257, 'design' ) ;
#235 = CARTESIAN_POINT ( 'NONE',  ( -255.0000000000000000, -260.0000000000000000, -175.1500000000000057 ) ) ;
#236 = FACE_OUTER_BOUND ( 'NONE', #287, .T. ) ;
#237 = SECURITY_CLASSIFICATION ( '', '', #54 ) ;
#238 = FACE_OUTER_BOUND ( 'NONE', #63, .T. ) ;
#239 = EDGE_CURVE ( 'NONE', #262, #57, #107, .T. ) ;
#240 = CARTESIAN_POINT ( 'NONE',  ( 0.000000000000000000, -183.8000000000000114, 0.000000000000000000 ) ) ;
#241 = CARTESIAN_POINT ( 'NONE',  ( 0.000000000000000000, -183.8000000000000114, 30.14999999999999858 ) ) ;
#242 = AXIS2_PLACEMENT_3D ( 'NONE', #203, #41, #171 ) ;
#243 = AXIS2_PLACEMENT_3D ( 'NONE', #255, #135, #160 ) ;
#244 = PERSON_AND_ORGANIZATION ( #80, #374 ) ;
#245 = DIRECTION ( 'NONE',  ( -1.000000000000000000, 0.000000000000000000, 0.000000000000000000 ) ) ;
#246 = ADVANCED_FACE ( 'NONE', ( #238 ), #152, .T. ) ;
#247 = DIRECTION ( 'NONE',  ( 0.000000000000000000, -1.000000000000000000, 6.123233995736766036E-17 ) ) ;
#248 = APPROVAL_PERSON_ORGANIZATION ( #204, #217, #307 ) ;
#249 = EDGE_LOOP ( 'NONE', ( #313, #281, #380, #37 ) ) ;
#250 = APPROVAL_STATUS ( 'not_yet_approved' ) ;
#251 = CARTESIAN_POINT ( 'NONE',  ( -76.20000000000000284, -260.0000000000000000, -145.0000000000000000 ) ) ;
#252 = CALENDAR_DATE ( 2025, 20, 11 ) ;
#253 = CARTESIAN_POINT ( 'NONE',  ( 3.692310099429270397E-15, -183.8000000000000114, -30.14999999999999858 ) ) ;
#254 = CARTESIAN_POINT ( 'NONE',  ( 0.000000000000000000, -139.6999999999999886, 0.000000000000000000 ) ) ;
#255 = CARTESIAN_POINT ( 'NONE',  ( -255.0000000000000000, -260.0000000000000000, -145.0000000000000000 ) ) ;
#256 = EDGE_LOOP ( 'NONE', ( #194, #96, #214, #30 ) ) ;
#257 = APPLICATION_CONTEXT ( 'configuration controlled 3d designs of mechanical parts and assemblies' ) ;
#258 = CIRCLE ( 'NONE', #145, 30.14999999999999858 ) ;
#259 = CARTESIAN_POINT ( 'NONE',  ( 0.000000000000000000, -183.8000000000000114, 0.000000000000000000 ) ) ;
#260 = ORIENTED_EDGE ( 'NONE', *, *, #288, .T. ) ;
#261 = CYLINDRICAL_SURFACE ( 'NONE', #387, 26.24999999999999645 ) ;
#262 = VERTEX_POINT ( 'NONE', #271 ) ;
#263 = ORIENTED_EDGE ( 'NONE', *, *, #141, .T. ) ;
#264 = CIRCLE ( 'NONE', #311, 30.14999999999999858 ) ;
#265 = PRODUCT_DEFINITION_FORMATION_WITH_SPECIFIED_SOURCE ( 'ANY', '', #121, .NOT_KNOWN. ) ;
#266 = EDGE_LOOP ( 'NONE', ( #321, #227 ) ) ;
#267 = DIRECTION ( 'NONE',  ( 0.000000000000000000, -6.123233995736766036E-17, -1.000000000000000000 ) ) ;
#268 = DIRECTION ( 'NONE',  ( 0.000000000000000000, -1.000000000000000000, 6.123233995736766036E-17 ) ) ;
#269 = CIRCLE ( 'NONE', #318, 30.15000000000000924 ) ;
#270 = CARTESIAN_POINT ( 'NONE',  ( 3.214697847761801978E-15, -183.8000000000000114, -26.25000000000000000 ) ) ;
#271 = CARTESIAN_POINT ( 'NONE',  ( -76.20000000000000284, -260.0000000000000000, -118.7500000000000000 ) ) ;
#272 =( NAMED_UNIT ( * ) SI_UNIT ( $, .STERADIAN. ) SOLID_ANGLE_UNIT ( ) );
#273 = EDGE_CURVE ( 'NONE', #180, #60, #33, .T. ) ;
#274 = CARTESIAN_POINT ( 'NONE',  ( -255.0000000000000000, -260.0000000000000000, -114.8499999999999801 ) ) ;
#275 = DIRECTION ( 'NONE',  ( -1.000000000000000000, 0.000000000000000000, 0.000000000000000000 ) ) ;
#276 = CARTESIAN_POINT ( 'NONE',  ( 3.214697847761801978E-15, -139.6999999999999886, -26.25000000000000000 ) ) ;
#277 = CC_DESIGN_DATE_AND_TIME_ASSIGNMENT ( #410, #50, ( #237 ) ) ;
#278 = DIRECTION ( 'NONE',  ( -1.000000000000000000, 0.000000000000000000, 0.000000000000000000 ) ) ;
#279 = VERTEX_POINT ( 'NONE', #301 ) ;
#280 = CARTESIAN_POINT ( 'NONE',  ( -255.0000000000000000, -260.0000000000000000, -118.7500000000000000 ) ) ;
#281 = ORIENTED_EDGE ( 'NONE', *, *, #294, .T. ) ;
#282 = COORDINATED_UNIVERSAL_TIME_OFFSET ( 10, 0, .AHEAD. ) ;
#283 = CYLINDRICAL_SURFACE ( 'NONE', #65, 30.14999999999999858 ) ;
#284 = DIRECTION ( 'NONE',  ( 0.000000000000000000, -1.000000000000000000, 6.123233995736766036E-17 ) ) ;
#285 = ORIENTED_EDGE ( 'NONE', *, *, #371, .F. ) ;
#286 = DIRECTION ( 'NONE',  ( 0.000000000000000000, 0.000000000000000000, 1.000000000000000000 ) ) ;
#287 = EDGE_LOOP ( 'NONE', ( #89, #316, #134, #352 ) ) ;
#288 = EDGE_CURVE ( 'NONE', #190, #378, #320, .T. ) ;
#289 = PLANE ( 'NONE',  #202 ) ;
#290 = ORIENTED_EDGE ( 'NONE', *, *, #298, .T. ) ;
#291 = CYLINDRICAL_SURFACE ( 'NONE', #243, 26.24999999999999645 ) ;
#292 = ORIENTED_EDGE ( 'NONE', *, *, #27, .F. ) ;
#293 = DIRECTION ( 'NONE',  ( -1.000000000000000000, 0.000000000000000000, 0.000000000000000000 ) ) ;
#294 = EDGE_CURVE ( 'NONE', #229, #262, #329, .T. ) ;
#295 = ORIENTED_EDGE ( 'NONE', *, *, #239, .F. ) ;
#296 = ORIENTED_EDGE ( 'NONE', *, *, #172, .F. ) ;
#297 =( LENGTH_UNIT ( ) NAMED_UNIT ( * ) SI_UNIT ( .MILLI., .METRE. ) );
#298 = EDGE_CURVE ( 'NONE', #378, #99, #42, .T. ) ;
#299 = AXIS2_PLACEMENT_3D ( 'NONE', #346, #187, #26 ) ;
#300 = CARTESIAN_POINT ( 'NONE',  ( -255.0000000000000000, -260.0000000000000000, -145.0000000000000000 ) ) ;
#301 = CARTESIAN_POINT ( 'NONE',  ( -255.0000000000000000, -260.0000000000000000, -171.2499999999999716 ) ) ;
#302 = CARTESIAN_POINT ( 'NONE',  ( -255.0000000000000000, -260.0000000000000000, -175.1500000000000057 ) ) ;
#303 = CARTESIAN_POINT ( 'NONE',  ( -76.20000000000000284, -260.0000000000000000, -145.0000000000000000 ) ) ;
#304 = AXIS2_PLACEMENT_3D ( 'NONE', #72, #11, #267 ) ;
#305 = DATE_AND_TIME ( #376, #71 ) ;
#306 = DIRECTION ( 'NONE',  ( 0.000000000000000000, -1.000000000000000000, 0.000000000000000000 ) ) ;
#307 = APPROVAL_ROLE ( '' ) ;
#308 = DIRECTION ( 'NONE',  ( -0.000000000000000000, 1.000000000000000000, -0.000000000000000000 ) ) ;
#309 = SHAPE_DEFINITION_REPRESENTATION ( #332, #14 ) ;
#310 = FACE_BOUND ( 'NONE', #206, .T. ) ;
#311 = AXIS2_PLACEMENT_3D ( 'NONE', #370, #284, #407 ) ;
#312 = CC_DESIGN_APPROVAL ( #154, ( #265 ) ) ;
#313 = ORIENTED_EDGE ( 'NONE', *, *, #31, .T. ) ;
#314 = DIRECTION ( 'NONE',  ( 0.000000000000000000, -1.000000000000000000, 0.000000000000000000 ) ) ;
#315 = FACE_OUTER_BOUND ( 'NONE', #249, .T. ) ;
#316 = ORIENTED_EDGE ( 'NONE', *, *, #288, .F. ) ;
#317 = DIRECTION ( 'NONE',  ( 1.000000000000000000, -0.000000000000000000, -0.000000000000000000 ) ) ;
#318 = AXIS2_PLACEMENT_3D ( 'NONE', #151, #275, #397 ) ;
#319 = VERTEX_POINT ( 'NONE', #327 ) ;
#320 = CIRCLE ( 'NONE', #224, 30.15000000000000924 ) ;
#321 = ORIENTED_EDGE ( 'NONE', *, *, #31, .F. ) ;
#322 = LINE ( 'NONE', #353, #363 ) ;
#323 = ORIENTED_EDGE ( 'NONE', *, *, #16, .T. ) ;
#324 = ORIENTED_EDGE ( 'NONE', *, *, #169, .T. ) ;
#325 = CIRCLE ( 'NONE', #139, 30.15000000000000924 ) ;
#326 = CC_DESIGN_PERSON_AND_ORGANIZATION_ASSIGNMENT ( #333, #53, ( #265 ) ) ;
#327 = CARTESIAN_POINT ( 'NONE',  ( 0.000000000000000000, -139.6999999999999886, 26.25000000000000000 ) ) ;
#328 = VECTOR ( 'NONE', #175, 1000.000000000000000 ) ;
#329 = LINE ( 'NONE', #20, #119 ) ;
#330 = CC_DESIGN_DATE_AND_TIME_ASSIGNMENT ( #94, #132, ( #406 ) ) ;
#331 = DIRECTION ( 'NONE',  ( 0.000000000000000000, 0.000000000000000000, -1.000000000000000000 ) ) ;
#332 = PRODUCT_DEFINITION_SHAPE ( 'NONE', 'NONE',  #406 ) ;
#333 = PERSON_AND_ORGANIZATION ( #80, #374 ) ;
#334 = AXIS2_PLACEMENT_3D ( 'NONE', #254, #247, #211 ) ;
#335 = APPROVAL_PERSON_ORGANIZATION ( #162, #351, #369 ) ;
#336 = LINE ( 'NONE', #52, #212 ) ;
#337 = UNCERTAINTY_MEASURE_WITH_UNIT (LENGTH_MEASURE( 1.000000000000000082E-05 ), #297, 'distance_accuracy_value', 'NONE');
#338 = CC_DESIGN_PERSON_AND_ORGANIZATION_ASSIGNMENT ( #343, #24, ( #265 ) ) ;
#339 = VERTEX_POINT ( 'NONE', #276 ) ;
#340 = DIRECTION ( 'NONE',  ( 0.000000000000000000, -1.000000000000000000, 6.123233995736766036E-17 ) ) ;
#341 = CARTESIAN_POINT ( 'NONE',  ( 0.000000000000000000, -183.8000000000000114, 26.25000000000000000 ) ) ;
#342 = ORIENTED_EDGE ( 'NONE', *, *, #239, .T. ) ;
#343 = PERSON_AND_ORGANIZATION ( #80, #374 ) ;
#344 = CARTESIAN_POINT ( 'NONE',  ( -76.20000000000000284, -260.0000000000000000, -145.0000000000000000 ) ) ;
#345 = ORIENTED_EDGE ( 'NONE', *, *, #9, .F. ) ;
#346 = CARTESIAN_POINT ( 'NONE',  ( 0.000000000000000000, -183.8000000000000114, 0.000000000000000000 ) ) ;
#347 = ORIENTED_EDGE ( 'NONE', *, *, #219, .T. ) ;
#348 = CARTESIAN_POINT ( 'NONE',  ( -255.0000000000000000, -260.0000000000000000, -145.0000000000000000 ) ) ;
#349 = ORIENTED_EDGE ( 'NONE', *, *, #219, .F. ) ;
#350 = CC_DESIGN_SECURITY_CLASSIFICATION ( #237, ( #265 ) ) ;
#351 = APPROVAL ( #183, 'UNSPECIFIED' ) ;
#352 = ORIENTED_EDGE ( 'NONE', *, *, #205, .T. ) ;
#353 = CARTESIAN_POINT ( 'NONE',  ( 0.000000000000000000, -183.8000000000000114, 30.14999999999999858 ) ) ;
#354 = CIRCLE ( 'NONE', #334, 30.14999999999999858 ) ;
#355 = CARTESIAN_POINT ( 'NONE',  ( -76.20000000000000284, -260.0000000000000000, -175.1500000000000057 ) ) ;
#356 = CARTESIAN_POINT ( 'NONE',  ( -255.0000000000000000, -260.0000000000000000, -145.0000000000000000 ) ) ;
#357 = CARTESIAN_POINT ( 'NONE',  ( 3.214697847761801978E-15, -183.8000000000000114, -26.25000000000000000 ) ) ;
#358 = FACE_OUTER_BOUND ( 'NONE', #231, .T. ) ;
#359 = DIRECTION ( 'NONE',  ( 0.000000000000000000, -1.000000000000000000, 6.123233995736766036E-17 ) ) ;
#360 = CIRCLE ( 'NONE', #196, 26.25000000000000000 ) ;
#361 = PERSON_AND_ORGANIZATION_ROLE ( 'design_owner' ) ;
#362 = DIRECTION ( 'NONE',  ( 0.000000000000000000, -1.000000000000000000, 0.000000000000000000 ) ) ;
#363 = VECTOR ( 'NONE', #208, 1000.000000000000000 ) ;
#364 = APPROVAL_PERSON_ORGANIZATION ( #188, #154, #215 ) ;
#365 = CYLINDRICAL_SURFACE ( 'NONE', #3, 26.25000000000000000 ) ;
#366 = ORIENTED_EDGE ( 'NONE', *, *, #205, .F. ) ;
#367 = PRODUCT_RELATED_PRODUCT_CATEGORY ( 'detail', '', ( #121 ) ) ;
#368 = CARTESIAN_POINT ( 'NONE',  ( 0.000000000000000000, -139.6999999999999886, 0.000000000000000000 ) ) ;
#369 = APPROVAL_ROLE ( '' ) ;
#370 = CARTESIAN_POINT ( 'NONE',  ( 0.000000000000000000, -183.8000000000000114, 0.000000000000000000 ) ) ;
#371 = EDGE_CURVE ( 'NONE', #117, #23, #232, .T. ) ;
#372 = FACE_BOUND ( 'NONE', #266, .T. ) ;
#373 = CIRCLE ( 'NONE', #70, 26.25000000000000000 ) ;
#374 = ORGANIZATION ( 'UNSPECIFIED', 'UNSPECIFIED', '' ) ;
#375 = ORIENTED_EDGE ( 'NONE', *, *, #169, .F. ) ;
#376 = CALENDAR_DATE ( 2025, 20, 11 ) ;
#377 = CARTESIAN_POINT ( 'NONE',  ( -255.0000000000000000, -260.0000000000000000, -171.2499999999999716 ) ) ;
#378 = VERTEX_POINT ( 'NONE', #274 ) ;
#379 = FACE_OUTER_BOUND ( 'NONE', #256, .T. ) ;
#380 = ORIENTED_EDGE ( 'NONE', *, *, #141, .F. ) ;
#381 = ORIENTED_EDGE ( 'NONE', *, *, #391, .F. ) ;
#382 = CIRCLE ( 'NONE', #165, 30.15000000000000924 ) ;
#383 = LOCAL_TIME ( 12, 4, 10.00000000000000000, #159 ) ;
#384 = DIRECTION ( 'NONE',  ( 0.000000000000000000, -1.000000000000000000, 0.000000000000000000 ) ) ;
#385 = DIRECTION ( 'NONE',  ( 0.000000000000000000, -1.000000000000000000, 6.123233995736766036E-17 ) ) ;
#386 = CLOSED_SHELL ( 'NONE', ( #43, #200, #98, #47, #111, #182 ) ) ;
#387 = AXIS2_PLACEMENT_3D ( 'NONE', #348, #317, #216 ) ;
#388 =( GEOMETRIC_REPRESENTATION_CONTEXT ( 3 ) GLOBAL_UNCERTAINTY_ASSIGNED_CONTEXT ( ( #337 ) ) GLOBAL_UNIT_ASSIGNED_CONTEXT ( ( #297, #73, #272 ) ) REPRESENTATION_CONTEXT ( 'NONE', 'WORKASPACE' ) );
#389 = FACE_OUTER_BOUND ( 'NONE', #161, .T. ) ;
#390 = DIRECTION ( 'NONE',  ( 0.000000000000000000, 0.000000000000000000, 1.000000000000000000 ) ) ;
#391 = EDGE_CURVE ( 'NONE', #190, #5, #17, .T. ) ;
#392 = DIRECTION ( 'NONE',  ( 0.000000000000000000, 0.000000000000000000, -1.000000000000000000 ) ) ;
#393 = DIRECTION ( 'NONE',  ( 0.000000000000000000, -1.000000000000000000, 0.000000000000000000 ) ) ;
#394 = AXIS2_PLACEMENT_3D ( 'NONE', #115, #245, #362 ) ;
#395 = AXIS2_PLACEMENT_3D ( 'NONE', #344, #29, #133 ) ;
#396 = LINE ( 'NONE', #357, #158 ) ;
#397 = DIRECTION ( 'NONE',  ( 0.000000000000000000, -1.000000000000000000, 0.000000000000000000 ) ) ;
#398 = EDGE_CURVE ( 'NONE', #180, #339, #396, .T. ) ;
#399 = DIRECTION ( 'NONE',  ( -1.000000000000000000, 0.000000000000000000, 0.000000000000000000 ) ) ;
#400 = COORDINATED_UNIVERSAL_TIME_OFFSET ( 10, 0, .AHEAD. ) ;
#401 = CARTESIAN_POINT ( 'NONE',  ( -76.20000000000000284, -260.0000000000000000, -145.0000000000000000 ) ) ;
#402 = ORIENTED_EDGE ( 'NONE', *, *, #273, .F. ) ;
#403 = AXIS2_PLACEMENT_3D ( 'NONE', #300, #46, #178 ) ;
#404 = CARTESIAN_POINT ( 'NONE',  ( -76.20000000000000284, -260.0000000000000000, -171.2499999999999716 ) ) ;
#405 = EDGE_CURVE ( 'NONE', #99, #5, #382, .T. ) ;
#406 = PRODUCT_DEFINITION ( 'UNKNOWN', '', #265, #234 ) ;
#407 = DIRECTION ( 'NONE',  ( 0.000000000000000000, 0.000000000000000000, -1.000000000000000000 ) ) ;
#408 = CARTESIAN_POINT ( 'NONE',  ( 0.000000000000000000, -183.8000000000000114, 0.000000000000000000 ) ) ;
#409 = VERTEX_POINT ( 'NONE', #241 ) ;
#410 = DATE_AND_TIME ( #186, #383 ) ;
#411 = CARTESIAN_POINT ( 'NONE',  ( 0.000000000000000000, -183.8000000000000114, 0.000000000000000000 ) ) ;
ENDSEC;
END-ISO-10303-21;
