ISO-10303-21;
HEADER;
FILE_DESCRIPTION (( 'STEP AP203' ),
    '1' );
FILE_NAME ('3435-50-022-04_REV_.step',
    '2025-11-20T01:02:47',
    ( '' ),
    ( '' ),
    'SwSTEP 2.0',
    'SolidWorks 2025',
    '' );
FILE_SCHEMA (( 'CONFIG_CONTROL_DESIGN' ));
ENDSEC;

DATA;
#1 = CC_DESIGN_PERSON_AND_ORGANIZATION_ASSIGNMENT ( #129, #200, ( #222 ) ) ;
#2 = FACE_OUTER_BOUND ( 'NONE', #51, .T. ) ;
#3 = DIRECTION ( 'NONE',  ( 1.000000000000000000, 3.061616997868382648E-16, -0.000000000000000000 ) ) ;
#4 = CARTESIAN_POINT ( 'NONE',  ( -31.50000000000000000, -6.184466335694133659E-15, 0.000000000000000000 ) ) ;
#5 = CARTESIAN_POINT ( 'NONE',  ( 0.000000000000000000, 0.000000000000000000, 0.000000000000000000 ) ) ;
#6 = CARTESIAN_POINT ( 'NONE',  ( -31.50000000000000000, -6.184466335694133659E-15, 0.000000000000000000 ) ) ;
#7 = DATE_AND_TIME ( #166, #173 ) ;
#8 = EDGE_LOOP ( 'NONE', ( #11, #31 ) ) ;
#9 = PERSON_AND_ORGANIZATION ( #66, #180 ) ;
#10 = ORIENTED_EDGE ( 'NONE', *, *, #144, .T. ) ;
#11 = ORIENTED_EDGE ( 'NONE', *, *, #154, .F. ) ;
#12 = AXIS2_PLACEMENT_3D ( 'NONE', #78, #74, #207 ) ;
#13 = ORIENTED_EDGE ( 'NONE', *, *, #229, .T. ) ;
#14 = ADVANCED_FACE ( 'NONE', ( #35 ), #96, .F. ) ;
#15 = EDGE_CURVE ( 'NONE', #57, #56, #175, .T. ) ;
#16 = CARTESIAN_POINT ( 'NONE',  ( -31.50000000000000000, -6.184466335694133659E-15, 0.000000000000000000 ) ) ;
#17 = APPLICATION_CONTEXT ( 'configuration controlled 3d designs of mechanical parts and assemblies' ) ;
#18 = DESIGN_CONTEXT ( 'detailed design', #17, 'design' ) ;
#19 = EDGE_CURVE ( 'NONE', #227, #204, #228, .T. ) ;
#20 = LINE ( 'NONE', #107, #157 ) ;
#21 = APPROVAL_DATE_TIME ( #27, #226 ) ;
#22 = DIRECTION ( 'NONE',  ( -1.000000000000000000, -3.061616997868382648E-16, 0.000000000000000000 ) ) ;
#23 = DIRECTION ( 'NONE',  ( 0.000000000000000000, 0.000000000000000000, 1.000000000000000000 ) ) ;
#24 = DIRECTION ( 'NONE',  ( 1.000000000000000000, 3.061616997868382648E-16, -0.000000000000000000 ) ) ;
#25 = PERSON_AND_ORGANIZATION ( #66, #180 ) ;
#26 = DIRECTION ( 'NONE',  ( -2.643388153869420311E-16, 1.000000000000000000, 0.000000000000000000 ) ) ;
#27 = DATE_AND_TIME ( #199, #88 ) ;
#28 = ORIENTED_EDGE ( 'NONE', *, *, #201, .F. ) ;
#29 = COORDINATED_UNIVERSAL_TIME_OFFSET ( 10, 0, .AHEAD. ) ;
#30 = AXIS2_PLACEMENT_3D ( 'NONE', #79, #48, #163 ) ;
#31 = ORIENTED_EDGE ( 'NONE', *, *, #103, .F. ) ;
#32 = APPROVAL ( #146, 'UNSPECIFIED' ) ;
#33 = AXIS2_PLACEMENT_3D ( 'NONE', #58, #118, #81 ) ;
#34 = ORIENTED_EDGE ( 'NONE', *, *, #235, .T. ) ;
#35 = FACE_OUTER_BOUND ( 'NONE', #242, .T. ) ;
#36 = ADVANCED_FACE ( 'NONE', ( #72 ), #158, .T. ) ;
#37 = UNCERTAINTY_MEASURE_WITH_UNIT (LENGTH_MEASURE( 1.000000000000000082E-05 ), #104, 'distance_accuracy_value', 'NONE');
#38 = DIRECTION ( 'NONE',  ( 3.061616997868382648E-16, -1.000000000000000000, 0.000000000000000000 ) ) ;
#39 = ADVANCED_FACE ( 'NONE', ( #224, #121 ), #193, .T. ) ;
#40 = CIRCLE ( 'NONE', #184, 26.25000000000000000 ) ;
#41 = LOCAL_TIME ( 12, 2, 47.00000000000000000, #29 ) ;
#42 = LINE ( 'NONE', #160, #60 ) ;
#43 = PRODUCT_RELATED_PRODUCT_CATEGORY ( 'detail', '', ( #222 ) ) ;
#44 = PERSON_AND_ORGANIZATION ( #66, #180 ) ;
#45 = DIRECTION ( 'NONE',  ( 2.643388153869420311E-16, -1.000000000000000000, 0.000000000000000000 ) ) ;
#46 = DIRECTION ( 'NONE',  ( 2.301457347896261609E-16, -1.000000000000000000, 0.000000000000000000 ) ) ;
#47 = DIRECTION ( 'NONE',  ( 1.000000000000000000, 0.000000000000000000, 0.000000000000000000 ) ) ;
#48 = DIRECTION ( 'NONE',  ( -1.000000000000000000, -3.061616997868382648E-16, 0.000000000000000000 ) ) ;
#49 = PERSON_AND_ORGANIZATION ( #66, #180 ) ;
#50 = ADVANCED_FACE ( 'NONE', ( #124, #100 ), #249, .F. ) ;
#51 = EDGE_LOOP ( 'NONE', ( #34, #153, #168, #189 ) ) ;
#52 = CIRCLE ( 'NONE', #82, 30.14999999999999858 ) ;
#53 = PRODUCT_DEFINITION_FORMATION_WITH_SPECIFIED_SOURCE ( 'ANY', '', #222, .NOT_KNOWN. ) ;
#54 = EDGE_CURVE ( 'NONE', #57, #71, #149, .T. ) ;
#55 = CC_DESIGN_PERSON_AND_ORGANIZATION_ASSIGNMENT ( #110, #237, ( #53 ) ) ;
#56 = VERTEX_POINT ( 'NONE', #109 ) ;
#57 = VERTEX_POINT ( 'NONE', #181 ) ;
#58 = CARTESIAN_POINT ( 'NONE',  ( 31.50000000000000000, 1.310372075087667663E-14, 0.000000000000000000 ) ) ;
#59 = DIRECTION ( 'NONE',  ( -1.000000000000000000, -3.061616997868382648E-16, 0.000000000000000000 ) ) ;
#60 = VECTOR ( 'NONE', #24, 1000.000000000000000 ) ;
#61 = CC_DESIGN_APPROVAL ( #32, ( #126 ) ) ;
#62 = DATE_AND_TIME ( #113, #41 ) ;
#63 = APPROVAL_STATUS ( 'not_yet_approved' ) ;
#64 = CARTESIAN_POINT ( 'NONE',  ( -31.49999999999999289, -26.25000000000000711, 3.214697847761803556E-15 ) ) ;
#65 = AXIS2_PLACEMENT_3D ( 'NONE', #234, #196, #177 ) ;
#66 = PERSON ( 'UNSPECIFIED', 'UNSPECIFIED', 'UNSPECIFIED', ('UNSPECIFIED'), ('UNSPECIFIED'), ('UNSPECIFIED') ) ;
#67 = PERSON_AND_ORGANIZATION ( #66, #180 ) ;
#68 = ORIENTED_EDGE ( 'NONE', *, *, #54, .F. ) ;
#69 = CALENDAR_DATE ( 2025, 20, 11 ) ;
#70 = AXIS2_PLACEMENT_3D ( 'NONE', #247, #141, #225 ) ;
#71 = VERTEX_POINT ( 'NONE', #85 ) ;
#72 = FACE_OUTER_BOUND ( 'NONE', #243, .T. ) ;
#73 = APPLICATION_CONTEXT ( 'configuration controlled 3d designs of mechanical parts and assemblies' ) ;
#74 = DIRECTION ( 'NONE',  ( -1.000000000000000000, -3.061616997868382648E-16, 0.000000000000000000 ) ) ;
#75 = CARTESIAN_POINT ( 'NONE',  ( -31.49999999999999289, -30.15000000000000568, 3.692310099429270397E-15 ) ) ;
#76 = CC_DESIGN_DATE_AND_TIME_ASSIGNMENT ( #62, #187, ( #126 ) ) ;
#77 = CARTESIAN_POINT ( 'NONE',  ( -31.50000000000000711, 26.24999999999999289, 0.000000000000000000 ) ) ;
#78 = CARTESIAN_POINT ( 'NONE',  ( 31.50000000000000000, 1.310372075087667663E-14, 0.000000000000000000 ) ) ;
#79 = CARTESIAN_POINT ( 'NONE',  ( 31.50000000000000000, 1.310372075087667663E-14, 0.000000000000000000 ) ) ;
#80 = LOCAL_TIME ( 12, 2, 47.00000000000000000, #147 ) ;
#81 = DIRECTION ( 'NONE',  ( 3.061616997868382648E-16, -1.000000000000000000, 0.000000000000000000 ) ) ;
#82 = AXIS2_PLACEMENT_3D ( 'NONE', #214, #209, #128 ) ;
#83 = APPROVAL ( #63, 'UNSPECIFIED' ) ;
#84 = DIRECTION ( 'NONE',  ( 1.000000000000000000, 3.061616997868382648E-16, -0.000000000000000000 ) ) ;
#85 = CARTESIAN_POINT ( 'NONE',  ( -31.50000000000000711, 30.14999999999999147, 0.000000000000000000 ) ) ;
#86 =( NAMED_UNIT ( * ) PLANE_ANGLE_UNIT ( ) SI_UNIT ( $, .RADIAN. ) );
#87 = APPROVAL_ROLE ( '' ) ;
#88 = LOCAL_TIME ( 12, 2, 47.00000000000000000, #132 ) ;
#89 = EDGE_LOOP ( 'NONE', ( #94, #28 ) ) ;
#90 = PERSON_AND_ORGANIZATION ( #66, #180 ) ;
#91 = EDGE_LOOP ( 'NONE', ( #68, #238, #97, #188 ) ) ;
#92 = APPROVAL_DATE_TIME ( #223, #32 ) ;
#93 = VERTEX_POINT ( 'NONE', #64 ) ;
#94 = ORIENTED_EDGE ( 'NONE', *, *, #235, .F. ) ;
#95 = LOCAL_TIME ( 12, 2, 47.00000000000000000, #117 ) ;
#96 = CYLINDRICAL_SURFACE ( 'NONE', #70, 26.25000000000000000 ) ;
#97 = ORIENTED_EDGE ( 'NONE', *, *, #103, .T. ) ;
#98 = CC_DESIGN_DATE_AND_TIME_ASSIGNMENT ( #212, #162, ( #138 ) ) ;
#99 = AXIS2_PLACEMENT_3D ( 'NONE', #6, #84, #26 ) ;
#100 = FACE_OUTER_BOUND ( 'NONE', #8, .T. ) ;
#101 = APPROVAL_PERSON_ORGANIZATION ( #25, #226, #87 ) ;
#102 = CARTESIAN_POINT ( 'NONE',  ( -31.50000000000000000, -6.184466335694133659E-15, 0.000000000000000000 ) ) ;
#103 = EDGE_CURVE ( 'NONE', #56, #239, #246, .T. ) ;
#104 =( LENGTH_UNIT ( ) NAMED_UNIT ( * ) SI_UNIT ( .MILLI., .METRE. ) );
#105 = MECHANICAL_CONTEXT ( 'NONE', #73, 'mechanical' ) ;
#106 = CYLINDRICAL_SURFACE ( 'NONE', #99, 26.25000000000000000 ) ;
#107 = CARTESIAN_POINT ( 'NONE',  ( -31.50000000000000711, 26.24999999999999289, 0.000000000000000000 ) ) ;
#108 = EDGE_CURVE ( 'NONE', #93, #204, #42, .T. ) ;
#109 = CARTESIAN_POINT ( 'NONE',  ( 31.50000000000000711, -30.14999999999998437, 3.692310099429270397E-15 ) ) ;
#110 = PERSON_AND_ORGANIZATION ( #66, #180 ) ;
#111 = ORIENTED_EDGE ( 'NONE', *, *, #19, .T. ) ;
#112 = CIRCLE ( 'NONE', #30, 26.25000000000000000 ) ;
#113 = CALENDAR_DATE ( 2025, 20, 11 ) ;
#114 = VERTEX_POINT ( 'NONE', #77 ) ;
#115 = ORIENTED_EDGE ( 'NONE', *, *, #15, .F. ) ;
#116 = PRODUCT_DEFINITION_SHAPE ( 'NONE', 'NONE',  #138 ) ;
#117 = COORDINATED_UNIVERSAL_TIME_OFFSET ( 10, 0, .AHEAD. ) ;
#118 = DIRECTION ( 'NONE',  ( -1.000000000000000000, -3.061616997868382648E-16, 0.000000000000000000 ) ) ;
#119 = EDGE_LOOP ( 'NONE', ( #111, #13 ) ) ;
#120 = AXIS2_PLACEMENT_3D ( 'NONE', #211, #230, #45 ) ;
#121 = FACE_OUTER_BOUND ( 'NONE', #244, .T. ) ;
#122 = CC_DESIGN_PERSON_AND_ORGANIZATION_ASSIGNMENT ( #44, #198, ( #138 ) ) ;
#123 = DIRECTION ( 'NONE',  ( 1.000000000000000000, 3.061616997868382648E-16, -0.000000000000000000 ) ) ;
#124 = FACE_BOUND ( 'NONE', #119, .T. ) ;
#125 = AXIS2_PLACEMENT_3D ( 'NONE', #102, #208, #46 ) ;
#126 = SECURITY_CLASSIFICATION ( '', '', #216 ) ;
#127 = CARTESIAN_POINT ( 'NONE',  ( -31.50000000000000711, 30.14999999999999147, 0.000000000000000000 ) ) ;
#128 = DIRECTION ( 'NONE',  ( 2.301457347896261609E-16, -1.000000000000000000, 0.000000000000000000 ) ) ;
#129 = PERSON_AND_ORGANIZATION ( #66, #180 ) ;
#130 = VECTOR ( 'NONE', #190, 1000.000000000000000 ) ;
#131 = APPROVAL_PERSON_ORGANIZATION ( #90, #32, #206 ) ;
#132 = COORDINATED_UNIVERSAL_TIME_OFFSET ( 10, 0, .AHEAD. ) ;
#133 = CC_DESIGN_PERSON_AND_ORGANIZATION_ASSIGNMENT ( #49, #203, ( #126 ) ) ;
#134 = CARTESIAN_POINT ( 'NONE',  ( -31.50000000000000000, -6.184466335694133659E-15, 0.000000000000000000 ) ) ;
#135 = APPLICATION_PROTOCOL_DEFINITION ( 'international standard', 'config_control_design', 1994, #73 ) ;
#136 = DIRECTION ( 'NONE',  ( 2.643388153869420311E-16, -1.000000000000000000, 0.000000000000000000 ) ) ;
#137 = AXIS2_PLACEMENT_3D ( 'NONE', #143, #59, #248 ) ;
#138 = PRODUCT_DEFINITION ( 'UNKNOWN', '', #53, #18 ) ;
#139 = ORIENTED_EDGE ( 'NONE', *, *, #245, .F. ) ;
#140 = ORIENTED_EDGE ( 'NONE', *, *, #192, .T. ) ;
#141 = DIRECTION ( 'NONE',  ( 1.000000000000000000, 3.061616997868382648E-16, -0.000000000000000000 ) ) ;
#142 = DIRECTION ( 'NONE',  ( -1.000000000000000000, -3.061616997868382648E-16, 0.000000000000000000 ) ) ;
#143 = CARTESIAN_POINT ( 'NONE',  ( 31.50000000000000000, 1.310372075087667663E-14, 0.000000000000000000 ) ) ;
#144 = EDGE_CURVE ( 'NONE', #71, #239, #195, .T. ) ;
#145 = AXIS2_PLACEMENT_3D ( 'NONE', #4, #215, #161 ) ;
#146 = APPROVAL_STATUS ( 'not_yet_approved' ) ;
#147 = COORDINATED_UNIVERSAL_TIME_OFFSET ( 10, 0, .AHEAD. ) ;
#148 = CALENDAR_DATE ( 2025, 20, 11 ) ;
#149 = CIRCLE ( 'NONE', #125, 30.14999999999999858 ) ;
#150 = CLOSED_SHELL ( 'NONE', ( #186, #174, #14, #36, #39, #50 ) ) ;
#151 = CARTESIAN_POINT ( 'NONE',  ( 31.49999999999999289, 26.25000000000001421, 0.000000000000000000 ) ) ;
#152 = PERSON_AND_ORGANIZATION_ROLE ( 'design_supplier' ) ;
#153 = ORIENTED_EDGE ( 'NONE', *, *, #108, .T. ) ;
#154 = EDGE_CURVE ( 'NONE', #239, #56, #176, .T. ) ;
#155 = ORIENTED_EDGE ( 'NONE', *, *, #245, .T. ) ;
#156 = ORIENTED_EDGE ( 'NONE', *, *, #229, .F. ) ;
#157 = VECTOR ( 'NONE', #3, 1000.000000000000000 ) ;
#158 = CYLINDRICAL_SURFACE ( 'NONE', #179, 30.14999999999999858 ) ;
#159 = CARTESIAN_POINT ( 'NONE',  ( -31.50000000000000000, -6.184466335694133659E-15, 0.000000000000000000 ) ) ;
#160 = CARTESIAN_POINT ( 'NONE',  ( -31.49999999999999289, -26.25000000000000711, 3.214697847761801978E-15 ) ) ;
#161 = DIRECTION ( 'NONE',  ( -2.301457347896261609E-16, 1.000000000000000000, 0.000000000000000000 ) ) ;
#162 = DATE_TIME_ROLE ( 'creation_date' ) ;
#163 = DIRECTION ( 'NONE',  ( 2.643388153869420311E-16, -1.000000000000000000, 0.000000000000000000 ) ) ;
#164 =( NAMED_UNIT ( * ) SI_UNIT ( $, .STERADIAN. ) SOLID_ANGLE_UNIT ( ) );
#165 = ORIENTED_EDGE ( 'NONE', *, *, #54, .T. ) ;
#166 = CALENDAR_DATE ( 2025, 20, 11 ) ;
#167 = ORIENTED_EDGE ( 'NONE', *, *, #201, .T. ) ;
#168 = ORIENTED_EDGE ( 'NONE', *, *, #19, .F. ) ;
#169 = CC_DESIGN_PERSON_AND_ORGANIZATION_ASSIGNMENT ( #67, #152, ( #53 ) ) ;
#170 = ADVANCED_BREP_SHAPE_REPRESENTATION ( '3435-50-022-04_REV_', ( #221, #241 ), #194 ) ;
#171 = ORIENTED_EDGE ( 'NONE', *, *, #154, .T. ) ;
#172 = CIRCLE ( 'NONE', #120, 26.25000000000000000 ) ;
#173 = LOCAL_TIME ( 12, 2, 47.00000000000000000, #210 ) ;
#174 = ADVANCED_FACE ( 'NONE', ( #2 ), #106, .F. ) ;
#175 = LINE ( 'NONE', #75, #130 ) ;
#176 = CIRCLE ( 'NONE', #65, 30.14999999999999858 ) ;
#177 = DIRECTION ( 'NONE',  ( 2.301457347896261609E-16, -1.000000000000000000, 0.000000000000000000 ) ) ;
#178 = FACE_OUTER_BOUND ( 'NONE', #91, .T. ) ;
#179 = AXIS2_PLACEMENT_3D ( 'NONE', #16, #123, #191 ) ;
#180 = ORGANIZATION ( 'UNSPECIFIED', 'UNSPECIFIED', '' ) ;
#181 = CARTESIAN_POINT ( 'NONE',  ( -31.49999999999999289, -30.15000000000000924, 3.692310099429271974E-15 ) ) ;
#182 = CARTESIAN_POINT ( 'NONE',  ( 31.49999999999999289, 30.15000000000001634, 0.000000000000000000 ) ) ;
#183 = APPROVAL_ROLE ( '' ) ;
#184 = AXIS2_PLACEMENT_3D ( 'NONE', #134, #22, #136 ) ;
#185 = CC_DESIGN_SECURITY_CLASSIFICATION ( #126, ( #53 ) ) ;
#186 = ADVANCED_FACE ( 'NONE', ( #178 ), #202, .T. ) ;
#187 = DATE_TIME_ROLE ( 'classification_date' ) ;
#188 = ORIENTED_EDGE ( 'NONE', *, *, #144, .F. ) ;
#189 = ORIENTED_EDGE ( 'NONE', *, *, #192, .F. ) ;
#190 = DIRECTION ( 'NONE',  ( 1.000000000000000000, 3.061616997868382648E-16, -0.000000000000000000 ) ) ;
#191 = DIRECTION ( 'NONE',  ( -2.301457347896261609E-16, 1.000000000000000000, 0.000000000000000000 ) ) ;
#192 = EDGE_CURVE ( 'NONE', #114, #227, #20, .T. ) ;
#193 = PLANE ( 'NONE',  #213 ) ;
#194 =( GEOMETRIC_REPRESENTATION_CONTEXT ( 3 ) GLOBAL_UNCERTAINTY_ASSIGNED_CONTEXT ( ( #37 ) ) GLOBAL_UNIT_ASSIGNED_CONTEXT ( ( #104, #86, #164 ) ) REPRESENTATION_CONTEXT ( 'NONE', 'WORKASPACE' ) );
#195 = LINE ( 'NONE', #127, #240 ) ;
#196 = DIRECTION ( 'NONE',  ( -1.000000000000000000, -3.061616997868382648E-16, 0.000000000000000000 ) ) ;
#197 = APPROVAL_DATE_TIME ( #7, #83 ) ;
#198 = PERSON_AND_ORGANIZATION_ROLE ( 'creator' ) ;
#199 = CALENDAR_DATE ( 2025, 20, 11 ) ;
#200 = PERSON_AND_ORGANIZATION_ROLE ( 'design_owner' ) ;
#201 = EDGE_CURVE ( 'NONE', #93, #114, #40, .T. ) ;
#202 = CYLINDRICAL_SURFACE ( 'NONE', #145, 30.14999999999999858 ) ;
#203 = PERSON_AND_ORGANIZATION_ROLE ( 'classification_officer' ) ;
#204 = VERTEX_POINT ( 'NONE', #233 ) ;
#205 = CC_DESIGN_APPROVAL ( #83, ( #138 ) ) ;
#206 = APPROVAL_ROLE ( '' ) ;
#207 = DIRECTION ( 'NONE',  ( 2.643388153869420311E-16, -1.000000000000000000, 0.000000000000000000 ) ) ;
#208 = DIRECTION ( 'NONE',  ( -1.000000000000000000, -3.061616997868382648E-16, 0.000000000000000000 ) ) ;
#209 = DIRECTION ( 'NONE',  ( -1.000000000000000000, -3.061616997868382648E-16, 0.000000000000000000 ) ) ;
#210 = COORDINATED_UNIVERSAL_TIME_OFFSET ( 10, 0, .AHEAD. ) ;
#211 = CARTESIAN_POINT ( 'NONE',  ( -31.50000000000000000, -6.184466335694133659E-15, 0.000000000000000000 ) ) ;
#212 = DATE_AND_TIME ( #148, #80 ) ;
#213 = AXIS2_PLACEMENT_3D ( 'NONE', #159, #142, #38 ) ;
#214 = CARTESIAN_POINT ( 'NONE',  ( -31.50000000000000000, -6.184466335694133659E-15, 0.000000000000000000 ) ) ;
#215 = DIRECTION ( 'NONE',  ( 1.000000000000000000, 3.061616997868382648E-16, -0.000000000000000000 ) ) ;
#216 = SECURITY_CLASSIFICATION_LEVEL ( 'unclassified' ) ;
#217 = ORIENTED_EDGE ( 'NONE', *, *, #108, .F. ) ;
#218 = SHAPE_DEFINITION_REPRESENTATION ( #116, #170 ) ;
#219 = APPROVAL_PERSON_ORGANIZATION ( #9, #83, #183 ) ;
#220 = CC_DESIGN_APPROVAL ( #226, ( #53 ) ) ;
#221 = MANIFOLD_SOLID_BREP ( 'Stainless chs 60.3 X 3.9 CHS(1)', #150 ) ;
#222 = PRODUCT ( '3435-50-022-04_REV_', '3435-50-022-04_REV_', '', ( #105 ) ) ;
#223 = DATE_AND_TIME ( #69, #95 ) ;
#224 = FACE_BOUND ( 'NONE', #89, .T. ) ;
#225 = DIRECTION ( 'NONE',  ( -2.643388153869420311E-16, 1.000000000000000000, 0.000000000000000000 ) ) ;
#226 = APPROVAL ( #236, 'UNSPECIFIED' ) ;
#227 = VERTEX_POINT ( 'NONE', #151 ) ;
#228 = CIRCLE ( 'NONE', #12, 26.25000000000000000 ) ;
#229 = EDGE_CURVE ( 'NONE', #204, #227, #112, .T. ) ;
#230 = DIRECTION ( 'NONE',  ( -1.000000000000000000, -3.061616997868382648E-16, 0.000000000000000000 ) ) ;
#231 = APPLICATION_PROTOCOL_DEFINITION ( 'international standard', 'config_control_design', 1994, #17 ) ;
#232 = DIRECTION ( 'NONE',  ( 1.000000000000000000, 3.061616997868382648E-16, -0.000000000000000000 ) ) ;
#233 = CARTESIAN_POINT ( 'NONE',  ( 31.50000000000000711, -26.24999999999998579, 3.214697847761801978E-15 ) ) ;
#234 = CARTESIAN_POINT ( 'NONE',  ( 31.50000000000000000, 1.310372075087667663E-14, 0.000000000000000000 ) ) ;
#235 = EDGE_CURVE ( 'NONE', #114, #93, #172, .T. ) ;
#236 = APPROVAL_STATUS ( 'not_yet_approved' ) ;
#237 = PERSON_AND_ORGANIZATION_ROLE ( 'creator' ) ;
#238 = ORIENTED_EDGE ( 'NONE', *, *, #15, .T. ) ;
#239 = VERTEX_POINT ( 'NONE', #182 ) ;
#240 = VECTOR ( 'NONE', #232, 1000.000000000000000 ) ;
#241 = AXIS2_PLACEMENT_3D ( 'NONE', #5, #23, #47 ) ;
#242 = EDGE_LOOP ( 'NONE', ( #217, #167, #140, #156 ) ) ;
#243 = EDGE_LOOP ( 'NONE', ( #115, #139, #10, #171 ) ) ;
#244 = EDGE_LOOP ( 'NONE', ( #155, #165 ) ) ;
#245 = EDGE_CURVE ( 'NONE', #71, #57, #52, .T. ) ;
#246 = CIRCLE ( 'NONE', #137, 30.14999999999999858 ) ;
#247 = CARTESIAN_POINT ( 'NONE',  ( -31.50000000000000000, -6.184466335694133659E-15, 0.000000000000000000 ) ) ;
#248 = DIRECTION ( 'NONE',  ( 2.301457347896261609E-16, -1.000000000000000000, 0.000000000000000000 ) ) ;
#249 = PLANE ( 'NONE',  #33 ) ;
ENDSEC;
END-ISO-10303-21;
