ISO-10303-21;
HEADER;
FILE_DESCRIPTION (( 'STEP AP203' ),
    '1' );
FILE_NAME ('3435-50-023-01_REV_.step',
    '2025-11-20T01:00:16',
    ( '' ),
    ( '' ),
    'SwSTEP 2.0',
    'SolidWorks 2025',
    '' );
FILE_SCHEMA (( 'CONFIG_CONTROL_DESIGN' ));
ENDSEC;

DATA;
#1 = ORIENTED_EDGE ( 'NONE', *, *, #132, .F. ) ;
#2 = CARTESIAN_POINT ( 'NONE',  ( -176.6999999999999602, -140.0000000000000284, 0.000000000000000000 ) ) ;
#3 = VERTEX_POINT ( 'NONE', #256 ) ;
#4 = CC_DESIGN_DATE_AND_TIME_ASSIGNMENT ( #115, #364, ( #178 ) ) ;
#5 = DIRECTION ( 'NONE',  ( 2.723805261592631030E-16, -1.000000000000000000, 0.000000000000000000 ) ) ;
#6 = ORIENTED_EDGE ( 'NONE', *, *, #157, .F. ) ;
#7 = AXIS2_PLACEMENT_3D ( 'NONE', #292, #255, #260 ) ;
#8 = APPROVAL_DATE_TIME ( #319, #60 ) ;
#9 = CIRCLE ( 'NONE', #96, 16.69999999999999929 ) ;
#10 = VERTEX_POINT ( 'NONE', #358 ) ;
#11 = APPLICATION_PROTOCOL_DEFINITION ( 'international standard', 'config_control_design', 1994, #266 ) ;
#12 = ORIENTED_EDGE ( 'NONE', *, *, #372, .F. ) ;
#13 = APPROVAL_STATUS ( 'not_yet_approved' ) ;
#14 = ORIENTED_EDGE ( 'NONE', *, *, #92, .F. ) ;
#15 = EDGE_CURVE ( 'NONE', #293, #295, #405, .T. ) ;
#16 = AXIS2_PLACEMENT_3D ( 'NONE', #356, #67, #201 ) ;
#17 = DATE_AND_TIME ( #332, #286 ) ;
#18 = DIRECTION ( 'NONE',  ( 2.723805261592631030E-16, -1.000000000000000000, 0.000000000000000000 ) ) ;
#19 = FACE_OUTER_BOUND ( 'NONE', #262, .T. ) ;
#20 = ADVANCED_FACE ( 'NONE', ( #165 ), #322, .F. ) ;
#21 = CARTESIAN_POINT ( 'NONE',  ( -159.9999999999999716, -140.0000000000000284, 0.000000000000000000 ) ) ;
#22 = DIRECTION ( 'NONE',  ( 1.000000000000000000, 1.138456752076657655E-16, -0.000000000000000000 ) ) ;
#23 = CIRCLE ( 'NONE', #53, 16.69999999999999929 ) ;
#24 = CARTESIAN_POINT ( 'NONE',  ( -173.2999999999999829, -140.0000000000000284, 0.000000000000000000 ) ) ;
#25 = CARTESIAN_POINT ( 'NONE',  ( -121.9000000000000057, -13.30000000000001315, 1.628780242865980744E-15 ) ) ;
#26 = ORIENTED_EDGE ( 'NONE', *, *, #359, .F. ) ;
#27 = VECTOR ( 'NONE', #90, 1000.000000000000000 ) ;
#28 = CARTESIAN_POINT ( 'NONE',  ( 0.000000000000000000, 0.000000000000000000, 0.000000000000000000 ) ) ;
#29 = CARTESIAN_POINT ( 'NONE',  ( -159.9999999999999716, -140.0000000000000284, 0.000000000000000000 ) ) ;
#30 = VERTEX_POINT ( 'NONE', #205 ) ;
#31 = CARTESIAN_POINT ( 'NONE',  ( -146.6999999999999886, -38.10000000000001563, 1.628780242865979166E-15 ) ) ;
#32 = LINE ( 'NONE', #154, #158 ) ;
#33 = CIRCLE ( 'NONE', #237, 13.30000000000000071 ) ;
#34 = PERSON_AND_ORGANIZATION ( #246, #265 ) ;
#35 = EDGE_LOOP ( 'NONE', ( #249, #69, #134, #168 ) ) ;
#36 = LINE ( 'NONE', #135, #263 ) ;
#37 = CARTESIAN_POINT ( 'NONE',  ( -159.9999999999999716, -140.0000000000000284, 0.000000000000000000 ) ) ;
#38 = ORIENTED_EDGE ( 'NONE', *, *, #85, .T. ) ;
#39 = AXIS2_PLACEMENT_3D ( 'NONE', #290, #105, #299 ) ;
#40 = CC_DESIGN_APPROVAL ( #60, ( #353 ) ) ;
#41 = PERSON_AND_ORGANIZATION_ROLE ( 'design_owner' ) ;
#42 = AXIS2_PLACEMENT_3D ( 'NONE', #245, #243, #381 ) ;
#43 = ORIENTED_EDGE ( 'NONE', *, *, #277, .T. ) ;
#44 = ADVANCED_FACE ( 'NONE', ( #337 ), #396, .T. ) ;
#45 = DATE_AND_TIME ( #387, #230 ) ;
#46 = EDGE_LOOP ( 'NONE', ( #392, #362 ) ) ;
#47 = SECURITY_CLASSIFICATION_LEVEL ( 'unclassified' ) ;
#48 = DIRECTION ( 'NONE',  ( 1.000000000000000000, 0.000000000000000000, 0.000000000000000000 ) ) ;
#49 = DIRECTION ( 'NONE',  ( 0.000000000000000000, -1.000000000000000000, 0.000000000000000000 ) ) ;
#50 = CARTESIAN_POINT ( 'NONE',  ( 0.000000000000000000, 0.000000000000000000, 0.000000000000000000 ) ) ;
#51 = CYLINDRICAL_SURFACE ( 'NONE', #74, 13.30000000000000071 ) ;
#52 = CARTESIAN_POINT ( 'NONE',  ( -121.9000000000000057, 13.29999999999998650, 0.000000000000000000 ) ) ;
#53 = AXIS2_PLACEMENT_3D ( 'NONE', #50, #365, #236 ) ;
#54 = ADVANCED_FACE ( 'NONE', ( #19 ), #180, .F. ) ;
#55 = PLANE ( 'NONE',  #314 ) ;
#56 = VERTEX_POINT ( 'NONE', #336 ) ;
#57 = CARTESIAN_POINT ( 'NONE',  ( -160.0000000000000000, -38.10000000000002274, 0.000000000000000000 ) ) ;
#58 = DIRECTION ( 'NONE',  ( 2.723805261592631030E-16, -1.000000000000000000, 0.000000000000000000 ) ) ;
#59 = VERTEX_POINT ( 'NONE', #402 ) ;
#60 = APPROVAL ( #194, 'UNSPECIFIED' ) ;
#61 = AXIS2_PLACEMENT_3D ( 'NONE', #84, #22, #401 ) ;
#62 = DIRECTION ( 'NONE',  ( 1.138456752076657655E-16, -1.000000000000000000, 0.000000000000000000 ) ) ;
#63 = DIRECTION ( 'NONE',  ( -2.723805261592631030E-16, 1.000000000000000000, -0.000000000000000000 ) ) ;
#64 = EDGE_CURVE ( 'NONE', #295, #293, #363, .T. ) ;
#65 =( NAMED_UNIT ( * ) PLANE_ANGLE_UNIT ( ) SI_UNIT ( $, .RADIAN. ) );
#66 = ORIENTED_EDGE ( 'NONE', *, *, #208, .F. ) ;
#67 = DIRECTION ( 'NONE',  ( 0.000000000000000000, 0.000000000000000000, 1.000000000000000000 ) ) ;
#68 = CC_DESIGN_PERSON_AND_ORGANIZATION_ASSIGNMENT ( #144, #272, ( #404 ) ) ;
#69 = ORIENTED_EDGE ( 'NONE', *, *, #359, .T. ) ;
#70 = VERTEX_POINT ( 'NONE', #233 ) ;
#71 = VERTEX_POINT ( 'NONE', #397 ) ;
#72 = AXIS2_PLACEMENT_3D ( 'NONE', #344, #91, #409 ) ;
#73 = CC_DESIGN_APPROVAL ( #151, ( #404 ) ) ;
#74 = AXIS2_PLACEMENT_3D ( 'NONE', #111, #333, #276 ) ;
#75 = ORIENTED_EDGE ( 'NONE', *, *, #382, .F. ) ;
#76 = DIRECTION ( 'NONE',  ( -1.000000000000000000, -1.138456752076657655E-16, 0.000000000000000000 ) ) ;
#77 = CARTESIAN_POINT ( 'NONE',  ( -160.0000000000000000, -38.10000000000002274, 0.000000000000000000 ) ) ;
#78 = CIRCLE ( 'NONE', #39, 13.30000000000000604 ) ;
#79 = PERSON_AND_ORGANIZATION_ROLE ( 'classification_officer' ) ;
#80 = AXIS2_PLACEMENT_3D ( 'NONE', #324, #300, #386 ) ;
#81 = DIRECTION ( 'NONE',  ( 1.000000000000000000, 1.138456752076657655E-16, -0.000000000000000000 ) ) ;
#82 = CIRCLE ( 'NONE', #296, 13.30000000000000604 ) ;
#83 = APPROVAL_ROLE ( '' ) ;
#84 = CARTESIAN_POINT ( 'NONE',  ( -121.9000000000000057, -1.387778780781445676E-14, 0.000000000000000000 ) ) ;
#85 = EDGE_CURVE ( 'NONE', #30, #130, #380, .T. ) ;
#86 = FACE_OUTER_BOUND ( 'NONE', #225, .T. ) ;
#87 = ADVANCED_FACE ( 'NONE', ( #204, #139 ), #338, .T. ) ;
#88 = APPROVAL_PERSON_ORGANIZATION ( #191, #60, #169 ) ;
#89 = LINE ( 'NONE', #212, #218 ) ;
#90 = DIRECTION ( 'NONE',  ( 1.000000000000000000, 1.138456752076657655E-16, -0.000000000000000000 ) ) ;
#91 = DIRECTION ( 'NONE',  ( -2.723805261592631030E-16, 1.000000000000000000, -0.000000000000000000 ) ) ;
#92 = EDGE_CURVE ( 'NONE', #59, #71, #329, .T. ) ;
#93 = CARTESIAN_POINT ( 'NONE',  ( 0.000000000000000000, 0.000000000000000000, 0.000000000000000000 ) ) ;
#94 = LOCAL_TIME ( 12, 0, 16.00000000000000000, #321 ) ;
#95 = ORIENTED_EDGE ( 'NONE', *, *, #395, .F. ) ;
#96 = AXIS2_PLACEMENT_3D ( 'NONE', #93, #242, #155 ) ;
#97 = DIRECTION ( 'NONE',  ( 1.000000000000000000, 2.723805261592631030E-16, 0.000000000000000000 ) ) ;
#98 = ORIENTED_EDGE ( 'NONE', *, *, #335, .F. ) ;
#99 = PERSON_AND_ORGANIZATION ( #246, #265 ) ;
#100 = CC_DESIGN_PERSON_AND_ORGANIZATION_ASSIGNMENT ( #99, #176, ( #404 ) ) ;
#101 = ORIENTED_EDGE ( 'NONE', *, *, #140, .T. ) ;
#102 = EDGE_LOOP ( 'NONE', ( #357, #328, #331, #43 ) ) ;
#103 = PERSON_AND_ORGANIZATION_ROLE ( 'creator' ) ;
#104 = EDGE_LOOP ( 'NONE', ( #288, #279 ) ) ;
#105 = DIRECTION ( 'NONE',  ( 2.723805261592631030E-16, -1.000000000000000000, 0.000000000000000000 ) ) ;
#106 = EDGE_LOOP ( 'NONE', ( #75, #12 ) ) ;
#107 = SHAPE_DEFINITION_REPRESENTATION ( #298, #179 ) ;
#108 = AXIS2_PLACEMENT_3D ( 'NONE', #307, #334, #48 ) ;
#109 = ORIENTED_EDGE ( 'NONE', *, *, #214, .F. ) ;
#110 = DIRECTION ( 'NONE',  ( 0.000000000000000000, 1.000000000000000000, 0.000000000000000000 ) ) ;
#111 = CARTESIAN_POINT ( 'NONE',  ( -121.9000000000000057, -1.387778780781445676E-14, 0.000000000000000000 ) ) ;
#112 = CIRCLE ( 'NONE', #346, 13.30000000000000604 ) ;
#113 = DIRECTION ( 'NONE',  ( -2.723805261592631030E-16, 1.000000000000000000, -0.000000000000000000 ) ) ;
#114 = CIRCLE ( 'NONE', #348, 16.69999999999999218 ) ;
#115 = DATE_AND_TIME ( #367, #410 ) ;
#116 = CARTESIAN_POINT ( 'NONE',  ( -121.9000000000000057, -1.387778780781445676E-14, 0.000000000000000000 ) ) ;
#117 = ADVANCED_FACE ( 'NONE', ( #148 ), #51, .F. ) ;
#118 = DIRECTION ( 'NONE',  ( 1.000000000000000000, 4.155026289764809472E-16, 0.000000000000000000 ) ) ;
#119 = CC_DESIGN_SECURITY_CLASSIFICATION ( #178, ( #404 ) ) ;
#120 = LINE ( 'NONE', #403, #369 ) ;
#121 = CARTESIAN_POINT ( 'NONE',  ( -1.901222775968018367E-15, 16.69999999999999929, 0.000000000000000000 ) ) ;
#122 = CARTESIAN_POINT ( 'NONE',  ( -160.0000000000000000, -38.10000000000002274, 0.000000000000000000 ) ) ;
#123 = VERTEX_POINT ( 'NONE', #24 ) ;
#124 = CARTESIAN_POINT ( 'NONE',  ( -121.9000000000000057, -16.70000000000001350, 2.045160154576079814E-15 ) ) ;
#125 = ORIENTED_EDGE ( 'NONE', *, *, #231, .T. ) ;
#126 = PERSON_AND_ORGANIZATION ( #246, #265 ) ;
#127 = ORIENTED_EDGE ( 'NONE', *, *, #132, .T. ) ;
#128 = ORIENTED_EDGE ( 'NONE', *, *, #92, .T. ) ;
#129 = COORDINATED_UNIVERSAL_TIME_OFFSET ( 10, 0, .AHEAD. ) ;
#130 = VERTEX_POINT ( 'NONE', #234 ) ;
#131 = VECTOR ( 'NONE', #174, 1000.000000000000000 ) ;
#132 = EDGE_CURVE ( 'NONE', #170, #379, #200, .T. ) ;
#133 = COORDINATED_UNIVERSAL_TIME_OFFSET ( 10, 0, .AHEAD. ) ;
#134 = ORIENTED_EDGE ( 'NONE', *, *, #325, .F. ) ;
#135 = CARTESIAN_POINT ( 'NONE',  ( -121.9000000000000057, -13.30000000000001492, 1.628780242865979955E-15 ) ) ;
#136 = ORIENTED_EDGE ( 'NONE', *, *, #219, .T. ) ;
#137 = ORIENTED_EDGE ( 'NONE', *, *, #219, .F. ) ;
#138 = EDGE_CURVE ( 'NONE', #70, #223, #400, .T. ) ;
#139 = FACE_OUTER_BOUND ( 'NONE', #104, .T. ) ;
#140 = EDGE_CURVE ( 'NONE', #295, #71, #305, .T. ) ;
#141 = DIRECTION ( 'NONE',  ( -1.000000000000000000, -1.138456752076657655E-16, 0.000000000000000000 ) ) ;
#142 = DIRECTION ( 'NONE',  ( 1.138456752076657655E-16, -1.000000000000000000, 0.000000000000000000 ) ) ;
#143 = CIRCLE ( 'NONE', #7, 13.30000000000000604 ) ;
#144 = PERSON_AND_ORGANIZATION ( #246, #265 ) ;
#145 = CC_DESIGN_DATE_AND_TIME_ASSIGNMENT ( #391, #360, ( #353 ) ) ;
#146 = DIRECTION ( 'NONE',  ( -1.000000000000000000, 0.000000000000000000, 0.000000000000000000 ) ) ;
#147 = AXIS2_PLACEMENT_3D ( 'NONE', #210, #273, #304 ) ;
#148 = FACE_OUTER_BOUND ( 'NONE', #35, .T. ) ;
#149 = FACE_OUTER_BOUND ( 'NONE', #102, .T. ) ;
#150 = ORIENTED_EDGE ( 'NONE', *, *, #231, .F. ) ;
#151 = APPROVAL ( #228, 'UNSPECIFIED' ) ;
#152 = FACE_OUTER_BOUND ( 'NONE', #261, .T. ) ;
#153 = APPLICATION_CONTEXT ( 'configuration controlled 3d designs of mechanical parts and assemblies' ) ;
#154 = CARTESIAN_POINT ( 'NONE',  ( -146.6999999999999602, -140.0000000000000284, 1.628780242865979955E-15 ) ) ;
#155 = DIRECTION ( 'NONE',  ( 1.138456752076657655E-16, -1.000000000000000000, 0.000000000000000000 ) ) ;
#156 = CARTESIAN_POINT ( 'NONE',  ( -176.6999999999999602, -140.0000000000000284, 0.000000000000000000 ) ) ;
#157 = EDGE_CURVE ( 'NONE', #282, #3, #23, .T. ) ;
#158 = VECTOR ( 'NONE', #216, 1000.000000000000000 ) ;
#159 = DIRECTION ( 'NONE',  ( 2.723805261592631030E-16, -1.000000000000000000, 0.000000000000000000 ) ) ;
#160 = ORIENTED_EDGE ( 'NONE', *, *, #309, .F. ) ;
#161 = DIRECTION ( 'NONE',  ( 1.000000000000000000, 1.138456752076657655E-16, -0.000000000000000000 ) ) ;
#162 = EDGE_LOOP ( 'NONE', ( #251, #407, #137, #384 ) ) ;
#163 = ADVANCED_FACE ( 'NONE', ( #207 ), #175, .F. ) ;
#164 = PERSON_AND_ORGANIZATION ( #246, #265 ) ;
#165 = FACE_OUTER_BOUND ( 'NONE', #352, .T. ) ;
#166 = AXIS2_PLACEMENT_3D ( 'NONE', #21, #113, #177 ) ;
#167 =( NAMED_UNIT ( * ) SI_UNIT ( $, .STERADIAN. ) SOLID_ANGLE_UNIT ( ) );
#168 = ORIENTED_EDGE ( 'NONE', *, *, #140, .F. ) ;
#169 = APPROVAL_ROLE ( '' ) ;
#170 = VERTEX_POINT ( 'NONE', #240 ) ;
#171 = DIRECTION ( 'NONE',  ( 0.000000000000000000, -1.000000000000000000, 0.000000000000000000 ) ) ;
#172 = CC_DESIGN_PERSON_AND_ORGANIZATION_ASSIGNMENT ( #164, #41, ( #275 ) ) ;
#173 = CLOSED_SHELL ( 'NONE', ( #203, #163, #20, #297, #283, #313 ) ) ;
#174 = DIRECTION ( 'NONE',  ( 1.000000000000000000, 1.138456752076657655E-16, -0.000000000000000000 ) ) ;
#175 = CYLINDRICAL_SURFACE ( 'NONE', #166, 13.30000000000000604 ) ;
#176 = PERSON_AND_ORGANIZATION_ROLE ( 'creator' ) ;
#177 = DIRECTION ( 'NONE',  ( -1.000000000000000000, 0.000000000000000000, 0.000000000000000000 ) ) ;
#178 = SECURITY_CLASSIFICATION ( '', '', #47 ) ;
#179 = ADVANCED_BREP_SHAPE_REPRESENTATION ( '3435-50-023-01_REV_', ( #318, #308, #16 ), #375 ) ;
#180 = CYLINDRICAL_SURFACE ( 'NONE', #147, 13.30000000000000071 ) ;
#181 = AXIS2_PLACEMENT_3D ( 'NONE', #366, #271, #171 ) ;
#182 = CARTESIAN_POINT ( 'NONE',  ( 0.000000000000000000, 0.000000000000000000, 0.000000000000000000 ) ) ;
#183 = ORIENTED_EDGE ( 'NONE', *, *, #309, .T. ) ;
#184 = DIRECTION ( 'NONE',  ( -2.723805261592631030E-16, 1.000000000000000000, -0.000000000000000000 ) ) ;
#185 = AXIS2_PLACEMENT_3D ( 'NONE', #186, #220, #323 ) ;
#186 = CARTESIAN_POINT ( 'NONE',  ( -121.9000000000000057, -1.387778780781445676E-14, 0.000000000000000000 ) ) ;
#187 = VECTOR ( 'NONE', #250, 1000.000000000000000 ) ;
#188 = CARTESIAN_POINT ( 'NONE',  ( -121.9000000000000057, 13.29999999999998650, 0.000000000000000000 ) ) ;
#189 = ADVANCED_FACE ( 'NONE', ( #241 ), #371, .T. ) ;
#190 = FACE_BOUND ( 'NONE', #202, .T. ) ;
#191 = PERSON_AND_ORGANIZATION ( #246, #265 ) ;
#192 = EDGE_LOOP ( 'NONE', ( #98, #183, #125, #109 ) ) ;
#193 = CLOSED_SHELL ( 'NONE', ( #189, #117, #54, #44, #87, #235 ) ) ;
#194 = APPROVAL_STATUS ( 'not_yet_approved' ) ;
#195 = ORIENTED_EDGE ( 'NONE', *, *, #214, .T. ) ;
#196 = DIRECTION ( 'NONE',  ( 1.000000000000000000, 5.217213461584379792E-16, 0.000000000000000000 ) ) ;
#197 = ORIENTED_EDGE ( 'NONE', *, *, #372, .T. ) ;
#198 = EDGE_LOOP ( 'NONE', ( #6, #150 ) ) ;
#199 = APPROVAL_PERSON_ORGANIZATION ( #126, #151, #253 ) ;
#200 = CIRCLE ( 'NONE', #108, 16.69999999999999218 ) ;
#201 = DIRECTION ( 'NONE',  ( 1.000000000000000000, 0.000000000000000000, 0.000000000000000000 ) ) ;
#202 = EDGE_LOOP ( 'NONE', ( #301, #128 ) ) ;
#203 = ADVANCED_FACE ( 'NONE', ( #86 ), #317, .T. ) ;
#204 = FACE_BOUND ( 'NONE', #46, .T. ) ;
#205 = CARTESIAN_POINT ( 'NONE',  ( -143.3000000000000114, -38.10000000000001563, 2.045160154576080603E-15 ) ) ;
#206 = PERSON_AND_ORGANIZATION ( #246, #265 ) ;
#207 = FACE_OUTER_BOUND ( 'NONE', #162, .T. ) ;
#208 = EDGE_CURVE ( 'NONE', #56, #227, #32, .T. ) ;
#209 = COORDINATED_UNIVERSAL_TIME_OFFSET ( 10, 0, .AHEAD. ) ;
#210 = CARTESIAN_POINT ( 'NONE',  ( -121.9000000000000057, -1.387778780781445676E-14, 0.000000000000000000 ) ) ;
#211 = AXIS2_PLACEMENT_3D ( 'NONE', #122, #58, #97 ) ;
#212 = CARTESIAN_POINT ( 'NONE',  ( -173.2999999999999829, -140.0000000000000284, 0.000000000000000000 ) ) ;
#213 = AXIS2_PLACEMENT_3D ( 'NONE', #399, #76, #49 ) ;
#214 = EDGE_CURVE ( 'NONE', #70, #282, #351, .T. ) ;
#215 = FACE_BOUND ( 'NONE', #345, .T. ) ;
#216 = DIRECTION ( 'NONE',  ( -2.723805261592631030E-16, 1.000000000000000000, -0.000000000000000000 ) ) ;
#217 = DIRECTION ( 'NONE',  ( -1.000000000000000000, -1.138456752076657655E-16, 0.000000000000000000 ) ) ;
#218 = VECTOR ( 'NONE', #63, 1000.000000000000000 ) ;
#219 = EDGE_CURVE ( 'NONE', #10, #227, #82, .T. ) ;
#220 = DIRECTION ( 'NONE',  ( -1.000000000000000000, -1.138456752076657655E-16, 0.000000000000000000 ) ) ;
#221 = ORIENTED_EDGE ( 'NONE', *, *, #274, .F. ) ;
#222 = CARTESIAN_POINT ( 'NONE',  ( -160.0000000000000000, -38.10000000000002274, 0.000000000000000000 ) ) ;
#223 = VERTEX_POINT ( 'NONE', #378 ) ;
#224 =( LENGTH_UNIT ( ) NAMED_UNIT ( * ) SI_UNIT ( .MILLI., .METRE. ) );
#225 = EDGE_LOOP ( 'NONE', ( #1, #393, #38, #221 ) ) ;
#226 = CALENDAR_DATE ( 2025, 20, 11 ) ;
#227 = VERTEX_POINT ( 'NONE', #31 ) ;
#228 = APPROVAL_STATUS ( 'not_yet_approved' ) ;
#229 = ORIENTED_EDGE ( 'NONE', *, *, #85, .F. ) ;
#230 = LOCAL_TIME ( 12, 0, 16.00000000000000000, #129 ) ;
#231 = EDGE_CURVE ( 'NONE', #3, #282, #9, .T. ) ;
#232 = AXIS2_PLACEMENT_3D ( 'NONE', #29, #184, #374 ) ;
#233 = CARTESIAN_POINT ( 'NONE',  ( -121.9000000000000057, 16.69999999999998508, 0.000000000000000000 ) ) ;
#234 = CARTESIAN_POINT ( 'NONE',  ( -176.6999999999999886, -38.10000000000002984, 0.000000000000000000 ) ) ;
#235 = ADVANCED_FACE ( 'NONE', ( #190, #281 ), #55, .F. ) ;
#236 = DIRECTION ( 'NONE',  ( 1.138456752076657655E-16, -1.000000000000000000, 0.000000000000000000 ) ) ;
#237 = AXIS2_PLACEMENT_3D ( 'NONE', #28, #349, #62 ) ;
#238 = LOCAL_TIME ( 12, 0, 16.00000000000000000, #133 ) ;
#239 = AXIS2_PLACEMENT_3D ( 'NONE', #77, #18, #310 ) ;
#240 = CARTESIAN_POINT ( 'NONE',  ( -143.2999999999999829, -140.0000000000000284, 2.045160154576080603E-15 ) ) ;
#241 = FACE_OUTER_BOUND ( 'NONE', #192, .T. ) ;
#242 = DIRECTION ( 'NONE',  ( -1.000000000000000000, -1.138456752076657655E-16, 0.000000000000000000 ) ) ;
#243 = DIRECTION ( 'NONE',  ( 2.723805261592631030E-16, -1.000000000000000000, 0.000000000000000000 ) ) ;
#244 = DESIGN_CONTEXT ( 'detailed design', #266, 'design' ) ;
#245 = CARTESIAN_POINT ( 'NONE',  ( -159.9999999999999716, -140.0000000000000284, 0.000000000000000000 ) ) ;
#246 = PERSON ( 'UNSPECIFIED', 'UNSPECIFIED', 'UNSPECIFIED', ('UNSPECIFIED'), ('UNSPECIFIED'), ('UNSPECIFIED') ) ;
#247 = DIRECTION ( 'NONE',  ( 2.723805261592631030E-16, -1.000000000000000000, 0.000000000000000000 ) ) ;
#248 = APPROVAL ( #13, 'UNSPECIFIED' ) ;
#249 = ORIENTED_EDGE ( 'NONE', *, *, #64, .T. ) ;
#250 = DIRECTION ( 'NONE',  ( -2.723805261592631030E-16, 1.000000000000000000, -0.000000000000000000 ) ) ;
#251 = ORIENTED_EDGE ( 'NONE', *, *, #382, .T. ) ;
#252 = AXIS2_PLACEMENT_3D ( 'NONE', #268, #270, #142 ) ;
#253 = APPROVAL_ROLE ( '' ) ;
#254 = ORIENTED_EDGE ( 'NONE', *, *, #350, .T. ) ;
#255 = DIRECTION ( 'NONE',  ( 2.723805261592631030E-16, -1.000000000000000000, 0.000000000000000000 ) ) ;
#256 = CARTESIAN_POINT ( 'NONE',  ( 1.901222775968018367E-15, -16.69999999999999929, 2.045160154576079814E-15 ) ) ;
#257 = PRODUCT_RELATED_PRODUCT_CATEGORY ( 'detail', '', ( #275 ) ) ;
#258 = CIRCLE ( 'NONE', #326, 16.69999999999999218 ) ;
#259 = ORIENTED_EDGE ( 'NONE', *, *, #280, .T. ) ;
#260 = DIRECTION ( 'NONE',  ( 1.000000000000000000, 0.000000000000000000, 0.000000000000000000 ) ) ;
#261 = EDGE_LOOP ( 'NONE', ( #254, #127 ) ) ;
#262 = EDGE_LOOP ( 'NONE', ( #26, #264, #101, #14 ) ) ;
#263 = VECTOR ( 'NONE', #161, 1000.000000000000000 ) ;
#264 = ORIENTED_EDGE ( 'NONE', *, *, #15, .T. ) ;
#265 = ORGANIZATION ( 'UNSPECIFIED', 'UNSPECIFIED', '' ) ;
#266 = APPLICATION_CONTEXT ( 'configuration controlled 3d designs of mechanical parts and assemblies' ) ;
#267 = PERSON_AND_ORGANIZATION ( #246, #265 ) ;
#268 = CARTESIAN_POINT ( 'NONE',  ( 0.000000000000000000, 0.000000000000000000, 0.000000000000000000 ) ) ;
#269 = EDGE_CURVE ( 'NONE', #170, #30, #120, .T. ) ;
#270 = DIRECTION ( 'NONE',  ( -1.000000000000000000, -1.138456752076657655E-16, 0.000000000000000000 ) ) ;
#271 = DIRECTION ( 'NONE',  ( -1.000000000000000000, -1.138456752076657655E-16, 0.000000000000000000 ) ) ;
#272 = PERSON_AND_ORGANIZATION_ROLE ( 'design_supplier' ) ;
#273 = DIRECTION ( 'NONE',  ( 1.000000000000000000, 1.138456752076657655E-16, -0.000000000000000000 ) ) ;
#274 = EDGE_CURVE ( 'NONE', #379, #130, #377, .T. ) ;
#275 = PRODUCT ( '3435-50-023-01_REV_', '3435-50-023-01_REV_', '', ( #327 ) ) ;
#276 = DIRECTION ( 'NONE',  ( 0.000000000000000000, 1.000000000000000000, 0.000000000000000000 ) ) ;
#277 = EDGE_CURVE ( 'NONE', #130, #30, #114, .T. ) ;
#278 = DIRECTION ( 'NONE',  ( 1.138456752076657655E-16, -1.000000000000000000, 0.000000000000000000 ) ) ;
#279 = ORIENTED_EDGE ( 'NONE', *, *, #335, .T. ) ;
#280 = EDGE_CURVE ( 'NONE', #123, #10, #89, .T. ) ;
#281 = FACE_OUTER_BOUND ( 'NONE', #198, .T. ) ;
#282 = VERTEX_POINT ( 'NONE', #121 ) ;
#283 = ADVANCED_FACE ( 'NONE', ( #311, #152 ), #406, .T. ) ;
#284 = DIRECTION ( 'NONE',  ( -2.723805261592631030E-16, 1.000000000000000000, -0.000000000000000000 ) ) ;
#285 = CYLINDRICAL_SURFACE ( 'NONE', #72, 16.69999999999999218 ) ;
#286 = LOCAL_TIME ( 12, 0, 16.00000000000000000, #306 ) ;
#287 = CARTESIAN_POINT ( 'NONE',  ( -160.0000000000000000, -38.10000000000002274, 0.000000000000000000 ) ) ;
#288 = ORIENTED_EDGE ( 'NONE', *, *, #138, .T. ) ;
#289 = AXIS2_PLACEMENT_3D ( 'NONE', #368, #81, #110 ) ;
#290 = CARTESIAN_POINT ( 'NONE',  ( -159.9999999999999716, -140.0000000000000284, 0.000000000000000000 ) ) ;
#291 = EDGE_LOOP ( 'NONE', ( #160, #320, #195, #390 ) ) ;
#292 = CARTESIAN_POINT ( 'NONE',  ( -159.9999999999999716, -140.0000000000000284, 0.000000000000000000 ) ) ;
#293 = VERTEX_POINT ( 'NONE', #25 ) ;
#294 = CIRCLE ( 'NONE', #185, 16.69999999999999929 ) ;
#295 = VERTEX_POINT ( 'NONE', #188 ) ;
#296 = AXIS2_PLACEMENT_3D ( 'NONE', #57, #315, #408 ) ;
#297 = ADVANCED_FACE ( 'NONE', ( #149 ), #285, .T. ) ;
#298 = PRODUCT_DEFINITION_SHAPE ( 'NONE', 'NONE',  #353 ) ;
#299 = DIRECTION ( 'NONE',  ( 1.000000000000000000, 0.000000000000000000, 0.000000000000000000 ) ) ;
#300 = DIRECTION ( 'NONE',  ( -1.000000000000000000, -1.138456752076657655E-16, 0.000000000000000000 ) ) ;
#301 = ORIENTED_EDGE ( 'NONE', *, *, #325, .T. ) ;
#302 = DIRECTION ( 'NONE',  ( 1.138456752076657655E-16, -1.000000000000000000, 0.000000000000000000 ) ) ;
#303 = CC_DESIGN_APPROVAL ( #248, ( #178 ) ) ;
#304 = DIRECTION ( 'NONE',  ( 0.000000000000000000, 1.000000000000000000, 0.000000000000000000 ) ) ;
#305 = LINE ( 'NONE', #52, #131 ) ;
#306 = COORDINATED_UNIVERSAL_TIME_OFFSET ( 10, 0, .AHEAD. ) ;
#307 = CARTESIAN_POINT ( 'NONE',  ( -159.9999999999999716, -140.0000000000000284, 0.000000000000000000 ) ) ;
#308 = MANIFOLD_SOLID_BREP ( 'Stainless chs 33.4 X 3.4 CHS(1)[2]', #173 ) ;
#309 = EDGE_CURVE ( 'NONE', #223, #3, #376, .T. ) ;
#310 = DIRECTION ( 'NONE',  ( 1.000000000000000000, 4.155026289764809472E-16, 0.000000000000000000 ) ) ;
#311 = FACE_BOUND ( 'NONE', #106, .T. ) ;
#312 = PLANE ( 'NONE',  #211 ) ;
#313 = ADVANCED_FACE ( 'NONE', ( #215, #341 ), #312, .F. ) ;
#314 = AXIS2_PLACEMENT_3D ( 'NONE', #182, #217, #278 ) ;
#315 = DIRECTION ( 'NONE',  ( 2.723805261592631030E-16, -1.000000000000000000, 0.000000000000000000 ) ) ;
#316 = DIRECTION ( 'NONE',  ( 1.000000000000000000, 1.138456752076657655E-16, -0.000000000000000000 ) ) ;
#317 = CYLINDRICAL_SURFACE ( 'NONE', #232, 16.69999999999999218 ) ;
#318 = MANIFOLD_SOLID_BREP ( 'Stainless chs 33.4 X 3.4 CHS(1)[1]', #193 ) ;
#319 = DATE_AND_TIME ( #411, #238 ) ;
#320 = ORIENTED_EDGE ( 'NONE', *, *, #138, .F. ) ;
#321 = COORDINATED_UNIVERSAL_TIME_OFFSET ( 10, 0, .AHEAD. ) ;
#322 = CYLINDRICAL_SURFACE ( 'NONE', #347, 13.30000000000000604 ) ;
#323 = DIRECTION ( 'NONE',  ( 0.000000000000000000, -1.000000000000000000, 0.000000000000000000 ) ) ;
#324 = CARTESIAN_POINT ( 'NONE',  ( -121.9000000000000057, -1.387778780781445676E-14, 0.000000000000000000 ) ) ;
#325 = EDGE_CURVE ( 'NONE', #71, #59, #33, .T. ) ;
#326 = AXIS2_PLACEMENT_3D ( 'NONE', #389, #159, #385 ) ;
#327 = MECHANICAL_CONTEXT ( 'NONE', #153, 'mechanical' ) ;
#328 = ORIENTED_EDGE ( 'NONE', *, *, #350, .F. ) ;
#329 = CIRCLE ( 'NONE', #252, 13.30000000000000071 ) ;
#330 = APPLICATION_PROTOCOL_DEFINITION ( 'international standard', 'config_control_design', 1994, #153 ) ;
#331 = ORIENTED_EDGE ( 'NONE', *, *, #274, .T. ) ;
#332 = CALENDAR_DATE ( 2025, 20, 11 ) ;
#333 = DIRECTION ( 'NONE',  ( 1.000000000000000000, 1.138456752076657655E-16, -0.000000000000000000 ) ) ;
#334 = DIRECTION ( 'NONE',  ( 2.723805261592631030E-16, -1.000000000000000000, 0.000000000000000000 ) ) ;
#335 = EDGE_CURVE ( 'NONE', #223, #70, #294, .T. ) ;
#336 = CARTESIAN_POINT ( 'NONE',  ( -146.6999999999999602, -140.0000000000000284, 1.628780242865982716E-15 ) ) ;
#337 = FACE_OUTER_BOUND ( 'NONE', #291, .T. ) ;
#338 = PLANE ( 'NONE',  #339 ) ;
#339 = AXIS2_PLACEMENT_3D ( 'NONE', #116, #141, #302 ) ;
#340 = CARTESIAN_POINT ( 'NONE',  ( -121.9000000000000057, 16.69999999999998508, 0.000000000000000000 ) ) ;
#341 = FACE_OUTER_BOUND ( 'NONE', #354, .T. ) ;
#342 = UNCERTAINTY_MEASURE_WITH_UNIT (LENGTH_MEASURE( 1.000000000000000082E-05 ), #224, 'distance_accuracy_value', 'NONE');
#343 = CC_DESIGN_PERSON_AND_ORGANIZATION_ASSIGNMENT ( #267, #79, ( #178 ) ) ;
#344 = CARTESIAN_POINT ( 'NONE',  ( -159.9999999999999716, -140.0000000000000284, 0.000000000000000000 ) ) ;
#345 = EDGE_LOOP ( 'NONE', ( #136, #388 ) ) ;
#346 = AXIS2_PLACEMENT_3D ( 'NONE', #222, #5, #196 ) ;
#347 = AXIS2_PLACEMENT_3D ( 'NONE', #37, #373, #146 ) ;
#348 = AXIS2_PLACEMENT_3D ( 'NONE', #287, #247, #118 ) ;
#349 = DIRECTION ( 'NONE',  ( -1.000000000000000000, -1.138456752076657655E-16, 0.000000000000000000 ) ) ;
#350 = EDGE_CURVE ( 'NONE', #379, #170, #258, .T. ) ;
#351 = LINE ( 'NONE', #340, #394 ) ;
#352 = EDGE_LOOP ( 'NONE', ( #66, #197, #259, #95 ) ) ;
#353 = PRODUCT_DEFINITION ( 'UNKNOWN', '', #404, #244 ) ;
#354 = EDGE_LOOP ( 'NONE', ( #361, #229 ) ) ;
#355 = APPROVAL_PERSON_ORGANIZATION ( #206, #248, #83 ) ;
#356 = CARTESIAN_POINT ( 'NONE',  ( 0.000000000000000000, 0.000000000000000000, 0.000000000000000000 ) ) ;
#357 = ORIENTED_EDGE ( 'NONE', *, *, #269, .F. ) ;
#358 = CARTESIAN_POINT ( 'NONE',  ( -173.3000000000000114, -38.10000000000002984, 0.000000000000000000 ) ) ;
#359 = EDGE_CURVE ( 'NONE', #293, #59, #36, .T. ) ;
#360 = DATE_TIME_ROLE ( 'creation_date' ) ;
#361 = ORIENTED_EDGE ( 'NONE', *, *, #277, .F. ) ;
#362 = ORIENTED_EDGE ( 'NONE', *, *, #15, .F. ) ;
#363 = CIRCLE ( 'NONE', #181, 13.30000000000000071 ) ;
#364 = DATE_TIME_ROLE ( 'classification_date' ) ;
#365 = DIRECTION ( 'NONE',  ( -1.000000000000000000, -1.138456752076657655E-16, 0.000000000000000000 ) ) ;
#366 = CARTESIAN_POINT ( 'NONE',  ( -121.9000000000000057, -1.387778780781445676E-14, 0.000000000000000000 ) ) ;
#367 = CALENDAR_DATE ( 2025, 20, 11 ) ;
#368 = CARTESIAN_POINT ( 'NONE',  ( -121.9000000000000057, -1.387778780781445676E-14, 0.000000000000000000 ) ) ;
#369 = VECTOR ( 'NONE', #284, 1000.000000000000000 ) ;
#370 = APPROVAL_DATE_TIME ( #17, #248 ) ;
#371 = CYLINDRICAL_SURFACE ( 'NONE', #61, 16.69999999999999929 ) ;
#372 = EDGE_CURVE ( 'NONE', #56, #123, #78, .T. ) ;
#373 = DIRECTION ( 'NONE',  ( -2.723805261592631030E-16, 1.000000000000000000, -0.000000000000000000 ) ) ;
#374 = DIRECTION ( 'NONE',  ( -1.000000000000000000, 0.000000000000000000, 0.000000000000000000 ) ) ;
#375 =( GEOMETRIC_REPRESENTATION_CONTEXT ( 3 ) GLOBAL_UNCERTAINTY_ASSIGNED_CONTEXT ( ( #342 ) ) GLOBAL_UNIT_ASSIGNED_CONTEXT ( ( #224, #65, #167 ) ) REPRESENTATION_CONTEXT ( 'NONE', 'WORKASPACE' ) );
#376 = LINE ( 'NONE', #124, #27 ) ;
#377 = LINE ( 'NONE', #156, #187 ) ;
#378 = CARTESIAN_POINT ( 'NONE',  ( -121.9000000000000057, -16.70000000000001350, 2.045160154576080603E-15 ) ) ;
#379 = VERTEX_POINT ( 'NONE', #2 ) ;
#380 = CIRCLE ( 'NONE', #239, 16.69999999999999218 ) ;
#381 = DIRECTION ( 'NONE',  ( 1.000000000000000000, 2.723805261592631030E-16, 0.000000000000000000 ) ) ;
#382 = EDGE_CURVE ( 'NONE', #123, #56, #143, .T. ) ;
#383 = APPROVAL_DATE_TIME ( #45, #151 ) ;
#384 = ORIENTED_EDGE ( 'NONE', *, *, #280, .F. ) ;
#385 = DIRECTION ( 'NONE',  ( 1.000000000000000000, 0.000000000000000000, 0.000000000000000000 ) ) ;
#386 = DIRECTION ( 'NONE',  ( 0.000000000000000000, -1.000000000000000000, 0.000000000000000000 ) ) ;
#387 = CALENDAR_DATE ( 2025, 20, 11 ) ;
#388 = ORIENTED_EDGE ( 'NONE', *, *, #395, .T. ) ;
#389 = CARTESIAN_POINT ( 'NONE',  ( -159.9999999999999716, -140.0000000000000284, 0.000000000000000000 ) ) ;
#390 = ORIENTED_EDGE ( 'NONE', *, *, #157, .T. ) ;
#391 = DATE_AND_TIME ( #226, #94 ) ;
#392 = ORIENTED_EDGE ( 'NONE', *, *, #64, .F. ) ;
#393 = ORIENTED_EDGE ( 'NONE', *, *, #269, .T. ) ;
#394 = VECTOR ( 'NONE', #316, 1000.000000000000000 ) ;
#395 = EDGE_CURVE ( 'NONE', #227, #10, #112, .T. ) ;
#396 = CYLINDRICAL_SURFACE ( 'NONE', #289, 16.69999999999999929 ) ;
#397 = CARTESIAN_POINT ( 'NONE',  ( -1.514147480261954695E-15, 13.29999999999999893, 0.000000000000000000 ) ) ;
#398 = CC_DESIGN_PERSON_AND_ORGANIZATION_ASSIGNMENT ( #34, #103, ( #353 ) ) ;
#399 = CARTESIAN_POINT ( 'NONE',  ( -121.9000000000000057, -1.387778780781445676E-14, 0.000000000000000000 ) ) ;
#400 = CIRCLE ( 'NONE', #213, 16.69999999999999929 ) ;
#401 = DIRECTION ( 'NONE',  ( 0.000000000000000000, 1.000000000000000000, 0.000000000000000000 ) ) ;
#402 = CARTESIAN_POINT ( 'NONE',  ( 1.514147480261954893E-15, -13.30000000000000071, 1.628780242865979955E-15 ) ) ;
#403 = CARTESIAN_POINT ( 'NONE',  ( -143.2999999999999829, -140.0000000000000284, 2.045160154576079814E-15 ) ) ;
#404 = PRODUCT_DEFINITION_FORMATION_WITH_SPECIFIED_SOURCE ( 'ANY', '', #275, .NOT_KNOWN. ) ;
#405 = CIRCLE ( 'NONE', #80, 13.30000000000000071 ) ;
#406 = PLANE ( 'NONE',  #42 ) ;
#407 = ORIENTED_EDGE ( 'NONE', *, *, #208, .T. ) ;
#408 = DIRECTION ( 'NONE',  ( 1.000000000000000000, 5.217213461584379792E-16, 0.000000000000000000 ) ) ;
#409 = DIRECTION ( 'NONE',  ( -1.000000000000000000, 0.000000000000000000, 0.000000000000000000 ) ) ;
#410 = LOCAL_TIME ( 12, 0, 16.00000000000000000, #209 ) ;
#411 = CALENDAR_DATE ( 2025, 20, 11 ) ;
ENDSEC;
END-ISO-10303-21;
