ISO-10303-21;
HEADER;
FILE_DESCRIPTION (( 'STEP AP203' ),
    '1' );
FILE_NAME ('3435-50-210-03_REV_.step',
    '2025-11-20T01:02:26',
    ( '' ),
    ( '' ),
    'SwSTEP 2.0',
    'SolidWorks 2025',
    '' );
FILE_SCHEMA (( 'CONFIG_CONTROL_DESIGN' ));
ENDSEC;

DATA;
#1 = CIRCLE ( 'NONE', #199, 30.14999999999999858 ) ;
#2 = DIRECTION ( 'NONE',  ( 1.000000000000000000, 3.061616997868383141E-16, -0.000000000000000000 ) ) ;
#3 = DIRECTION ( 'NONE',  ( 1.000000000000000000, 3.061616997868383141E-16, -0.000000000000000000 ) ) ;
#4 = DIRECTION ( 'NONE',  ( 1.000000000000000000, 3.061616997868383141E-16, -0.000000000000000000 ) ) ;
#5 = CARTESIAN_POINT ( 'NONE',  ( -18.99999999999999289, -26.25000000000000711, 3.214697847761801978E-15 ) ) ;
#6 = CC_DESIGN_APPROVAL ( #129, ( #190 ) ) ;
#7 = CC_DESIGN_DATE_AND_TIME_ASSIGNMENT ( #173, #62, ( #190 ) ) ;
#8 = DATE_AND_TIME ( #46, #162 ) ;
#9 = APPROVAL_PERSON_ORGANIZATION ( #25, #129, #99 ) ;
#10 = AXIS2_PLACEMENT_3D ( 'NONE', #133, #167, #232 ) ;
#11 = CARTESIAN_POINT ( 'NONE',  ( 18.99999999999999289, 26.25000000000000355, 0.000000000000000000 ) ) ;
#12 = EDGE_CURVE ( 'NONE', #89, #163, #229, .T. ) ;
#13 = DIRECTION ( 'NONE',  ( -1.000000000000000000, -3.061616997868383141E-16, 0.000000000000000000 ) ) ;
#14 = CARTESIAN_POINT ( 'NONE',  ( 19.00000000000000000, 3.184081677783115824E-15, 0.000000000000000000 ) ) ;
#15 = ORIENTED_EDGE ( 'NONE', *, *, #202, .F. ) ;
#16 = EDGE_LOOP ( 'NONE', ( #141, #225, #216, #70 ) ) ;
#17 = DIRECTION ( 'NONE',  ( 3.452186021844392414E-16, -1.000000000000000000, 0.000000000000000000 ) ) ;
#18 = CYLINDRICAL_SURFACE ( 'NONE', #176, 30.14999999999999858 ) ;
#19 = CARTESIAN_POINT ( 'NONE',  ( -19.00000000000000000, -8.450062914116737844E-15, 0.000000000000000000 ) ) ;
#20 = DIRECTION ( 'NONE',  ( -1.000000000000000000, -3.061616997868383141E-16, 0.000000000000000000 ) ) ;
#21 = PERSON ( 'UNSPECIFIED', 'UNSPECIFIED', 'UNSPECIFIED', ('UNSPECIFIED'), ('UNSPECIFIED'), ('UNSPECIFIED') ) ;
#22 = PERSON_AND_ORGANIZATION_ROLE ( 'creator' ) ;
#23 = UNCERTAINTY_MEASURE_WITH_UNIT (LENGTH_MEASURE( 1.000000000000000082E-05 ), #111, 'distance_accuracy_value', 'NONE');
#24 = CALENDAR_DATE ( 2025, 20, 11 ) ;
#25 = PERSON_AND_ORGANIZATION ( #21, #241 ) ;
#26 = ORIENTED_EDGE ( 'NONE', *, *, #116, .T. ) ;
#27 = EDGE_CURVE ( 'NONE', #30, #136, #166, .T. ) ;
#28 = AXIS2_PLACEMENT_3D ( 'NONE', #235, #4, #90 ) ;
#29 = DIRECTION ( 'NONE',  ( -1.000000000000000000, -3.061616997868383141E-16, 0.000000000000000000 ) ) ;
#30 = VERTEX_POINT ( 'NONE', #182 ) ;
#31 = CARTESIAN_POINT ( 'NONE',  ( -19.00000000000000000, -8.450062914116737844E-15, 0.000000000000000000 ) ) ;
#32 = AXIS2_PLACEMENT_3D ( 'NONE', #172, #72, #146 ) ;
#33 = ORIENTED_EDGE ( 'NONE', *, *, #79, .T. ) ;
#34 = CARTESIAN_POINT ( 'NONE',  ( 19.00000000000000711, -26.24999999999999645, 3.214697847761801978E-15 ) ) ;
#35 = CARTESIAN_POINT ( 'NONE',  ( -19.00000000000000711, 26.24999999999999289, 0.000000000000000000 ) ) ;
#36 = VECTOR ( 'NONE', #74, 1000.000000000000000 ) ;
#37 =( NAMED_UNIT ( * ) SI_UNIT ( $, .STERADIAN. ) SOLID_ANGLE_UNIT ( ) );
#38 = FACE_BOUND ( 'NONE', #125, .T. ) ;
#39 = PERSON_AND_ORGANIZATION ( #21, #241 ) ;
#40 = ORIENTED_EDGE ( 'NONE', *, *, #174, .T. ) ;
#41 = CC_DESIGN_PERSON_AND_ORGANIZATION_ASSIGNMENT ( #77, #135, ( #190 ) ) ;
#42 = CALENDAR_DATE ( 2025, 20, 11 ) ;
#43 = ORIENTED_EDGE ( 'NONE', *, *, #237, .T. ) ;
#44 = APPROVAL_ROLE ( '' ) ;
#45 = AXIS2_PLACEMENT_3D ( 'NONE', #14, #180, #247 ) ;
#46 = CALENDAR_DATE ( 2025, 20, 11 ) ;
#47 = ORIENTED_EDGE ( 'NONE', *, *, #228, .F. ) ;
#48 = EDGE_LOOP ( 'NONE', ( #203, #160 ) ) ;
#49 = EDGE_LOOP ( 'NONE', ( #33, #51 ) ) ;
#50 = AXIS2_PLACEMENT_3D ( 'NONE', #230, #56, #233 ) ;
#51 = ORIENTED_EDGE ( 'NONE', *, *, #60, .T. ) ;
#52 = DIRECTION ( 'NONE',  ( -1.000000000000000000, -3.061616997868383141E-16, 0.000000000000000000 ) ) ;
#53 = FACE_OUTER_BOUND ( 'NONE', #67, .T. ) ;
#54 = AXIS2_PLACEMENT_3D ( 'NONE', #222, #249, #88 ) ;
#55 = LOCAL_TIME ( 12, 2, 26.00000000000000000, #215 ) ;
#56 = DIRECTION ( 'NONE',  ( -1.000000000000000000, -3.061616997868383141E-16, 0.000000000000000000 ) ) ;
#57 = PLANE ( 'NONE',  #94 ) ;
#58 = VECTOR ( 'NONE', #204, 1000.000000000000000 ) ;
#59 = CARTESIAN_POINT ( 'NONE',  ( 19.00000000000000000, 3.184081677783115824E-15, 0.000000000000000000 ) ) ;
#60 = EDGE_CURVE ( 'NONE', #201, #83, #101, .T. ) ;
#61 = CYLINDRICAL_SURFACE ( 'NONE', #28, 26.25000000000000000 ) ;
#62 = DATE_TIME_ROLE ( 'creation_date' ) ;
#63 = PERSON_AND_ORGANIZATION ( #21, #241 ) ;
#64 = SHAPE_DEFINITION_REPRESENTATION ( #78, #69 ) ;
#65 = APPROVAL_DATE_TIME ( #8, #243 ) ;
#66 = FACE_BOUND ( 'NONE', #49, .T. ) ;
#67 = EDGE_LOOP ( 'NONE', ( #155, #223, #137, #47 ) ) ;
#68 = APPROVAL ( #80, 'UNSPECIFIED' ) ;
#69 = ADVANCED_BREP_SHAPE_REPRESENTATION ( '3435-50-210-03_REV_', ( #107, #32 ), #206 ) ;
#70 = ORIENTED_EDGE ( 'NONE', *, *, #60, .F. ) ;
#71 = CARTESIAN_POINT ( 'NONE',  ( 19.00000000000000000, 3.184081677783115824E-15, 0.000000000000000000 ) ) ;
#72 = DIRECTION ( 'NONE',  ( 0.000000000000000000, 0.000000000000000000, 1.000000000000000000 ) ) ;
#73 = CARTESIAN_POINT ( 'NONE',  ( -18.99999999999998934, -30.15000000000000924, 3.692310099429271186E-15 ) ) ;
#74 = DIRECTION ( 'NONE',  ( 1.000000000000000000, 3.061616997868383141E-16, -0.000000000000000000 ) ) ;
#75 = FACE_OUTER_BOUND ( 'NONE', #104, .T. ) ;
#76 = APPROVAL_DATE_TIME ( #81, #129 ) ;
#77 = PERSON_AND_ORGANIZATION ( #21, #241 ) ;
#78 = PRODUCT_DEFINITION_SHAPE ( 'NONE', 'NONE',  #190 ) ;
#79 = EDGE_CURVE ( 'NONE', #83, #201, #156, .T. ) ;
#80 = APPROVAL_STATUS ( 'not_yet_approved' ) ;
#81 = DATE_AND_TIME ( #195, #238 ) ;
#82 = PRODUCT_RELATED_PRODUCT_CATEGORY ( 'detail', '', ( #189 ) ) ;
#83 = VERTEX_POINT ( 'NONE', #11 ) ;
#84 = CC_DESIGN_PERSON_AND_ORGANIZATION_ASSIGNMENT ( #114, #178, ( #185 ) ) ;
#85 = DIRECTION ( 'NONE',  ( -3.452186021844392414E-16, 1.000000000000000000, 0.000000000000000000 ) ) ;
#86 = CARTESIAN_POINT ( 'NONE',  ( -18.99999999999998934, -30.15000000000000568, 3.692310099429270397E-15 ) ) ;
#87 = APPROVAL_PERSON_ORGANIZATION ( #177, #68, #152 ) ;
#88 = DIRECTION ( 'NONE',  ( 3.452186021844392414E-16, -1.000000000000000000, 0.000000000000000000 ) ) ;
#89 = VERTEX_POINT ( 'NONE', #179 ) ;
#90 = DIRECTION ( 'NONE',  ( -2.643388153869420311E-16, 1.000000000000000000, 0.000000000000000000 ) ) ;
#91 = FACE_OUTER_BOUND ( 'NONE', #16, .T. ) ;
#92 = DIRECTION ( 'NONE',  ( 1.000000000000000000, 3.061616997868383141E-16, -0.000000000000000000 ) ) ;
#93 = CARTESIAN_POINT ( 'NONE',  ( -19.00000000000001066, 30.14999999999999147, 0.000000000000000000 ) ) ;
#94 = AXIS2_PLACEMENT_3D ( 'NONE', #165, #20, #128 ) ;
#95 = APPROVAL_PERSON_ORGANIZATION ( #63, #243, #44 ) ;
#96 = PERSON_AND_ORGANIZATION_ROLE ( 'design_owner' ) ;
#97 = APPLICATION_CONTEXT ( 'configuration controlled 3d designs of mechanical parts and assemblies' ) ;
#98 = EDGE_CURVE ( 'NONE', #221, #163, #158, .T. ) ;
#99 = APPROVAL_ROLE ( '' ) ;
#100 = APPROVAL_STATUS ( 'not_yet_approved' ) ;
#101 = CIRCLE ( 'NONE', #45, 26.25000000000000000 ) ;
#102 = DIRECTION ( 'NONE',  ( 2.643388153869420311E-16, -1.000000000000000000, 0.000000000000000000 ) ) ;
#103 = ORIENTED_EDGE ( 'NONE', *, *, #211, .F. ) ;
#104 = EDGE_LOOP ( 'NONE', ( #159, #43, #122, #15 ) ) ;
#105 = DIRECTION ( 'NONE',  ( -1.000000000000000000, -3.061616997868383141E-16, 0.000000000000000000 ) ) ;
#106 = ORIENTED_EDGE ( 'NONE', *, *, #174, .F. ) ;
#107 = MANIFOLD_SOLID_BREP ( 'Stainless chs 60.3 X 3.9 CHS(1)', #183 ) ;
#108 = DIRECTION ( 'NONE',  ( -1.000000000000000000, -3.061616997868383141E-16, 0.000000000000000000 ) ) ;
#109 = AXIS2_PLACEMENT_3D ( 'NONE', #31, #126, #85 ) ;
#110 = LINE ( 'NONE', #93, #36 ) ;
#111 =( LENGTH_UNIT ( ) NAMED_UNIT ( * ) SI_UNIT ( .MILLI., .METRE. ) );
#112 = AXIS2_PLACEMENT_3D ( 'NONE', #184, #29, #102 ) ;
#113 = COORDINATED_UNIVERSAL_TIME_OFFSET ( 10, 0, .AHEAD. ) ;
#114 = PERSON_AND_ORGANIZATION ( #21, #241 ) ;
#115 = PERSON_AND_ORGANIZATION ( #21, #241 ) ;
#116 = EDGE_CURVE ( 'NONE', #221, #205, #196, .T. ) ;
#117 = COORDINATED_UNIVERSAL_TIME_OFFSET ( 10, 0, .AHEAD. ) ;
#118 = VECTOR ( 'NONE', #2, 1000.000000000000000 ) ;
#119 = DATE_TIME_ROLE ( 'classification_date' ) ;
#120 = DIRECTION ( 'NONE',  ( 3.452186021844392414E-16, -1.000000000000000000, 0.000000000000000000 ) ) ;
#121 = AXIS2_PLACEMENT_3D ( 'NONE', #139, #52, #140 ) ;
#122 = ORIENTED_EDGE ( 'NONE', *, *, #79, .F. ) ;
#123 = ADVANCED_FACE ( 'NONE', ( #66, #145 ), #198, .F. ) ;
#124 = EDGE_LOOP ( 'NONE', ( #226, #106, #244, #164 ) ) ;
#125 = EDGE_LOOP ( 'NONE', ( #103, #186 ) ) ;
#126 = DIRECTION ( 'NONE',  ( 1.000000000000000000, 3.061616997868383141E-16, -0.000000000000000000 ) ) ;
#127 = LINE ( 'NONE', #5, #157 ) ;
#128 = DIRECTION ( 'NONE',  ( 3.061616997868383141E-16, -1.000000000000000000, 0.000000000000000000 ) ) ;
#129 = APPROVAL ( #220, 'UNSPECIFIED' ) ;
#130 =( NAMED_UNIT ( * ) PLANE_ANGLE_UNIT ( ) SI_UNIT ( $, .RADIAN. ) );
#131 = CC_DESIGN_SECURITY_CLASSIFICATION ( #185, ( #148 ) ) ;
#132 = CYLINDRICAL_SURFACE ( 'NONE', #10, 26.25000000000000000 ) ;
#133 = CARTESIAN_POINT ( 'NONE',  ( -19.00000000000000000, -8.450062914116737844E-15, 0.000000000000000000 ) ) ;
#134 = ADVANCED_FACE ( 'NONE', ( #53 ), #227, .T. ) ;
#135 = PERSON_AND_ORGANIZATION_ROLE ( 'creator' ) ;
#136 = VERTEX_POINT ( 'NONE', #191 ) ;
#137 = ORIENTED_EDGE ( 'NONE', *, *, #208, .T. ) ;
#138 = SECURITY_CLASSIFICATION_LEVEL ( 'unclassified' ) ;
#139 = CARTESIAN_POINT ( 'NONE',  ( 19.00000000000000000, 3.184081677783115824E-15, 0.000000000000000000 ) ) ;
#140 = DIRECTION ( 'NONE',  ( 2.643388153869420311E-16, -1.000000000000000000, 0.000000000000000000 ) ) ;
#141 = ORIENTED_EDGE ( 'NONE', *, *, #237, .F. ) ;
#142 = APPLICATION_CONTEXT ( 'configuration controlled 3d designs of mechanical parts and assemblies' ) ;
#143 = DIRECTION ( 'NONE',  ( 3.061616997868383141E-16, -1.000000000000000000, 0.000000000000000000 ) ) ;
#144 = CC_DESIGN_PERSON_AND_ORGANIZATION_ASSIGNMENT ( #236, #240, ( #148 ) ) ;
#145 = FACE_OUTER_BOUND ( 'NONE', #48, .T. ) ;
#146 = DIRECTION ( 'NONE',  ( 1.000000000000000000, 0.000000000000000000, 0.000000000000000000 ) ) ;
#147 = AXIS2_PLACEMENT_3D ( 'NONE', #59, #108, #212 ) ;
#148 = PRODUCT_DEFINITION_FORMATION_WITH_SPECIFIED_SOURCE ( 'ANY', '', #189, .NOT_KNOWN. ) ;
#149 = CARTESIAN_POINT ( 'NONE',  ( 19.00000000000001066, -30.14999999999999503, 3.692310099429270397E-15 ) ) ;
#150 = LINE ( 'NONE', #35, #118 ) ;
#151 = AXIS2_PLACEMENT_3D ( 'NONE', #242, #13, #120 ) ;
#152 = APPROVAL_ROLE ( '' ) ;
#153 = CIRCLE ( 'NONE', #50, 26.25000000000000000 ) ;
#154 = COORDINATED_UNIVERSAL_TIME_OFFSET ( 10, 0, .AHEAD. ) ;
#155 = ORIENTED_EDGE ( 'NONE', *, *, #116, .F. ) ;
#156 = CIRCLE ( 'NONE', #121, 26.25000000000000000 ) ;
#157 = VECTOR ( 'NONE', #92, 1000.000000000000000 ) ;
#158 = LINE ( 'NONE', #86, #58 ) ;
#159 = ORIENTED_EDGE ( 'NONE', *, *, #211, .T. ) ;
#160 = ORIENTED_EDGE ( 'NONE', *, *, #208, .F. ) ;
#161 = ADVANCED_FACE ( 'NONE', ( #38, #169 ), #57, .T. ) ;
#162 = LOCAL_TIME ( 12, 2, 26.00000000000000000, #218 ) ;
#163 = VERTEX_POINT ( 'NONE', #149 ) ;
#164 = ORIENTED_EDGE ( 'NONE', *, *, #12, .T. ) ;
#165 = CARTESIAN_POINT ( 'NONE',  ( -19.00000000000000000, -8.450062914116737844E-15, 0.000000000000000000 ) ) ;
#166 = CIRCLE ( 'NONE', #112, 26.25000000000000000 ) ;
#167 = DIRECTION ( 'NONE',  ( 1.000000000000000000, 3.061616997868383141E-16, -0.000000000000000000 ) ) ;
#168 = APPLICATION_PROTOCOL_DEFINITION ( 'international standard', 'config_control_design', 1994, #97 ) ;
#169 = FACE_OUTER_BOUND ( 'NONE', #246, .T. ) ;
#170 = ADVANCED_FACE ( 'NONE', ( #91 ), #61, .F. ) ;
#171 = CC_DESIGN_APPROVAL ( #243, ( #148 ) ) ;
#172 = CARTESIAN_POINT ( 'NONE',  ( 0.000000000000000000, 0.000000000000000000, 0.000000000000000000 ) ) ;
#173 = DATE_AND_TIME ( #24, #55 ) ;
#174 = EDGE_CURVE ( 'NONE', #205, #221, #1, .T. ) ;
#175 = APPROVAL_DATE_TIME ( #193, #68 ) ;
#176 = AXIS2_PLACEMENT_3D ( 'NONE', #19, #3, #207 ) ;
#177 = PERSON_AND_ORGANIZATION ( #21, #241 ) ;
#178 = PERSON_AND_ORGANIZATION_ROLE ( 'classification_officer' ) ;
#179 = CARTESIAN_POINT ( 'NONE',  ( 18.99999999999998934, 30.15000000000000213, 0.000000000000000000 ) ) ;
#180 = DIRECTION ( 'NONE',  ( -1.000000000000000000, -3.061616997868383141E-16, 0.000000000000000000 ) ) ;
#181 = ADVANCED_FACE ( 'NONE', ( #75 ), #132, .F. ) ;
#182 = CARTESIAN_POINT ( 'NONE',  ( -18.99999999999999289, -26.25000000000001066, 3.214697847761802767E-15 ) ) ;
#183 = CLOSED_SHELL ( 'NONE', ( #134, #181, #170, #224, #161, #123 ) ) ;
#184 = CARTESIAN_POINT ( 'NONE',  ( -19.00000000000000000, -8.450062914116737844E-15, 0.000000000000000000 ) ) ;
#185 = SECURITY_CLASSIFICATION ( '', '', #138 ) ;
#186 = ORIENTED_EDGE ( 'NONE', *, *, #27, .F. ) ;
#187 = FACE_OUTER_BOUND ( 'NONE', #124, .T. ) ;
#188 = LOCAL_TIME ( 12, 2, 26.00000000000000000, #154 ) ;
#189 = PRODUCT ( '3435-50-210-03_REV_', '3435-50-210-03_REV_', '', ( #239 ) ) ;
#190 = PRODUCT_DEFINITION ( 'UNKNOWN', '', #148, #213 ) ;
#191 = CARTESIAN_POINT ( 'NONE',  ( -19.00000000000000711, 26.24999999999999289, 0.000000000000000000 ) ) ;
#192 = APPLICATION_PROTOCOL_DEFINITION ( 'international standard', 'config_control_design', 1994, #142 ) ;
#193 = DATE_AND_TIME ( #214, #188 ) ;
#194 = CC_DESIGN_DATE_AND_TIME_ASSIGNMENT ( #197, #119, ( #185 ) ) ;
#195 = CALENDAR_DATE ( 2025, 20, 11 ) ;
#196 = CIRCLE ( 'NONE', #151, 30.14999999999999858 ) ;
#197 = DATE_AND_TIME ( #42, #245 ) ;
#198 = PLANE ( 'NONE',  #234 ) ;
#199 = AXIS2_PLACEMENT_3D ( 'NONE', #231, #209, #17 ) ;
#200 = CC_DESIGN_APPROVAL ( #68, ( #185 ) ) ;
#201 = VERTEX_POINT ( 'NONE', #34 ) ;
#202 = EDGE_CURVE ( 'NONE', #136, #83, #150, .T. ) ;
#203 = ORIENTED_EDGE ( 'NONE', *, *, #12, .F. ) ;
#204 = DIRECTION ( 'NONE',  ( 1.000000000000000000, 3.061616997868383141E-16, -0.000000000000000000 ) ) ;
#205 = VERTEX_POINT ( 'NONE', #210 ) ;
#206 =( GEOMETRIC_REPRESENTATION_CONTEXT ( 3 ) GLOBAL_UNCERTAINTY_ASSIGNED_CONTEXT ( ( #23 ) ) GLOBAL_UNIT_ASSIGNED_CONTEXT ( ( #111, #130, #37 ) ) REPRESENTATION_CONTEXT ( 'NONE', 'WORKASPACE' ) );
#207 = DIRECTION ( 'NONE',  ( -3.452186021844392414E-16, 1.000000000000000000, 0.000000000000000000 ) ) ;
#208 = EDGE_CURVE ( 'NONE', #163, #89, #219, .T. ) ;
#209 = DIRECTION ( 'NONE',  ( -1.000000000000000000, -3.061616997868383141E-16, 0.000000000000000000 ) ) ;
#210 = CARTESIAN_POINT ( 'NONE',  ( -19.00000000000001066, 30.14999999999999147, 0.000000000000000000 ) ) ;
#211 = EDGE_CURVE ( 'NONE', #136, #30, #153, .T. ) ;
#212 = DIRECTION ( 'NONE',  ( 3.452186021844392414E-16, -1.000000000000000000, 0.000000000000000000 ) ) ;
#213 = DESIGN_CONTEXT ( 'detailed design', #142, 'design' ) ;
#214 = CALENDAR_DATE ( 2025, 20, 11 ) ;
#215 = COORDINATED_UNIVERSAL_TIME_OFFSET ( 10, 0, .AHEAD. ) ;
#216 = ORIENTED_EDGE ( 'NONE', *, *, #202, .T. ) ;
#217 = CC_DESIGN_PERSON_AND_ORGANIZATION_ASSIGNMENT ( #115, #96, ( #189 ) ) ;
#218 = COORDINATED_UNIVERSAL_TIME_OFFSET ( 10, 0, .AHEAD. ) ;
#219 = CIRCLE ( 'NONE', #147, 30.14999999999999858 ) ;
#220 = APPROVAL_STATUS ( 'not_yet_approved' ) ;
#221 = VERTEX_POINT ( 'NONE', #73 ) ;
#222 = CARTESIAN_POINT ( 'NONE',  ( 19.00000000000000000, 3.184081677783115824E-15, 0.000000000000000000 ) ) ;
#223 = ORIENTED_EDGE ( 'NONE', *, *, #98, .T. ) ;
#224 = ADVANCED_FACE ( 'NONE', ( #187 ), #18, .T. ) ;
#225 = ORIENTED_EDGE ( 'NONE', *, *, #27, .T. ) ;
#226 = ORIENTED_EDGE ( 'NONE', *, *, #98, .F. ) ;
#227 = CYLINDRICAL_SURFACE ( 'NONE', #109, 30.14999999999999858 ) ;
#228 = EDGE_CURVE ( 'NONE', #205, #89, #110, .T. ) ;
#229 = CIRCLE ( 'NONE', #54, 30.14999999999999858 ) ;
#230 = CARTESIAN_POINT ( 'NONE',  ( -19.00000000000000000, -8.450062914116737844E-15, 0.000000000000000000 ) ) ;
#231 = CARTESIAN_POINT ( 'NONE',  ( -19.00000000000000000, -8.450062914116737844E-15, 0.000000000000000000 ) ) ;
#232 = DIRECTION ( 'NONE',  ( -2.643388153869420311E-16, 1.000000000000000000, 0.000000000000000000 ) ) ;
#233 = DIRECTION ( 'NONE',  ( 2.643388153869420311E-16, -1.000000000000000000, 0.000000000000000000 ) ) ;
#234 = AXIS2_PLACEMENT_3D ( 'NONE', #71, #105, #143 ) ;
#235 = CARTESIAN_POINT ( 'NONE',  ( -19.00000000000000000, -8.450062914116737844E-15, 0.000000000000000000 ) ) ;
#236 = PERSON_AND_ORGANIZATION ( #21, #241 ) ;
#237 = EDGE_CURVE ( 'NONE', #30, #201, #127, .T. ) ;
#238 = LOCAL_TIME ( 12, 2, 26.00000000000000000, #113 ) ;
#239 = MECHANICAL_CONTEXT ( 'NONE', #97, 'mechanical' ) ;
#240 = PERSON_AND_ORGANIZATION_ROLE ( 'design_supplier' ) ;
#241 = ORGANIZATION ( 'UNSPECIFIED', 'UNSPECIFIED', '' ) ;
#242 = CARTESIAN_POINT ( 'NONE',  ( -19.00000000000000000, -8.450062914116737844E-15, 0.000000000000000000 ) ) ;
#243 = APPROVAL ( #100, 'UNSPECIFIED' ) ;
#244 = ORIENTED_EDGE ( 'NONE', *, *, #228, .T. ) ;
#245 = LOCAL_TIME ( 12, 2, 26.00000000000000000, #117 ) ;
#246 = EDGE_LOOP ( 'NONE', ( #40, #26 ) ) ;
#247 = DIRECTION ( 'NONE',  ( 2.643388153869420311E-16, -1.000000000000000000, 0.000000000000000000 ) ) ;
#248 = CC_DESIGN_PERSON_AND_ORGANIZATION_ASSIGNMENT ( #39, #22, ( #148 ) ) ;
#249 = DIRECTION ( 'NONE',  ( -1.000000000000000000, -3.061616997868383141E-16, 0.000000000000000000 ) ) ;
ENDSEC;
END-ISO-10303-21;
