ISO-10303-21;
HEADER;
FILE_DESCRIPTION (( 'STEP AP203' ),
    '1' );
FILE_NAME ('3435-50-211-01_REV_.step',
    '2025-11-20T01:01:07',
    ( '' ),
    ( '' ),
    'SwSTEP 2.0',
    'SolidWorks 2025',
    '' );
FILE_SCHEMA (( 'CONFIG_CONTROL_DESIGN' ));
ENDSEC;

DATA;
#1 = ORIENTED_EDGE ( 'NONE', *, *, #152, .T. ) ;
#2 = CIRCLE ( 'NONE', #323, 26.24999999999999645 ) ;
#3 = AXIS2_PLACEMENT_3D ( 'NONE', #225, #155, #131 ) ;
#4 = ORIENTED_EDGE ( 'NONE', *, *, #269, .T. ) ;
#5 = EDGE_CURVE ( 'NONE', #389, #38, #293, .T. ) ;
#6 = ORIENTED_EDGE ( 'NONE', *, *, #137, .F. ) ;
#7 = COORDINATED_UNIVERSAL_TIME_OFFSET ( 10, 0, .AHEAD. ) ;
#8 = VERTEX_POINT ( 'NONE', #397 ) ;
#9 = ORIENTED_EDGE ( 'NONE', *, *, #281, .F. ) ;
#10 = PERSON_AND_ORGANIZATION ( #82, #318 ) ;
#11 = APPROVAL_DATE_TIME ( #276, #206 ) ;
#12 = EDGE_LOOP ( 'NONE', ( #110, #162, #291, #4 ) ) ;
#13 = EDGE_CURVE ( 'NONE', #104, #95, #192, .T. ) ;
#14 = PLANE ( 'NONE',  #393 ) ;
#15 = CARTESIAN_POINT ( 'NONE',  ( -689.3429616897992673, 650.0000000000001137, -190.2428022475933744 ) ) ;
#16 = LINE ( 'NONE', #145, #299 ) ;
#17 = APPLICATION_CONTEXT ( 'configuration controlled 3d designs of mechanical parts and assemblies' ) ;
#18 = CARTESIAN_POINT ( 'NONE',  ( -629.3114919472664042, 650.0000000000000000, -107.2202108469451787 ) ) ;
#19 = CARTESIAN_POINT ( 'NONE',  ( -652.3794062036279229, 650.0000000000001137, -130.7979070435412723 ) ) ;
#20 = CIRCLE ( 'NONE', #75, 26.24999999999996092 ) ;
#21 = CARTESIAN_POINT ( 'NONE',  ( -689.3429616897992673, 650.0000000000001137, -190.2428022475933744 ) ) ;
#22 = ADVANCED_FACE ( 'NONE', ( #332, #241 ), #83, .T. ) ;
#23 = DIRECTION ( 'NONE',  ( -0.8492127886293155958, 0.000000000000000000, 0.5280507926595900958 ) ) ;
#24 = ORIENTED_EDGE ( 'NONE', *, *, #152, .F. ) ;
#25 = DIRECTION ( 'NONE',  ( -0.8492127886293155958, 0.000000000000000000, 0.5280507926595900958 ) ) ;
#26 = CARTESIAN_POINT ( 'NONE',  ( -652.3794062036279229, 650.0000000000001137, -130.7979070435412723 ) ) ;
#27 = DIRECTION ( 'NONE',  ( -0.8374693779167516894, 0.000000000000000000, -0.5464842550812686328 ) ) ;
#28 = CARTESIAN_POINT ( 'NONE',  ( -629.3114919472664042, 650.0000000000000000, -107.2202108469451787 ) ) ;
#29 = CC_DESIGN_APPROVAL ( #49, ( #98 ) ) ;
#30 = EDGE_LOOP ( 'NONE', ( #46, #233 ) ) ;
#31 = CARTESIAN_POINT ( 'NONE',  ( -528.8151665972562796, 650.0000000000000000, -41.64210023719297737 ) ) ;
#32 = EDGE_LOOP ( 'NONE', ( #207, #298 ) ) ;
#33 = APPLICATION_PROTOCOL_DEFINITION ( 'international standard', 'config_control_design', 1994, #17 ) ;
#34 = ORIENTED_EDGE ( 'NONE', *, *, #411, .F. ) ;
#35 = PERSON_AND_ORGANIZATION ( #82, #318 ) ;
#36 = AXIS2_PLACEMENT_3D ( 'NONE', #19, #302, #23 ) ;
#37 = CIRCLE ( 'NONE', #109, 30.15000000000003055 ) ;
#38 = VERTEX_POINT ( 'NONE', #211 ) ;
#39 = APPROVAL_STATUS ( 'not_yet_approved' ) ;
#40 = ORIENTED_EDGE ( 'NONE', *, *, #343, .T. ) ;
#41 = CC_DESIGN_PERSON_AND_ORGANIZATION_ASSIGNMENT ( #163, #355, ( #166 ) ) ;
#42 = APPLICATION_CONTEXT ( 'configuration controlled 3d designs of mechanical parts and assemblies' ) ;
#43 = CIRCLE ( 'NONE', #273, 30.15000000000007319 ) ;
#44 = ADVANCED_FACE ( 'NONE', ( #406 ), #376, .T. ) ;
#45 = EDGE_LOOP ( 'NONE', ( #105, #363 ) ) ;
#46 = ORIENTED_EDGE ( 'NONE', *, *, #209, .T. ) ;
#47 = CYLINDRICAL_SURFACE ( 'NONE', #122, 30.15000000000003055 ) ;
#48 = ORIENTED_EDGE ( 'NONE', *, *, #411, .T. ) ;
#49 = APPROVAL ( #254, 'UNSPECIFIED' ) ;
#50 = AXIS2_PLACEMENT_3D ( 'NONE', #15, #52, #142 ) ;
#51 = DIRECTION ( 'NONE',  ( -0.8374693779167516894, 0.000000000000000000, -0.5464842550812686328 ) ) ;
#52 = DIRECTION ( 'NONE',  ( 0.5280507926595905399, -0.000000000000000000, 0.8492127886293152628 ) ) ;
#53 = DIRECTION ( 'NONE',  ( -0.5464842550812694100, 0.000000000000000000, 0.8374693779167511343 ) ) ;
#54 = COORDINATED_UNIVERSAL_TIME_OFFSET ( 10, 0, .AHEAD. ) ;
#55 = CARTESIAN_POINT ( 'NONE',  ( -528.8151665972562796, 650.0000000000000000, -41.64210023719297737 ) ) ;
#56 = FACE_OUTER_BOUND ( 'NONE', #12, .T. ) ;
#57 = AXIS2_PLACEMENT_3D ( 'NONE', #55, #27, #123 ) ;
#58 = CYLINDRICAL_SURFACE ( 'NONE', #194, 26.25000000000000711 ) ;
#59 = CYLINDRICAL_SURFACE ( 'NONE', #219, 26.24999999999996092 ) ;
#60 = DIRECTION ( 'NONE',  ( 0.8374693779167518004, -0.000000000000000000, 0.5464842550812685218 ) ) ;
#61 = DIRECTION ( 'NONE',  ( 0.5280507926595905399, -0.000000000000000000, 0.8492127886293152628 ) ) ;
#62 = FACE_OUTER_BOUND ( 'NONE', #263, .T. ) ;
#63 = FACE_BOUND ( 'NONE', #236, .T. ) ;
#64 = AXIS2_PLACEMENT_3D ( 'NONE', #367, #144, #76 ) ;
#65 = CIRCLE ( 'NONE', #377, 30.15000000000003055 ) ;
#66 =( NAMED_UNIT ( * ) PLANE_ANGLE_UNIT ( ) SI_UNIT ( $, .RADIAN. ) );
#67 = CC_DESIGN_PERSON_AND_ORGANIZATION_ASSIGNMENT ( #383, #132, ( #98 ) ) ;
#68 = CIRCLE ( 'NONE', #36, 30.15000000000006608 ) ;
#69 = LOCAL_TIME ( 12, 1, 7.000000000000000000, #290 ) ;
#70 = VERTEX_POINT ( 'NONE', #221 ) ;
#71 = PERSON_AND_ORGANIZATION ( #82, #318 ) ;
#72 = VERTEX_POINT ( 'NONE', #87 ) ;
#73 = APPROVAL_ROLE ( '' ) ;
#74 = ORIENTED_EDGE ( 'NONE', *, *, #394, .T. ) ;
#75 = AXIS2_PLACEMENT_3D ( 'NONE', #168, #208, #329 ) ;
#76 = DIRECTION ( 'NONE',  ( -0.8492127886293152628, 0.000000000000000000, 0.5280507926595906509 ) ) ;
#77 = CARTESIAN_POINT ( 'NONE',  ( -714.9467272669731983, 650.0000000000001137, -174.3220708489066908 ) ) ;
#78 = EDGE_LOOP ( 'NONE', ( #261, #198 ) ) ;
#79 = DIRECTION ( 'NONE',  ( 0.8492127886293153738, 0.000000000000000000, -0.5280507926595904289 ) ) ;
#80 = AXIS2_PLACEMENT_3D ( 'NONE', #324, #252, #25 ) ;
#81 = AXIS2_PLACEMENT_3D ( 'NONE', #26, #366, #336 ) ;
#82 = PERSON ( 'UNSPECIFIED', 'UNSPECIFIED', 'UNSPECIFIED', ('UNSPECIFIED'), ('UNSPECIFIED'), ('UNSPECIFIED') ) ;
#83 = PLANE ( 'NONE',  #328 ) ;
#84 = FACE_OUTER_BOUND ( 'NONE', #189, .T. ) ;
#85 = FACE_OUTER_BOUND ( 'NONE', #78, .T. ) ;
#86 = FACE_OUTER_BOUND ( 'NONE', #268, .T. ) ;
#87 = CARTESIAN_POINT ( 'NONE',  ( -514.4699549013729438, 650.0000000000000000, -63.62567140750771699 ) ) ;
#88 = LINE ( 'NONE', #147, #124 ) ;
#89 = ADVANCED_FACE ( 'NONE', ( #344, #368 ), #14, .F. ) ;
#90 = DIRECTION ( 'NONE',  ( -0.5464842550812680777, 0.000000000000000000, 0.8374693779167520225 ) ) ;
#91 = CARTESIAN_POINT ( 'NONE',  ( -689.3429616897992673, 650.0000000000001137, -190.2428022475933744 ) ) ;
#92 =( LENGTH_UNIT ( ) NAMED_UNIT ( * ) SI_UNIT ( .MILLI., .METRE. ) );
#93 = EDGE_CURVE ( 'NONE', #389, #350, #2, .T. ) ;
#94 = DIRECTION ( 'NONE',  ( -0.8492127886293153738, 0.000000000000000000, 0.5280507926595904289 ) ) ;
#95 = VERTEX_POINT ( 'NONE', #239 ) ;
#96 = CALENDAR_DATE ( 2025, 20, 11 ) ;
#97 = CALENDAR_DATE ( 2025, 20, 11 ) ;
#98 = PRODUCT_DEFINITION ( 'UNKNOWN', '', #361, #321 ) ;
#99 = CIRCLE ( 'NONE', #266, 26.24999999999999645 ) ;
#100 = SECURITY_CLASSIFICATION ( '', '', #337 ) ;
#101 = ORIENTED_EDGE ( 'NONE', *, *, #315, .F. ) ;
#102 = DIRECTION ( 'NONE',  ( -0.8374693779167516894, 0.000000000000000000, -0.5464842550812686328 ) ) ;
#103 = MANIFOLD_SOLID_BREP ( 'Stainless chs 60.3 X 3.9 CHS(1)[2]', #288 ) ;
#104 = VERTEX_POINT ( 'NONE', #270 ) ;
#105 = ORIENTED_EDGE ( 'NONE', *, *, #287, .T. ) ;
#106 = ORIENTED_EDGE ( 'NONE', *, *, #93, .F. ) ;
#107 = DIRECTION ( 'NONE',  ( 0.8374693779167518004, -0.000000000000000000, 0.5464842550812685218 ) ) ;
#108 = ORIENTED_EDGE ( 'NONE', *, *, #195, .T. ) ;
#109 = AXIS2_PLACEMENT_3D ( 'NONE', #31, #272, #399 ) ;
#110 = ORIENTED_EDGE ( 'NONE', *, *, #232, .F. ) ;
#111 = CARTESIAN_POINT ( 'NONE',  ( -528.8151665972562796, 650.0000000000000000, -41.64210023719297737 ) ) ;
#112 = FACE_BOUND ( 'NONE', #30, .T. ) ;
#113 = LOCAL_TIME ( 12, 1, 7.000000000000000000, #385 ) ;
#114 = DIRECTION ( 'NONE',  ( -0.8374693779167516894, 0.000000000000000000, -0.5464842550812686328 ) ) ;
#115 = DIRECTION ( 'NONE',  ( -0.5280507926595905399, 0.000000000000000000, -0.8492127886293152628 ) ) ;
#116 = FACE_OUTER_BOUND ( 'NONE', #191, .T. ) ;
#117 = DIRECTION ( 'NONE',  ( -0.8374693779167516894, 0.000000000000000000, -0.5464842550812686328 ) ) ;
#118 = CARTESIAN_POINT ( 'NONE',  ( -626.7756406264539919, 650.0000000000001137, -146.7186384422279559 ) ) ;
#119 = CARTESIAN_POINT ( 'NONE',  ( -643.6567036431497399, 650.0000000000000000, -85.23663967663046037 ) ) ;
#120 = ORIENTED_EDGE ( 'NONE', *, *, #394, .F. ) ;
#121 = ADVANCED_FACE ( 'NONE', ( #243 ), #59, .F. ) ;
#122 = AXIS2_PLACEMENT_3D ( 'NONE', #18, #107, #325 ) ;
#123 = DIRECTION ( 'NONE',  ( -0.5464842550812694100, 0.000000000000000000, 0.8374693779167511343 ) ) ;
#124 = VECTOR ( 'NONE', #214, 1000.000000000000114 ) ;
#125 = LINE ( 'NONE', #410, #340 ) ;
#126 = EDGE_LOOP ( 'NONE', ( #226, #301, #108, #327 ) ) ;
#127 = CARTESIAN_POINT ( 'NONE',  ( -528.8151665972562796, 650.0000000000000000, -41.64210023719297737 ) ) ;
#128 = ADVANCED_FACE ( 'NONE', ( #112, #85 ), #175, .F. ) ;
#129 = CLOSED_SHELL ( 'NONE', ( #44, #216, #121, #141, #22, #128 ) ) ;
#130 = EDGE_CURVE ( 'NONE', #265, #364, #43, .T. ) ;
#131 = DIRECTION ( 'NONE',  ( 1.000000000000000000, 0.000000000000000000, 0.000000000000000000 ) ) ;
#132 = PERSON_AND_ORGANIZATION_ROLE ( 'creator' ) ;
#133 = CIRCLE ( 'NONE', #295, 26.24999999999996092 ) ;
#134 = APPROVAL_STATUS ( 'not_yet_approved' ) ;
#135 = ADVANCED_BREP_SHAPE_REPRESENTATION ( '3435-50-211-01_REV_', ( #382, #103, #3 ), #409 ) ;
#136 = ORIENTED_EDGE ( 'NONE', *, *, #303, .F. ) ;
#137 = EDGE_CURVE ( 'NONE', #38, #72, #146, .T. ) ;
#138 = ORIENTED_EDGE ( 'NONE', *, *, #333, .T. ) ;
#139 = LOCAL_TIME ( 12, 1, 7.000000000000000000, #335 ) ;
#140 = CARTESIAN_POINT ( 'NONE',  ( -629.3114919472664042, 650.0000000000000000, -107.2202108469451787 ) ) ;
#141 = ADVANCED_FACE ( 'NONE', ( #56 ), #174, .T. ) ;
#142 = DIRECTION ( 'NONE',  ( 0.8492127886293152628, 0.000000000000000000, -0.5280507926595906509 ) ) ;
#143 = CARTESIAN_POINT ( 'NONE',  ( -689.3429616897992673, 650.0000000000001137, -190.2428022475933744 ) ) ;
#144 = DIRECTION ( 'NONE',  ( -0.5280507926595905399, 0.000000000000000000, -0.8492127886293152628 ) ) ;
#145 = CARTESIAN_POINT ( 'NONE',  ( -612.8349916565662170, 650.0000000000000000, -132.4699125911352837 ) ) ;
#146 = CIRCLE ( 'NONE', #179, 26.24999999999999645 ) ;
#147 = CARTESIAN_POINT ( 'NONE',  ( -645.7879922379667050, 650.0000000000000000, -81.97050910275507363 ) ) ;
#148 = LINE ( 'NONE', #400, #313 ) ;
#149 = VERTEX_POINT ( 'NONE', #178 ) ;
#150 = CARTESIAN_POINT ( 'NONE',  ( -714.9467272669731983, 650.0000000000001137, -174.3220708489066908 ) ) ;
#151 = DIRECTION ( 'NONE',  ( 0.5280507926595905399, -0.000000000000000000, 0.8492127886293152628 ) ) ;
#152 = EDGE_CURVE ( 'NONE', #350, #72, #148, .T. ) ;
#153 = DIRECTION ( 'NONE',  ( -0.8374693779167516894, 0.000000000000000000, -0.5464842550812687438 ) ) ;
#154 = LOCAL_TIME ( 12, 1, 7.000000000000000000, #54 ) ;
#155 = DIRECTION ( 'NONE',  ( 0.000000000000000000, 0.000000000000000000, 1.000000000000000000 ) ) ;
#156 = CC_DESIGN_PERSON_AND_ORGANIZATION_ASSIGNMENT ( #200, #237, ( #361 ) ) ;
#157 = ORIENTED_EDGE ( 'NONE', *, *, #343, .F. ) ;
#158 = DATE_AND_TIME ( #97, #113 ) ;
#159 = EDGE_LOOP ( 'NONE', ( #230, #74 ) ) ;
#160 = APPROVAL_ROLE ( '' ) ;
#161 = CIRCLE ( 'NONE', #256, 30.15000000000003055 ) ;
#162 = ORIENTED_EDGE ( 'NONE', *, *, #130, .F. ) ;
#163 = PERSON_AND_ORGANIZATION ( #82, #318 ) ;
#164 = APPROVAL_PERSON_ORGANIZATION ( #10, #206, #297 ) ;
#165 = ORIENTED_EDGE ( 'NONE', *, *, #5, .F. ) ;
#166 = PRODUCT ( '3435-50-211-01_REV_', '3435-50-211-01_REV_', '', ( #322 ) ) ;
#167 = PERSON_AND_ORGANIZATION_ROLE ( 'classification_officer' ) ;
#168 = CARTESIAN_POINT ( 'NONE',  ( -652.3794062036279229, 650.0000000000001137, -130.7979070435412723 ) ) ;
#169 = EDGE_CURVE ( 'NONE', #199, #349, #68, .T. ) ;
#170 = ORIENTED_EDGE ( 'NONE', *, *, #93, .T. ) ;
#171 = ORIENTED_EDGE ( 'NONE', *, *, #209, .F. ) ;
#172 = AXIS2_PLACEMENT_3D ( 'NONE', #310, #60, #405 ) ;
#173 = PRODUCT_DEFINITION_SHAPE ( 'NONE', 'NONE',  #98 ) ;
#174 = CYLINDRICAL_SURFACE ( 'NONE', #204, 30.15000000000007319 ) ;
#175 = PLANE ( 'NONE',  #81 ) ;
#176 = CALENDAR_DATE ( 2025, 20, 11 ) ;
#177 = DIRECTION ( 'NONE',  ( -0.8492127886293152628, 0.000000000000000000, 0.5280507926595906509 ) ) ;
#178 = CARTESIAN_POINT ( 'NONE',  ( -630.0875705021084059, 650.0000000000001137, -144.6592403508554980 ) ) ;
#179 = AXIS2_PLACEMENT_3D ( 'NONE', #372, #51, #183 ) ;
#180 = AXIS2_PLACEMENT_3D ( 'NONE', #28, #153, #188 ) ;
#181 = DIRECTION ( 'NONE',  ( 0.5464842550812691879, 0.000000000000000000, -0.8374693779167513563 ) ) ;
#182 = PRODUCT_RELATED_PRODUCT_CATEGORY ( 'detail', '', ( #166 ) ) ;
#183 = DIRECTION ( 'NONE',  ( -0.5464842550812694100, 0.000000000000000000, 0.8374693779167511343 ) ) ;
#184 = CARTESIAN_POINT ( 'NONE',  ( -711.6347973913187843, 650.0000000000001137, -176.3814689402791487 ) ) ;
#185 = DIRECTION ( 'NONE',  ( -0.5280507926595905399, 0.000000000000000000, -0.8492127886293152628 ) ) ;
#186 = DIRECTION ( 'NONE',  ( 0.5280507926595905399, -0.000000000000000000, 0.8492127886293152628 ) ) ;
#187 = CC_DESIGN_DATE_AND_TIME_ASSIGNMENT ( #309, #262, ( #100 ) ) ;
#188 = DIRECTION ( 'NONE',  ( -0.5464842550812686328, 0.000000000000000000, 0.8374693779167515784 ) ) ;
#189 = EDGE_LOOP ( 'NONE', ( #202, #296 ) ) ;
#190 = APPLICATION_PROTOCOL_DEFINITION ( 'international standard', 'config_control_design', 1994, #42 ) ;
#191 = EDGE_LOOP ( 'NONE', ( #353, #253, #48, #255 ) ) ;
#192 = CIRCLE ( 'NONE', #210, 30.15000000000003055 ) ;
#193 = AXIS2_PLACEMENT_3D ( 'NONE', #21, #251, #177 ) ;
#194 = AXIS2_PLACEMENT_3D ( 'NONE', #279, #247, #181 ) ;
#195 = EDGE_CURVE ( 'NONE', #104, #8, #16, .T. ) ;
#196 = EDGE_LOOP ( 'NONE', ( #285, #34 ) ) ;
#197 = CALENDAR_DATE ( 2025, 20, 11 ) ;
#198 = ORIENTED_EDGE ( 'NONE', *, *, #169, .F. ) ;
#199 = VERTEX_POINT ( 'NONE', #278 ) ;
#200 = PERSON_AND_ORGANIZATION ( #82, #318 ) ;
#201 = ORIENTED_EDGE ( 'NONE', *, *, #281, .T. ) ;
#202 = ORIENTED_EDGE ( 'NONE', *, *, #13, .T. ) ;
#203 = DIRECTION ( 'NONE',  ( 0.5280507926595905399, -0.000000000000000000, 0.8492127886293152628 ) ) ;
#204 = AXIS2_PLACEMENT_3D ( 'NONE', #311, #151, #79 ) ;
#205 = FACE_OUTER_BOUND ( 'NONE', #126, .T. ) ;
#206 = APPROVAL ( #134, 'UNSPECIFIED' ) ;
#207 = ORIENTED_EDGE ( 'NONE', *, *, #341, .F. ) ;
#208 = DIRECTION ( 'NONE',  ( -0.5280507926595905399, 0.000000000000000000, -0.8492127886293152628 ) ) ;
#209 = EDGE_CURVE ( 'NONE', #149, #392, #20, .T. ) ;
#210 = AXIS2_PLACEMENT_3D ( 'NONE', #280, #117, #90 ) ;
#211 = CARTESIAN_POINT ( 'NONE',  ( -543.1603782931396154, 650.0000000000000000, -19.65852906687825907 ) ) ;
#212 = CARTESIAN_POINT ( 'NONE',  ( -689.3429616897992673, 650.0000000000001137, -190.2428022475933744 ) ) ;
#213 = PERSON_AND_ORGANIZATION ( #82, #318 ) ;
#214 = DIRECTION ( 'NONE',  ( 0.8374693779167516894, -0.000000000000000000, 0.5464842550812685218 ) ) ;
#215 = DIRECTION ( 'NONE',  ( -0.8492127886293153738, 0.000000000000000000, 0.5280507926595904289 ) ) ;
#216 = ADVANCED_FACE ( 'NONE', ( #238 ), #240, .F. ) ;
#217 = DIRECTION ( 'NONE',  ( 0.8374693779167518004, -0.000000000000000000, 0.5464842550812685218 ) ) ;
#218 = DIRECTION ( 'NONE',  ( -0.8374693779167516894, 0.000000000000000000, -0.5464842550812687438 ) ) ;
#219 = AXIS2_PLACEMENT_3D ( 'NONE', #370, #61, #395 ) ;
#220 = CARTESIAN_POINT ( 'NONE',  ( -663.7391961126253364, 650.0000000000001137, -206.1635336462800581 ) ) ;
#221 = CARTESIAN_POINT ( 'NONE',  ( -667.0511259882797503, 650.0000000000001137, -204.1041355549076002 ) ) ;
#222 = DIRECTION ( 'NONE',  ( -0.5280507926595905399, 0.000000000000000000, -0.8492127886293152628 ) ) ;
#223 = CARTESIAN_POINT ( 'NONE',  ( -629.3114919472664042, 650.0000000000000000, -107.2202108469451787 ) ) ;
#224 = DIRECTION ( 'NONE',  ( -0.5280507926595905399, 0.000000000000000000, -0.8492127886293152628 ) ) ;
#225 = CARTESIAN_POINT ( 'NONE',  ( 0.000000000000000000, 0.000000000000000000, 0.000000000000000000 ) ) ;
#226 = ORIENTED_EDGE ( 'NONE', *, *, #386, .F. ) ;
#227 = ORIENTED_EDGE ( 'NONE', *, *, #287, .F. ) ;
#228 = DATE_AND_TIME ( #96, #69 ) ;
#229 = CC_DESIGN_APPROVAL ( #326, ( #361 ) ) ;
#230 = ORIENTED_EDGE ( 'NONE', *, *, #130, .T. ) ;
#231 = DATE_AND_TIME ( #197, #300 ) ;
#232 = EDGE_CURVE ( 'NONE', #364, #199, #396, .T. ) ;
#233 = ORIENTED_EDGE ( 'NONE', *, *, #260, .T. ) ;
#234 = CIRCLE ( 'NONE', #57, 26.24999999999999645 ) ;
#235 = CC_DESIGN_APPROVAL ( #206, ( #100 ) ) ;
#236 = EDGE_LOOP ( 'NONE', ( #9, #106 ) ) ;
#237 = PERSON_AND_ORGANIZATION_ROLE ( 'design_supplier' ) ;
#238 = FACE_OUTER_BOUND ( 'NONE', #390, .T. ) ;
#239 = CARTESIAN_POINT ( 'NONE',  ( -645.7879922379667050, 650.0000000000000000, -81.97050910275508784 ) ) ;
#240 = CYLINDRICAL_SURFACE ( 'NONE', #50, 26.24999999999996092 ) ;
#241 = FACE_OUTER_BOUND ( 'NONE', #159, .T. ) ;
#242 = DIRECTION ( 'NONE',  ( 0.5464842550812691879, 0.000000000000000000, -0.8374693779167513563 ) ) ;
#243 = FACE_OUTER_BOUND ( 'NONE', #264, .T. ) ;
#244 = ADVANCED_FACE ( 'NONE', ( #205 ), #47, .T. ) ;
#245 = LINE ( 'NONE', #184, #283 ) ;
#246 = DIRECTION ( 'NONE',  ( 0.8374693779167516894, -0.000000000000000000, 0.5464842550812685218 ) ) ;
#247 = DIRECTION ( 'NONE',  ( 0.8374693779167518004, -0.000000000000000000, 0.5464842550812685218 ) ) ;
#248 = DIRECTION ( 'NONE',  ( 0.8374693779167516894, -0.000000000000000000, 0.5464842550812685218 ) ) ;
#249 = AXIS2_PLACEMENT_3D ( 'NONE', #212, #307, #403 ) ;
#250 = AXIS2_PLACEMENT_3D ( 'NONE', #257, #224, #94 ) ;
#251 = DIRECTION ( 'NONE',  ( -0.5280507926595905399, 0.000000000000000000, -0.8492127886293152628 ) ) ;
#252 = DIRECTION ( 'NONE',  ( -0.5280507926595905399, 0.000000000000000000, -0.8492127886293152628 ) ) ;
#253 = ORIENTED_EDGE ( 'NONE', *, *, #386, .T. ) ;
#254 = APPROVAL_STATUS ( 'not_yet_approved' ) ;
#255 = ORIENTED_EDGE ( 'NONE', *, *, #195, .F. ) ;
#256 = AXIS2_PLACEMENT_3D ( 'NONE', #223, #114, #346 ) ;
#257 = CARTESIAN_POINT ( 'NONE',  ( -689.3429616897992673, 650.0000000000001137, -190.2428022475933744 ) ) ;
#258 = CC_DESIGN_PERSON_AND_ORGANIZATION_ASSIGNMENT ( #357, #388, ( #361 ) ) ;
#259 = VERTEX_POINT ( 'NONE', #362 ) ;
#260 = EDGE_CURVE ( 'NONE', #392, #149, #408, .T. ) ;
#261 = ORIENTED_EDGE ( 'NONE', *, *, #269, .F. ) ;
#262 = DATE_TIME_ROLE ( 'classification_date' ) ;
#263 = EDGE_LOOP ( 'NONE', ( #201, #320, #227, #24 ) ) ;
#264 = EDGE_LOOP ( 'NONE', ( #136, #138, #40, #387 ) ) ;
#265 = VERTEX_POINT ( 'NONE', #391 ) ;
#266 = AXIS2_PLACEMENT_3D ( 'NONE', #277, #378, #407 ) ;
#267 = APPROVAL_PERSON_ORGANIZATION ( #35, #49, #160 ) ;
#268 = EDGE_LOOP ( 'NONE', ( #165, #170, #1, #6 ) ) ;
#269 = EDGE_CURVE ( 'NONE', #349, #199, #354, .T. ) ;
#270 = CARTESIAN_POINT ( 'NONE',  ( -612.8349916565662170, 650.0000000000000000, -132.4699125911352837 ) ) ;
#271 = DIRECTION ( 'NONE',  ( -0.8374693779167516894, 0.000000000000000000, -0.5464842550812686328 ) ) ;
#272 = DIRECTION ( 'NONE',  ( -0.8374693779167516894, 0.000000000000000000, -0.5464842550812686328 ) ) ;
#273 = AXIS2_PLACEMENT_3D ( 'NONE', #304, #185, #215 ) ;
#274 = DIRECTION ( 'NONE',  ( 0.8374693779167516894, -0.000000000000000000, 0.5464842550812685218 ) ) ;
#275 = CIRCLE ( 'NONE', #250, 30.15000000000007319 ) ;
#276 = DATE_AND_TIME ( #176, #154 ) ;
#277 = CARTESIAN_POINT ( 'NONE',  ( -629.3114919472664042, 650.0000000000000000, -107.2202108469451787 ) ) ;
#278 = CARTESIAN_POINT ( 'NONE',  ( -677.9831717808018539, 650.0000000000001137, -114.8771756448545887 ) ) ;
#279 = CARTESIAN_POINT ( 'NONE',  ( -629.3114919472664042, 650.0000000000000000, -107.2202108469451787 ) ) ;
#280 = CARTESIAN_POINT ( 'NONE',  ( -629.3114919472664042, 650.0000000000000000, -107.2202108469451787 ) ) ;
#281 = EDGE_CURVE ( 'NONE', #350, #389, #99, .T. ) ;
#282 = DIRECTION ( 'NONE',  ( 0.5280507926595905399, -0.000000000000000000, 0.8492127886293152628 ) ) ;
#283 = VECTOR ( 'NONE', #282, 1000.000000000000000 ) ;
#284 = CYLINDRICAL_SURFACE ( 'NONE', #172, 30.15000000000003055 ) ;
#285 = ORIENTED_EDGE ( 'NONE', *, *, #380, .F. ) ;
#286 = APPROVAL_DATE_TIME ( #158, #49 ) ;
#287 = EDGE_CURVE ( 'NONE', #72, #38, #234, .T. ) ;
#288 = CLOSED_SHELL ( 'NONE', ( #292, #365, #360, #244, #373, #89 ) ) ;
#289 = CC_DESIGN_SECURITY_CLASSIFICATION ( #100, ( #361 ) ) ;
#290 = COORDINATED_UNIVERSAL_TIME_OFFSET ( 10, 0, .AHEAD. ) ;
#291 = ORIENTED_EDGE ( 'NONE', *, *, #315, .T. ) ;
#292 = ADVANCED_FACE ( 'NONE', ( #116 ), #284, .T. ) ;
#293 = LINE ( 'NONE', #119, #375 ) ;
#294 = VERTEX_POINT ( 'NONE', #379 ) ;
#295 = AXIS2_PLACEMENT_3D ( 'NONE', #91, #222, #314 ) ;
#296 = ORIENTED_EDGE ( 'NONE', *, *, #356, .T. ) ;
#297 = APPROVAL_ROLE ( '' ) ;
#298 = ORIENTED_EDGE ( 'NONE', *, *, #333, .F. ) ;
#299 = VECTOR ( 'NONE', #274, 1000.000000000000114 ) ;
#300 = LOCAL_TIME ( 12, 1, 7.000000000000000000, #7 ) ;
#301 = ORIENTED_EDGE ( 'NONE', *, *, #13, .F. ) ;
#302 = DIRECTION ( 'NONE',  ( -0.5280507926595905399, 0.000000000000000000, -0.8492127886293152628 ) ) ;
#303 = EDGE_CURVE ( 'NONE', #294, #392, #245, .T. ) ;
#304 = CARTESIAN_POINT ( 'NONE',  ( -689.3429616897992673, 650.0000000000001137, -190.2428022475933744 ) ) ;
#305 = CARTESIAN_POINT ( 'NONE',  ( -643.6567036431497399, 650.0000000000000000, -85.23663967663044616 ) ) ;
#306 = VECTOR ( 'NONE', #203, 1000.000000000000000 ) ;
#307 = DIRECTION ( 'NONE',  ( 0.5280507926595905399, -0.000000000000000000, 0.8492127886293152628 ) ) ;
#308 = AXIS2_PLACEMENT_3D ( 'NONE', #369, #217, #242 ) ;
#309 = DATE_AND_TIME ( #359, #139 ) ;
#310 = CARTESIAN_POINT ( 'NONE',  ( -629.3114919472664042, 650.0000000000000000, -107.2202108469451787 ) ) ;
#311 = CARTESIAN_POINT ( 'NONE',  ( -689.3429616897992673, 650.0000000000001137, -190.2428022475933744 ) ) ;
#312 = ORIENTED_EDGE ( 'NONE', *, *, #232, .T. ) ;
#313 = VECTOR ( 'NONE', #246, 1000.000000000000114 ) ;
#314 = DIRECTION ( 'NONE',  ( -0.8492127886293152628, 0.000000000000000000, 0.5280507926595906509 ) ) ;
#315 = EDGE_CURVE ( 'NONE', #265, #349, #342, .T. ) ;
#316 = ORIENTED_EDGE ( 'NONE', *, *, #341, .T. ) ;
#317 = CIRCLE ( 'NONE', #193, 26.24999999999996092 ) ;
#318 = ORGANIZATION ( 'UNSPECIFIED', 'UNSPECIFIED', '' ) ;
#319 = APPROVAL_DATE_TIME ( #231, #326 ) ;
#320 = ORIENTED_EDGE ( 'NONE', *, *, #5, .T. ) ;
#321 = DESIGN_CONTEXT ( 'detailed design', #42, 'design' ) ;
#322 = MECHANICAL_CONTEXT ( 'NONE', #17, 'mechanical' ) ;
#323 = AXIS2_PLACEMENT_3D ( 'NONE', #140, #271, #53 ) ;
#324 = CARTESIAN_POINT ( 'NONE',  ( -652.3794062036279229, 650.0000000000001137, -130.7979070435412723 ) ) ;
#325 = DIRECTION ( 'NONE',  ( 0.5464842550812680777, 0.000000000000000000, -0.8374693779167520225 ) ) ;
#326 = APPROVAL ( #39, 'UNSPECIFIED' ) ;
#327 = ORIENTED_EDGE ( 'NONE', *, *, #380, .T. ) ;
#328 = AXIS2_PLACEMENT_3D ( 'NONE', #143, #115, #339 ) ;
#329 = DIRECTION ( 'NONE',  ( -0.8492127886293152628, 0.000000000000000000, 0.5280507926595906509 ) ) ;
#330 = VECTOR ( 'NONE', #186, 1000.000000000000000 ) ;
#331 = APPROVAL_PERSON_ORGANIZATION ( #71, #326, #73 ) ;
#332 = FACE_BOUND ( 'NONE', #32, .T. ) ;
#333 = EDGE_CURVE ( 'NONE', #294, #70, #317, .T. ) ;
#334 = DIRECTION ( 'NONE',  ( -0.5464842550812686328, 0.000000000000000000, 0.8374693779167515784 ) ) ;
#335 = COORDINATED_UNIVERSAL_TIME_OFFSET ( 10, 0, .AHEAD. ) ;
#336 = DIRECTION ( 'NONE',  ( -0.8492127886293152628, 0.000000000000000000, 0.5280507926595905399 ) ) ;
#337 = SECURITY_CLASSIFICATION_LEVEL ( 'unclassified' ) ;
#338 = CYLINDRICAL_SURFACE ( 'NONE', #308, 26.25000000000000711 ) ;
#339 = DIRECTION ( 'NONE',  ( -0.8492127886293152628, 0.000000000000000000, 0.5280507926595905399 ) ) ;
#340 = VECTOR ( 'NONE', #347, 1000.000000000000000 ) ;
#341 = EDGE_CURVE ( 'NONE', #70, #294, #133, .T. ) ;
#342 = LINE ( 'NONE', #220, #330 ) ;
#343 = EDGE_CURVE ( 'NONE', #70, #149, #125, .T. ) ;
#344 = FACE_BOUND ( 'NONE', #45, .T. ) ;
#345 = EDGE_LOOP ( 'NONE', ( #120, #312, #358, #101 ) ) ;
#346 = DIRECTION ( 'NONE',  ( -0.5464842550812680777, 0.000000000000000000, 0.8374693779167520225 ) ) ;
#347 = DIRECTION ( 'NONE',  ( 0.5280507926595905399, -0.000000000000000000, 0.8492127886293152628 ) ) ;
#348 = ORIENTED_EDGE ( 'NONE', *, *, #303, .T. ) ;
#349 = VERTEX_POINT ( 'NONE', #118 ) ;
#350 = VERTEX_POINT ( 'NONE', #371 ) ;
#351 = DATE_TIME_ROLE ( 'creation_date' ) ;
#352 = CC_DESIGN_PERSON_AND_ORGANIZATION_ASSIGNMENT ( #213, #167, ( #100 ) ) ;
#353 = ORIENTED_EDGE ( 'NONE', *, *, #356, .F. ) ;
#354 = CIRCLE ( 'NONE', #80, 30.15000000000006608 ) ;
#355 = PERSON_AND_ORGANIZATION_ROLE ( 'design_owner' ) ;
#356 = EDGE_CURVE ( 'NONE', #95, #104, #161, .T. ) ;
#357 = PERSON_AND_ORGANIZATION ( #82, #318 ) ;
#358 = ORIENTED_EDGE ( 'NONE', *, *, #169, .T. ) ;
#359 = CALENDAR_DATE ( 2025, 20, 11 ) ;
#360 = ADVANCED_FACE ( 'NONE', ( #86 ), #338, .F. ) ;
#361 = PRODUCT_DEFINITION_FORMATION_WITH_SPECIFIED_SOURCE ( 'ANY', '', #166, .NOT_KNOWN. ) ;
#362 = CARTESIAN_POINT ( 'NONE',  ( -545.2916668879564668, 650.0000000000000000, -16.39239849300289009 ) ) ;
#363 = ORIENTED_EDGE ( 'NONE', *, *, #137, .T. ) ;
#364 = VERTEX_POINT ( 'NONE', #150 ) ;
#365 = ADVANCED_FACE ( 'NONE', ( #62 ), #58, .F. ) ;
#366 = DIRECTION ( 'NONE',  ( -0.5280507926595905399, 0.000000000000000000, -0.8492127886293152628 ) ) ;
#367 = CARTESIAN_POINT ( 'NONE',  ( -652.3794062036279229, 650.0000000000001137, -130.7979070435412723 ) ) ;
#368 = FACE_OUTER_BOUND ( 'NONE', #196, .T. ) ;
#369 = CARTESIAN_POINT ( 'NONE',  ( -629.3114919472664042, 650.0000000000000000, -107.2202108469451787 ) ) ;
#370 = CARTESIAN_POINT ( 'NONE',  ( -689.3429616897992673, 650.0000000000001137, -190.2428022475933744 ) ) ;
#371 = CARTESIAN_POINT ( 'NONE',  ( -614.9662802513830684, 650.0000000000000000, -129.2037820172598970 ) ) ;
#372 = CARTESIAN_POINT ( 'NONE',  ( -528.8151665972562796, 650.0000000000000000, -41.64210023719297737 ) ) ;
#373 = ADVANCED_FACE ( 'NONE', ( #63, #84 ), #374, .T. ) ;
#374 = PLANE ( 'NONE',  #180 ) ;
#375 = VECTOR ( 'NONE', #248, 1000.000000000000114 ) ;
#376 = CYLINDRICAL_SURFACE ( 'NONE', #249, 30.15000000000007319 ) ;
#377 = AXIS2_PLACEMENT_3D ( 'NONE', #127, #102, #381 ) ;
#378 = DIRECTION ( 'NONE',  ( -0.8374693779167516894, 0.000000000000000000, -0.5464842550812686328 ) ) ;
#379 = CARTESIAN_POINT ( 'NONE',  ( -711.6347973913187843, 650.0000000000001137, -176.3814689402791487 ) ) ;
#380 = EDGE_CURVE ( 'NONE', #8, #259, #37, .T. ) ;
#381 = DIRECTION ( 'NONE',  ( -0.5464842550812680777, 0.000000000000000000, 0.8374693779167520225 ) ) ;
#382 = MANIFOLD_SOLID_BREP ( 'Stainless chs 60.3 X 3.9 CHS(1)[1]', #129 ) ;
#383 = PERSON_AND_ORGANIZATION ( #82, #318 ) ;
#384 =( NAMED_UNIT ( * ) SI_UNIT ( $, .STERADIAN. ) SOLID_ANGLE_UNIT ( ) );
#385 = COORDINATED_UNIVERSAL_TIME_OFFSET ( 10, 0, .AHEAD. ) ;
#386 = EDGE_CURVE ( 'NONE', #95, #259, #88, .T. ) ;
#387 = ORIENTED_EDGE ( 'NONE', *, *, #260, .F. ) ;
#388 = PERSON_AND_ORGANIZATION_ROLE ( 'creator' ) ;
#389 = VERTEX_POINT ( 'NONE', #305 ) ;
#390 = EDGE_LOOP ( 'NONE', ( #316, #348, #171, #157 ) ) ;
#391 = CARTESIAN_POINT ( 'NONE',  ( -663.7391961126253364, 650.0000000000001137, -206.1635336462800581 ) ) ;
#392 = VERTEX_POINT ( 'NONE', #402 ) ;
#393 = AXIS2_PLACEMENT_3D ( 'NONE', #111, #218, #334 ) ;
#394 = EDGE_CURVE ( 'NONE', #364, #265, #275, .T. ) ;
#395 = DIRECTION ( 'NONE',  ( 0.8492127886293152628, 0.000000000000000000, -0.5280507926595906509 ) ) ;
#396 = LINE ( 'NONE', #77, #306 ) ;
#397 = CARTESIAN_POINT ( 'NONE',  ( -512.3386663065559787, 650.0000000000000000, -66.89180198138306821 ) ) ;
#398 = UNCERTAINTY_MEASURE_WITH_UNIT (LENGTH_MEASURE( 1.000000000000000082E-05 ), #92, 'distance_accuracy_value', 'NONE');
#399 = DIRECTION ( 'NONE',  ( -0.5464842550812680777, 0.000000000000000000, 0.8374693779167520225 ) ) ;
#400 = CARTESIAN_POINT ( 'NONE',  ( -614.9662802513830684, 650.0000000000000000, -129.2037820172598970 ) ) ;
#401 = SHAPE_DEFINITION_REPRESENTATION ( #173, #135 ) ;
#402 = CARTESIAN_POINT ( 'NONE',  ( -674.6712419051473262, 650.0000000000001137, -116.9365737362270465 ) ) ;
#403 = DIRECTION ( 'NONE',  ( 0.8492127886293153738, 0.000000000000000000, -0.5280507926595904289 ) ) ;
#404 = CC_DESIGN_DATE_AND_TIME_ASSIGNMENT ( #228, #351, ( #98 ) ) ;
#405 = DIRECTION ( 'NONE',  ( 0.5464842550812680777, 0.000000000000000000, -0.8374693779167520225 ) ) ;
#406 = FACE_OUTER_BOUND ( 'NONE', #345, .T. ) ;
#407 = DIRECTION ( 'NONE',  ( -0.5464842550812694100, 0.000000000000000000, 0.8374693779167511343 ) ) ;
#408 = CIRCLE ( 'NONE', #64, 26.24999999999996092 ) ;
#409 =( GEOMETRIC_REPRESENTATION_CONTEXT ( 3 ) GLOBAL_UNCERTAINTY_ASSIGNED_CONTEXT ( ( #398 ) ) GLOBAL_UNIT_ASSIGNED_CONTEXT ( ( #92, #66, #384 ) ) REPRESENTATION_CONTEXT ( 'NONE', 'WORKASPACE' ) );
#410 = CARTESIAN_POINT ( 'NONE',  ( -667.0511259882797503, 650.0000000000001137, -204.1041355549076002 ) ) ;
#411 = EDGE_CURVE ( 'NONE', #259, #8, #65, .T. ) ;
ENDSEC;
END-ISO-10303-21;
