ISO-10303-21;
HEADER;
FILE_DESCRIPTION (( 'STEP AP203' ),
    '1' );
FILE_NAME ('3435-50-212-01_REV_.step',
    '2025-11-20T00:59:05',
    ( '' ),
    ( '' ),
    'SwSTEP 2.0',
    'SolidWorks 2025',
    '' );
FILE_SCHEMA (( 'CONFIG_CONTROL_DESIGN' ));
ENDSEC;

DATA;
#1 = DIRECTION ( 'NONE',  ( -1.000000000000000000, -3.061616997868382648E-16, 0.000000000000000000 ) ) ;
#2 = DIRECTION ( 'NONE',  ( 3.061616997868382648E-16, -1.000000000000000000, 0.000000000000000000 ) ) ;
#3 = AXIS2_PLACEMENT_3D ( 'NONE', #53, #211, #37 ) ;
#4 = APPROVAL_PERSON_ORGANIZATION ( #141, #32, #9 ) ;
#5 = APPROVAL ( #243, 'UNSPECIFIED' ) ;
#6 = ORIENTED_EDGE ( 'NONE', *, *, #173, .F. ) ;
#7 = CARTESIAN_POINT ( 'NONE',  ( -112.5000000000000000, -2.908536147974963555E-14, 0.000000000000000000 ) ) ;
#8 = ORGANIZATION ( 'UNSPECIFIED', 'UNSPECIFIED', '' ) ;
#9 = APPROVAL_ROLE ( '' ) ;
#10 = DIRECTION ( 'NONE',  ( 1.000000000000000000, 0.000000000000000000, 0.000000000000000000 ) ) ;
#11 = CIRCLE ( 'NONE', #155, 26.25000000000000000 ) ;
#12 = LINE ( 'NONE', #85, #22 ) ;
#13 = DATE_AND_TIME ( #165, #217 ) ;
#14 = SECURITY_CLASSIFICATION ( '', '', #161 ) ;
#15 = EDGE_CURVE ( 'NONE', #160, #189, #178, .T. ) ;
#16 = VERTEX_POINT ( 'NONE', #164 ) ;
#17 = ORIENTED_EDGE ( 'NONE', *, *, #15, .F. ) ;
#18 = CYLINDRICAL_SURFACE ( 'NONE', #109, 26.25000000000000000 ) ;
#19 = AXIS2_PLACEMENT_3D ( 'NONE', #225, #246, #67 ) ;
#20 = VERTEX_POINT ( 'NONE', #110 ) ;
#21 = DIRECTION ( 'NONE',  ( -1.000000000000000000, -3.061616997868382648E-16, 0.000000000000000000 ) ) ;
#22 = VECTOR ( 'NONE', #124, 1000.000000000000000 ) ;
#23 = DIRECTION ( 'NONE',  ( -1.000000000000000000, -3.061616997868382648E-16, 0.000000000000000000 ) ) ;
#24 = CC_DESIGN_APPROVAL ( #5, ( #14 ) ) ;
#25 = PLANE ( 'NONE',  #158 ) ;
#26 = DIRECTION ( 'NONE',  ( 5.286776307738840622E-16, -1.000000000000000000, 0.000000000000000000 ) ) ;
#27 = CC_DESIGN_PERSON_AND_ORGANIZATION_ASSIGNMENT ( #48, #82, ( #50 ) ) ;
#28 = CIRCLE ( 'NONE', #196, 30.14999999999999858 ) ;
#29 = APPROVAL_PERSON_ORGANIZATION ( #61, #5, #122 ) ;
#30 = DATE_AND_TIME ( #103, #232 ) ;
#31 = COORDINATED_UNIVERSAL_TIME_OFFSET ( 10, 0, .AHEAD. ) ;
#32 = APPROVAL ( #201, 'UNSPECIFIED' ) ;
#33 = CALENDAR_DATE ( 2025, 20, 11 ) ;
#34 = ORIENTED_EDGE ( 'NONE', *, *, #212, .F. ) ;
#35 = ORIENTED_EDGE ( 'NONE', *, *, #192, .F. ) ;
#36 = ORIENTED_EDGE ( 'NONE', *, *, #163, .F. ) ;
#37 = DIRECTION ( 'NONE',  ( 4.602914695792523219E-16, -1.000000000000000000, 0.000000000000000000 ) ) ;
#38 =( NAMED_UNIT ( * ) PLANE_ANGLE_UNIT ( ) SI_UNIT ( $, .RADIAN. ) );
#39 = DIRECTION ( 'NONE',  ( -5.286776307738840622E-16, 1.000000000000000000, 0.000000000000000000 ) ) ;
#40 = LOCAL_TIME ( 11, 59, 5.000000000000000000, #45 ) ;
#41 = DIRECTION ( 'NONE',  ( 5.286776307738840622E-16, -1.000000000000000000, 0.000000000000000000 ) ) ;
#42 = FACE_BOUND ( 'NONE', #222, .T. ) ;
#43 = APPROVAL ( #46, 'UNSPECIFIED' ) ;
#44 = UNCERTAINTY_MEASURE_WITH_UNIT (LENGTH_MEASURE( 1.000000000000000082E-05 ), #133, 'distance_accuracy_value', 'NONE');
#45 = COORDINATED_UNIVERSAL_TIME_OFFSET ( 10, 0, .AHEAD. ) ;
#46 = APPROVAL_STATUS ( 'not_yet_approved' ) ;
#47 = ORIENTED_EDGE ( 'NONE', *, *, #237, .T. ) ;
#48 = PERSON_AND_ORGANIZATION ( #132, #8 ) ;
#49 = VERTEX_POINT ( 'NONE', #69 ) ;
#50 = PRODUCT_DEFINITION_FORMATION_WITH_SPECIFIED_SOURCE ( 'ANY', '', #116, .NOT_KNOWN. ) ;
#51 = ORIENTED_EDGE ( 'NONE', *, *, #112, .F. ) ;
#52 = EDGE_LOOP ( 'NONE', ( #36, #71, #146, #6 ) ) ;
#53 = CARTESIAN_POINT ( 'NONE',  ( -112.5000000000000000, -2.908536147974963555E-14, 0.000000000000000000 ) ) ;
#54 = APPLICATION_CONTEXT ( 'configuration controlled 3d designs of mechanical parts and assemblies' ) ;
#55 = EDGE_CURVE ( 'NONE', #108, #16, #144, .T. ) ;
#56 = CARTESIAN_POINT ( 'NONE',  ( 112.5000000000000000, 3.980102097228897364E-14, 0.000000000000000000 ) ) ;
#57 = CIRCLE ( 'NONE', #70, 26.25000000000000000 ) ;
#58 = DIRECTION ( 'NONE',  ( 1.000000000000000000, 3.061616997868382648E-16, -0.000000000000000000 ) ) ;
#59 = CC_DESIGN_APPROVAL ( #32, ( #63 ) ) ;
#60 = FACE_OUTER_BOUND ( 'NONE', #127, .T. ) ;
#61 = PERSON_AND_ORGANIZATION ( #132, #8 ) ;
#62 = VECTOR ( 'NONE', #224, 1000.000000000000000 ) ;
#63 = PRODUCT_DEFINITION ( 'UNKNOWN', '', #50, #136 ) ;
#64 = DATE_TIME_ROLE ( 'creation_date' ) ;
#65 = EDGE_LOOP ( 'NONE', ( #90, #184, #126, #72 ) ) ;
#66 = APPROVAL_DATE_TIME ( #30, #5 ) ;
#67 = DIRECTION ( 'NONE',  ( 4.602914695792523219E-16, -1.000000000000000000, 0.000000000000000000 ) ) ;
#68 = AXIS2_PLACEMENT_3D ( 'NONE', #73, #23, #92 ) ;
#69 = CARTESIAN_POINT ( 'NONE',  ( -112.5000000000000142, 30.14999999999997371, 0.000000000000000000 ) ) ;
#70 = AXIS2_PLACEMENT_3D ( 'NONE', #172, #150, #76 ) ;
#71 = ORIENTED_EDGE ( 'NONE', *, *, #192, .T. ) ;
#72 = ORIENTED_EDGE ( 'NONE', *, *, #15, .T. ) ;
#73 = CARTESIAN_POINT ( 'NONE',  ( -112.5000000000000000, -2.908536147974963555E-14, 0.000000000000000000 ) ) ;
#74 = FACE_BOUND ( 'NONE', #233, .T. ) ;
#75 = DIRECTION ( 'NONE',  ( -1.000000000000000000, -3.061616997868382648E-16, 0.000000000000000000 ) ) ;
#76 = DIRECTION ( 'NONE',  ( 5.286776307738840622E-16, -1.000000000000000000, 0.000000000000000000 ) ) ;
#77 = FACE_OUTER_BOUND ( 'NONE', #87, .T. ) ;
#78 = AXIS2_PLACEMENT_3D ( 'NONE', #7, #97, #195 ) ;
#79 = PERSON_AND_ORGANIZATION_ROLE ( 'creator' ) ;
#80 = PRODUCT_DEFINITION_SHAPE ( 'NONE', 'NONE',  #63 ) ;
#81 = ADVANCED_FACE ( 'NONE', ( #208 ), #18, .F. ) ;
#82 = PERSON_AND_ORGANIZATION_ROLE ( 'creator' ) ;
#83 = PERSON_AND_ORGANIZATION_ROLE ( 'design_owner' ) ;
#84 = CIRCLE ( 'NONE', #78, 26.25000000000000000 ) ;
#85 = CARTESIAN_POINT ( 'NONE',  ( -112.5000000000000142, 30.14999999999997371, 0.000000000000000000 ) ) ;
#86 = DATE_TIME_ROLE ( 'classification_date' ) ;
#87 = EDGE_LOOP ( 'NONE', ( #17, #120 ) ) ;
#88 = ADVANCED_FACE ( 'NONE', ( #91 ), #220, .T. ) ;
#89 = ORIENTED_EDGE ( 'NONE', *, *, #106, .F. ) ;
#90 = ORIENTED_EDGE ( 'NONE', *, *, #237, .F. ) ;
#91 = FACE_OUTER_BOUND ( 'NONE', #167, .T. ) ;
#92 = DIRECTION ( 'NONE',  ( 3.061616997868382648E-16, -1.000000000000000000, 0.000000000000000000 ) ) ;
#93 = APPLICATION_PROTOCOL_DEFINITION ( 'international standard', 'config_control_design', 1994, #54 ) ;
#94 = DIRECTION ( 'NONE',  ( 1.000000000000000000, 3.061616997868382648E-16, -0.000000000000000000 ) ) ;
#95 = PRODUCT_RELATED_PRODUCT_CATEGORY ( 'detail', '', ( #116 ) ) ;
#96 = FACE_OUTER_BOUND ( 'NONE', #244, .T. ) ;
#97 = DIRECTION ( 'NONE',  ( -1.000000000000000000, -3.061616997868382648E-16, 0.000000000000000000 ) ) ;
#98 = CIRCLE ( 'NONE', #154, 30.14999999999999858 ) ;
#99 = ADVANCED_BREP_SHAPE_REPRESENTATION ( '3435-50-212-01_REV_', ( #151, #200 ), #223 ) ;
#100 = EDGE_CURVE ( 'NONE', #20, #49, #234, .T. ) ;
#101 = CIRCLE ( 'NONE', #198, 26.25000000000000000 ) ;
#102 = CARTESIAN_POINT ( 'NONE',  ( 0.000000000000000000, 0.000000000000000000, 0.000000000000000000 ) ) ;
#103 = CALENDAR_DATE ( 2025, 20, 11 ) ;
#104 = PERSON_AND_ORGANIZATION_ROLE ( 'classification_officer' ) ;
#105 = CARTESIAN_POINT ( 'NONE',  ( -112.5000000000000142, 26.24999999999997513, 0.000000000000000000 ) ) ;
#106 = EDGE_CURVE ( 'NONE', #49, #160, #12, .T. ) ;
#107 = VERTEX_POINT ( 'NONE', #203 ) ;
#108 = VERTEX_POINT ( 'NONE', #105 ) ;
#109 = AXIS2_PLACEMENT_3D ( 'NONE', #128, #142, #209 ) ;
#110 = CARTESIAN_POINT ( 'NONE',  ( -112.4999999999999858, -30.15000000000003055, 3.692310099429273552E-15 ) ) ;
#111 = CC_DESIGN_PERSON_AND_ORGANIZATION_ASSIGNMENT ( #218, #79, ( #63 ) ) ;
#112 = EDGE_CURVE ( 'NONE', #16, #207, #11, .T. ) ;
#113 = PLANE ( 'NONE',  #68 ) ;
#114 = CARTESIAN_POINT ( 'NONE',  ( 112.5000000000000142, -30.14999999999996305, 3.692310099429270397E-15 ) ) ;
#115 = CARTESIAN_POINT ( 'NONE',  ( 112.4999999999999858, 30.15000000000003766, 0.000000000000000000 ) ) ;
#116 = PRODUCT ( '3435-50-212-01_REV_', '3435-50-212-01_REV_', '', ( #125 ) ) ;
#117 = AXIS2_PLACEMENT_3D ( 'NONE', #170, #249, #226 ) ;
#118 = CC_DESIGN_PERSON_AND_ORGANIZATION_ASSIGNMENT ( #140, #83, ( #116 ) ) ;
#119 = VECTOR ( 'NONE', #58, 1000.000000000000000 ) ;
#120 = ORIENTED_EDGE ( 'NONE', *, *, #156, .F. ) ;
#121 = CALENDAR_DATE ( 2025, 20, 11 ) ;
#122 = APPROVAL_ROLE ( '' ) ;
#123 = PERSON_AND_ORGANIZATION ( #132, #8 ) ;
#124 = DIRECTION ( 'NONE',  ( 1.000000000000000000, 3.061616997868382648E-16, -0.000000000000000000 ) ) ;
#125 = MECHANICAL_CONTEXT ( 'NONE', #54, 'mechanical' ) ;
#126 = ORIENTED_EDGE ( 'NONE', *, *, #106, .T. ) ;
#127 = EDGE_LOOP ( 'NONE', ( #190, #242, #51, #247 ) ) ;
#128 = CARTESIAN_POINT ( 'NONE',  ( -112.5000000000000000, -2.908536147974963555E-14, 0.000000000000000000 ) ) ;
#129 = ADVANCED_FACE ( 'NONE', ( #60 ), #139, .F. ) ;
#130 = ORIENTED_EDGE ( 'NONE', *, *, #173, .T. ) ;
#131 = FACE_OUTER_BOUND ( 'NONE', #65, .T. ) ;
#132 = PERSON ( 'UNSPECIFIED', 'UNSPECIFIED', 'UNSPECIFIED', ('UNSPECIFIED'), ('UNSPECIFIED'), ('UNSPECIFIED') ) ;
#133 =( LENGTH_UNIT ( ) NAMED_UNIT ( * ) SI_UNIT ( .MILLI., .METRE. ) );
#134 = LINE ( 'NONE', #177, #240 ) ;
#135 = CLOSED_SHELL ( 'NONE', ( #88, #129, #81, #138, #137, #205 ) ) ;
#136 = DESIGN_CONTEXT ( 'detailed design', #168, 'design' ) ;
#137 = ADVANCED_FACE ( 'NONE', ( #42, #96 ), #113, .T. ) ;
#138 = ADVANCED_FACE ( 'NONE', ( #131 ), #230, .T. ) ;
#139 = CYLINDRICAL_SURFACE ( 'NONE', #210, 26.25000000000000000 ) ;
#140 = PERSON_AND_ORGANIZATION ( #132, #8 ) ;
#141 = PERSON_AND_ORGANIZATION ( #132, #8 ) ;
#142 = DIRECTION ( 'NONE',  ( 1.000000000000000000, 3.061616997868382648E-16, -0.000000000000000000 ) ) ;
#143 = CALENDAR_DATE ( 2025, 20, 11 ) ;
#144 = LINE ( 'NONE', #169, #62 ) ;
#145 = LOCAL_TIME ( 11, 59, 5.000000000000000000, #219 ) ;
#146 = ORIENTED_EDGE ( 'NONE', *, *, #55, .T. ) ;
#147 = ORIENTED_EDGE ( 'NONE', *, *, #100, .F. ) ;
#148 = DIRECTION ( 'NONE',  ( 4.602914695792523219E-16, -1.000000000000000000, 0.000000000000000000 ) ) ;
#149 = CC_DESIGN_SECURITY_CLASSIFICATION ( #14, ( #50 ) ) ;
#150 = DIRECTION ( 'NONE',  ( -1.000000000000000000, -3.061616997868382648E-16, 0.000000000000000000 ) ) ;
#151 = MANIFOLD_SOLID_BREP ( 'Stainless chs 60.3 X 3.9 CHS(1)', #135 ) ;
#152 = DIRECTION ( 'NONE',  ( -1.000000000000000000, -3.061616997868382648E-16, 0.000000000000000000 ) ) ;
#153 = DIRECTION ( 'NONE',  ( 1.000000000000000000, 3.061616997868382648E-16, -0.000000000000000000 ) ) ;
#154 = AXIS2_PLACEMENT_3D ( 'NONE', #56, #1, #148 ) ;
#155 = AXIS2_PLACEMENT_3D ( 'NONE', #186, #152, #26 ) ;
#156 = EDGE_CURVE ( 'NONE', #189, #160, #98, .T. ) ;
#157 = CARTESIAN_POINT ( 'NONE',  ( 112.5000000000000142, -26.24999999999996092, 3.214697847761801978E-15 ) ) ;
#158 = AXIS2_PLACEMENT_3D ( 'NONE', #191, #21, #2 ) ;
#159 = COORDINATED_UNIVERSAL_TIME_OFFSET ( 10, 0, .AHEAD. ) ;
#160 = VERTEX_POINT ( 'NONE', #115 ) ;
#161 = SECURITY_CLASSIFICATION_LEVEL ( 'unclassified' ) ;
#162 = DIRECTION ( 'NONE',  ( 0.000000000000000000, 0.000000000000000000, 1.000000000000000000 ) ) ;
#163 = EDGE_CURVE ( 'NONE', #107, #207, #134, .T. ) ;
#164 = CARTESIAN_POINT ( 'NONE',  ( 112.4999999999999858, 26.25000000000003553, 0.000000000000000000 ) ) ;
#165 = CALENDAR_DATE ( 2025, 20, 11 ) ;
#166 = ORIENTED_EDGE ( 'NONE', *, *, #182, .T. ) ;
#167 = EDGE_LOOP ( 'NONE', ( #147, #47, #188, #89 ) ) ;
#168 = APPLICATION_CONTEXT ( 'configuration controlled 3d designs of mechanical parts and assemblies' ) ;
#169 = CARTESIAN_POINT ( 'NONE',  ( -112.5000000000000142, 26.24999999999997158, 0.000000000000000000 ) ) ;
#170 = CARTESIAN_POINT ( 'NONE',  ( -112.5000000000000000, -2.908536147974963555E-14, 0.000000000000000000 ) ) ;
#171 = CARTESIAN_POINT ( 'NONE',  ( -112.5000000000000000, -2.908536147974963555E-14, 0.000000000000000000 ) ) ;
#172 = CARTESIAN_POINT ( 'NONE',  ( -112.5000000000000000, -2.908536147974963555E-14, 0.000000000000000000 ) ) ;
#173 = EDGE_CURVE ( 'NONE', #207, #16, #101, .T. ) ;
#174 = DIRECTION ( 'NONE',  ( -4.602914695792523219E-16, 1.000000000000000000, 0.000000000000000000 ) ) ;
#175 = DIRECTION ( 'NONE',  ( 4.602914695792523219E-16, -1.000000000000000000, 0.000000000000000000 ) ) ;
#176 = CC_DESIGN_PERSON_AND_ORGANIZATION_ASSIGNMENT ( #202, #104, ( #14 ) ) ;
#177 = CARTESIAN_POINT ( 'NONE',  ( -112.4999999999999858, -26.25000000000002842, 3.214697847761801978E-15 ) ) ;
#178 = CIRCLE ( 'NONE', #19, 30.14999999999999858 ) ;
#179 = ORIENTED_EDGE ( 'NONE', *, *, #100, .T. ) ;
#180 = PERSON_AND_ORGANIZATION ( #132, #8 ) ;
#181 = SHAPE_DEFINITION_REPRESENTATION ( #80, #99 ) ;
#182 = EDGE_CURVE ( 'NONE', #49, #20, #28, .T. ) ;
#183 = APPROVAL_DATE_TIME ( #241, #32 ) ;
#184 = ORIENTED_EDGE ( 'NONE', *, *, #182, .F. ) ;
#185 = DATE_AND_TIME ( #143, #40 ) ;
#186 = CARTESIAN_POINT ( 'NONE',  ( 112.5000000000000000, 3.980102097228897364E-14, 0.000000000000000000 ) ) ;
#187 = COORDINATED_UNIVERSAL_TIME_OFFSET ( 10, 0, .AHEAD. ) ;
#188 = ORIENTED_EDGE ( 'NONE', *, *, #156, .T. ) ;
#189 = VERTEX_POINT ( 'NONE', #114 ) ;
#190 = ORIENTED_EDGE ( 'NONE', *, *, #212, .T. ) ;
#191 = CARTESIAN_POINT ( 'NONE',  ( 112.5000000000000000, 3.980102097228897364E-14, 0.000000000000000000 ) ) ;
#192 = EDGE_CURVE ( 'NONE', #107, #108, #84, .T. ) ;
#193 = CARTESIAN_POINT ( 'NONE',  ( -112.5000000000000000, -2.908536147974963555E-14, 0.000000000000000000 ) ) ;
#194 = CC_DESIGN_APPROVAL ( #43, ( #50 ) ) ;
#195 = DIRECTION ( 'NONE',  ( 5.286776307738840622E-16, -1.000000000000000000, 0.000000000000000000 ) ) ;
#196 = AXIS2_PLACEMENT_3D ( 'NONE', #228, #213, #175 ) ;
#197 = ORIENTED_EDGE ( 'NONE', *, *, #112, .T. ) ;
#198 = AXIS2_PLACEMENT_3D ( 'NONE', #216, #75, #41 ) ;
#199 = DATE_AND_TIME ( #121, #235 ) ;
#200 = AXIS2_PLACEMENT_3D ( 'NONE', #102, #162, #10 ) ;
#201 = APPROVAL_STATUS ( 'not_yet_approved' ) ;
#202 = PERSON_AND_ORGANIZATION ( #132, #8 ) ;
#203 = CARTESIAN_POINT ( 'NONE',  ( -112.4999999999999858, -26.25000000000002487, 3.214697847761805528E-15 ) ) ;
#204 = APPROVAL_ROLE ( '' ) ;
#205 = ADVANCED_FACE ( 'NONE', ( #74, #77 ), #25, .F. ) ;
#206 = APPROVAL_PERSON_ORGANIZATION ( #180, #43, #204 ) ;
#207 = VERTEX_POINT ( 'NONE', #157 ) ;
#208 = FACE_OUTER_BOUND ( 'NONE', #52, .T. ) ;
#209 = DIRECTION ( 'NONE',  ( -5.286776307738840622E-16, 1.000000000000000000, 0.000000000000000000 ) ) ;
#210 = AXIS2_PLACEMENT_3D ( 'NONE', #193, #153, #39 ) ;
#211 = DIRECTION ( 'NONE',  ( -1.000000000000000000, -3.061616997868382648E-16, 0.000000000000000000 ) ) ;
#212 = EDGE_CURVE ( 'NONE', #108, #107, #57, .T. ) ;
#213 = DIRECTION ( 'NONE',  ( -1.000000000000000000, -3.061616997868382648E-16, 0.000000000000000000 ) ) ;
#214 =( NAMED_UNIT ( * ) SI_UNIT ( $, .STERADIAN. ) SOLID_ANGLE_UNIT ( ) );
#215 = AXIS2_PLACEMENT_3D ( 'NONE', #171, #94, #174 ) ;
#216 = CARTESIAN_POINT ( 'NONE',  ( 112.5000000000000000, 3.980102097228897364E-14, 0.000000000000000000 ) ) ;
#217 = LOCAL_TIME ( 11, 59, 5.000000000000000000, #159 ) ;
#218 = PERSON_AND_ORGANIZATION ( #132, #8 ) ;
#219 = COORDINATED_UNIVERSAL_TIME_OFFSET ( 10, 0, .AHEAD. ) ;
#220 = CYLINDRICAL_SURFACE ( 'NONE', #117, 30.14999999999999858 ) ;
#221 = APPROVAL_DATE_TIME ( #199, #43 ) ;
#222 = EDGE_LOOP ( 'NONE', ( #34, #35 ) ) ;
#223 =( GEOMETRIC_REPRESENTATION_CONTEXT ( 3 ) GLOBAL_UNCERTAINTY_ASSIGNED_CONTEXT ( ( #44 ) ) GLOBAL_UNIT_ASSIGNED_CONTEXT ( ( #133, #38, #214 ) ) REPRESENTATION_CONTEXT ( 'NONE', 'WORKASPACE' ) );
#224 = DIRECTION ( 'NONE',  ( 1.000000000000000000, 3.061616997868382648E-16, -0.000000000000000000 ) ) ;
#225 = CARTESIAN_POINT ( 'NONE',  ( 112.5000000000000000, 3.980102097228897364E-14, 0.000000000000000000 ) ) ;
#226 = DIRECTION ( 'NONE',  ( -4.602914695792523219E-16, 1.000000000000000000, 0.000000000000000000 ) ) ;
#227 = CC_DESIGN_DATE_AND_TIME_ASSIGNMENT ( #185, #64, ( #63 ) ) ;
#228 = CARTESIAN_POINT ( 'NONE',  ( -112.5000000000000000, -2.908536147974963555E-14, 0.000000000000000000 ) ) ;
#229 = DIRECTION ( 'NONE',  ( 1.000000000000000000, 3.061616997868382648E-16, -0.000000000000000000 ) ) ;
#230 = CYLINDRICAL_SURFACE ( 'NONE', #215, 30.14999999999999858 ) ;
#231 = CARTESIAN_POINT ( 'NONE',  ( -112.4999999999999858, -30.15000000000002700, 3.692310099429270397E-15 ) ) ;
#232 = LOCAL_TIME ( 11, 59, 5.000000000000000000, #31 ) ;
#233 = EDGE_LOOP ( 'NONE', ( #197, #130 ) ) ;
#234 = CIRCLE ( 'NONE', #3, 30.14999999999999858 ) ;
#235 = LOCAL_TIME ( 11, 59, 5.000000000000000000, #187 ) ;
#236 = LINE ( 'NONE', #231, #119 ) ;
#237 = EDGE_CURVE ( 'NONE', #20, #189, #236, .T. ) ;
#238 = PERSON_AND_ORGANIZATION_ROLE ( 'design_supplier' ) ;
#239 = APPLICATION_PROTOCOL_DEFINITION ( 'international standard', 'config_control_design', 1994, #168 ) ;
#240 = VECTOR ( 'NONE', #229, 1000.000000000000000 ) ;
#241 = DATE_AND_TIME ( #33, #145 ) ;
#242 = ORIENTED_EDGE ( 'NONE', *, *, #163, .T. ) ;
#243 = APPROVAL_STATUS ( 'not_yet_approved' ) ;
#244 = EDGE_LOOP ( 'NONE', ( #166, #179 ) ) ;
#245 = CC_DESIGN_PERSON_AND_ORGANIZATION_ASSIGNMENT ( #123, #238, ( #50 ) ) ;
#246 = DIRECTION ( 'NONE',  ( -1.000000000000000000, -3.061616997868382648E-16, 0.000000000000000000 ) ) ;
#247 = ORIENTED_EDGE ( 'NONE', *, *, #55, .F. ) ;
#248 = CC_DESIGN_DATE_AND_TIME_ASSIGNMENT ( #13, #86, ( #14 ) ) ;
#249 = DIRECTION ( 'NONE',  ( 1.000000000000000000, 3.061616997868382648E-16, -0.000000000000000000 ) ) ;
ENDSEC;
END-ISO-10303-21;
