ISO-10303-21;
HEADER;
FILE_DESCRIPTION (( 'STEP AP203' ),
    '1' );
FILE_NAME ('3435-50-213-01_REV_.step',
    '2025-11-20T00:58:54',
    ( '' ),
    ( '' ),
    'SwSTEP 2.0',
    'SolidWorks 2025',
    '' );
FILE_SCHEMA (( 'CONFIG_CONTROL_DESIGN' ));
ENDSEC;

DATA;
#1 = DIRECTION ( 'NONE',  ( 4.602914695792523219E-16, -1.000000000000000000, 0.000000000000000000 ) ) ;
#2 = CC_DESIGN_DATE_AND_TIME_ASSIGNMENT ( #225, #52, ( #30 ) ) ;
#3 = AXIS2_PLACEMENT_3D ( 'NONE', #75, #152, #190 ) ;
#4 = LOCAL_TIME ( 11, 58, 54.00000000000000000, #158 ) ;
#5 = DIRECTION ( 'NONE',  ( 4.602914695792523219E-16, -1.000000000000000000, 0.000000000000000000 ) ) ;
#6 = DIRECTION ( 'NONE',  ( -5.286776307738840622E-16, 1.000000000000000000, 0.000000000000000000 ) ) ;
#7 = APPROVAL_STATUS ( 'not_yet_approved' ) ;
#8 = ADVANCED_FACE ( 'NONE', ( #186 ), #16, .F. ) ;
#9 = PERSON_AND_ORGANIZATION ( #150, #78 ) ;
#10 = EDGE_CURVE ( 'NONE', #244, #148, #218, .T. ) ;
#11 = CIRCLE ( 'NONE', #140, 26.25000000000000000 ) ;
#12 = DIRECTION ( 'NONE',  ( -1.000000000000000000, -3.061616997868382648E-16, 0.000000000000000000 ) ) ;
#13 = EDGE_CURVE ( 'NONE', #244, #183, #92, .T. ) ;
#14 = ORIENTED_EDGE ( 'NONE', *, *, #96, .F. ) ;
#15 = ORIENTED_EDGE ( 'NONE', *, *, #165, .F. ) ;
#16 = CYLINDRICAL_SURFACE ( 'NONE', #176, 26.25000000000000000 ) ;
#17 = CARTESIAN_POINT ( 'NONE',  ( -112.5000000000000142, 26.24999999999997868, 0.000000000000000000 ) ) ;
#18 = CARTESIAN_POINT ( 'NONE',  ( 112.5000000000000142, -26.24999999999995026, 3.214697847761801978E-15 ) ) ;
#19 = CARTESIAN_POINT ( 'NONE',  ( -112.5000000000000000, -1.990051048614448997E-14, 0.000000000000000000 ) ) ;
#20 = CARTESIAN_POINT ( 'NONE',  ( 112.5000000000000142, -30.14999999999995239, 3.692310099429270397E-15 ) ) ;
#21 = DIRECTION ( 'NONE',  ( 1.000000000000000000, 3.061616997868382648E-16, -0.000000000000000000 ) ) ;
#22 = COORDINATED_UNIVERSAL_TIME_OFFSET ( 10, 0, .AHEAD. ) ;
#23 = DIRECTION ( 'NONE',  ( 1.000000000000000000, 0.000000000000000000, 0.000000000000000000 ) ) ;
#24 = AXIS2_PLACEMENT_3D ( 'NONE', #94, #41, #1 ) ;
#25 = CC_DESIGN_SECURITY_CLASSIFICATION ( #30, ( #47 ) ) ;
#26 =( NAMED_UNIT ( * ) SI_UNIT ( $, .STERADIAN. ) SOLID_ANGLE_UNIT ( ) );
#27 = PERSON_AND_ORGANIZATION ( #150, #78 ) ;
#28 = COORDINATED_UNIVERSAL_TIME_OFFSET ( 10, 0, .AHEAD. ) ;
#29 = AXIS2_PLACEMENT_3D ( 'NONE', #194, #102, #142 ) ;
#30 = SECURITY_CLASSIFICATION ( '', '', #239 ) ;
#31 = ORIENTED_EDGE ( 'NONE', *, *, #243, .F. ) ;
#32 = ORIENTED_EDGE ( 'NONE', *, *, #243, .T. ) ;
#33 = VERTEX_POINT ( 'NONE', #214 ) ;
#34 = ORIENTED_EDGE ( 'NONE', *, *, #199, .F. ) ;
#35 = PRODUCT_DEFINITION_SHAPE ( 'NONE', 'NONE',  #159 ) ;
#36 = FACE_OUTER_BOUND ( 'NONE', #88, .T. ) ;
#37 = CARTESIAN_POINT ( 'NONE',  ( -112.5000000000000000, -1.990051048614448997E-14, 0.000000000000000000 ) ) ;
#38 = CC_DESIGN_APPROVAL ( #114, ( #159 ) ) ;
#39 = FACE_BOUND ( 'NONE', #128, .T. ) ;
#40 = CARTESIAN_POINT ( 'NONE',  ( -112.5000000000000142, 30.14999999999997726, 0.000000000000000000 ) ) ;
#41 = DIRECTION ( 'NONE',  ( -1.000000000000000000, -3.061616997868382648E-16, 0.000000000000000000 ) ) ;
#42 = PERSON_AND_ORGANIZATION_ROLE ( 'creator' ) ;
#43 = PERSON_AND_ORGANIZATION ( #150, #78 ) ;
#44 =( GEOMETRIC_REPRESENTATION_CONTEXT ( 3 ) GLOBAL_UNCERTAINTY_ASSIGNED_CONTEXT ( ( #147 ) ) GLOBAL_UNIT_ASSIGNED_CONTEXT ( ( #119, #198, #26 ) ) REPRESENTATION_CONTEXT ( 'NONE', 'WORKASPACE' ) );
#45 = ORIENTED_EDGE ( 'NONE', *, *, #13, .T. ) ;
#46 = ORIENTED_EDGE ( 'NONE', *, *, #10, .T. ) ;
#47 = PRODUCT_DEFINITION_FORMATION_WITH_SPECIFIED_SOURCE ( 'ANY', '', #208, .NOT_KNOWN. ) ;
#48 = ADVANCED_FACE ( 'NONE', ( #133, #36 ), #169, .F. ) ;
#49 = ORIENTED_EDGE ( 'NONE', *, *, #157, .F. ) ;
#50 = EDGE_LOOP ( 'NONE', ( #71, #86, #167, #68 ) ) ;
#51 = EDGE_CURVE ( 'NONE', #123, #85, #248, .T. ) ;
#52 = DATE_TIME_ROLE ( 'classification_date' ) ;
#53 = EDGE_LOOP ( 'NONE', ( #49, #182, #164, #166 ) ) ;
#54 = PRODUCT_RELATED_PRODUCT_CATEGORY ( 'detail', '', ( #208 ) ) ;
#55 = CARTESIAN_POINT ( 'NONE',  ( -112.4999999999999858, -26.25000000000002132, 3.214697847761801978E-15 ) ) ;
#56 = LINE ( 'NONE', #17, #105 ) ;
#57 = DIRECTION ( 'NONE',  ( 3.061616997868382648E-16, -1.000000000000000000, 0.000000000000000000 ) ) ;
#58 = DIRECTION ( 'NONE',  ( 1.000000000000000000, 3.061616997868382648E-16, -0.000000000000000000 ) ) ;
#59 = CYLINDRICAL_SURFACE ( 'NONE', #3, 30.14999999999999858 ) ;
#60 = APPLICATION_PROTOCOL_DEFINITION ( 'international standard', 'config_control_design', 1994, #226 ) ;
#61 = PERSON_AND_ORGANIZATION_ROLE ( 'creator' ) ;
#62 = PERSON_AND_ORGANIZATION ( #150, #78 ) ;
#63 = CALENDAR_DATE ( 2025, 20, 11 ) ;
#64 = AXIS2_PLACEMENT_3D ( 'NONE', #80, #99, #224 ) ;
#65 = LOCAL_TIME ( 11, 58, 54.00000000000000000, #120 ) ;
#66 = ORIENTED_EDGE ( 'NONE', *, *, #157, .T. ) ;
#67 = ADVANCED_BREP_SHAPE_REPRESENTATION ( '3435-50-213-01_REV_', ( #154, #228 ), #44 ) ;
#68 = ORIENTED_EDGE ( 'NONE', *, *, #249, .T. ) ;
#69 = AXIS2_PLACEMENT_3D ( 'NONE', #215, #168, #57 ) ;
#70 = APPROVAL_STATUS ( 'not_yet_approved' ) ;
#71 = ORIENTED_EDGE ( 'NONE', *, *, #143, .F. ) ;
#72 = DIRECTION ( 'NONE',  ( 1.000000000000000000, 3.061616997868382648E-16, -0.000000000000000000 ) ) ;
#73 = AXIS2_PLACEMENT_3D ( 'NONE', #180, #12, #162 ) ;
#74 = DIRECTION ( 'NONE',  ( -1.000000000000000000, -3.061616997868382648E-16, 0.000000000000000000 ) ) ;
#75 = CARTESIAN_POINT ( 'NONE',  ( -112.5000000000000000, -1.990051048614448997E-14, 0.000000000000000000 ) ) ;
#76 = EDGE_CURVE ( 'NONE', #148, #227, #56, .T. ) ;
#77 = CARTESIAN_POINT ( 'NONE',  ( 112.4999999999999858, 30.15000000000004832, 0.000000000000000000 ) ) ;
#78 = ORGANIZATION ( 'UNSPECIFIED', 'UNSPECIFIED', '' ) ;
#79 = CARTESIAN_POINT ( 'NONE',  ( -112.5000000000000142, 30.14999999999997726, 0.000000000000000000 ) ) ;
#80 = CARTESIAN_POINT ( 'NONE',  ( 112.5000000000000000, 4.898587196589411606E-14, 0.000000000000000000 ) ) ;
#81 = APPROVAL_ROLE ( '' ) ;
#82 = CC_DESIGN_APPROVAL ( #222, ( #30 ) ) ;
#83 = APPROVAL_STATUS ( 'not_yet_approved' ) ;
#84 = CIRCLE ( 'NONE', #242, 30.14999999999999858 ) ;
#85 = VERTEX_POINT ( 'NONE', #77 ) ;
#86 = ORIENTED_EDGE ( 'NONE', *, *, #210, .F. ) ;
#87 = CIRCLE ( 'NONE', #64, 26.25000000000000000 ) ;
#88 = EDGE_LOOP ( 'NONE', ( #206, #15 ) ) ;
#89 = ORIENTED_EDGE ( 'NONE', *, *, #13, .F. ) ;
#90 = CARTESIAN_POINT ( 'NONE',  ( -112.5000000000000000, -1.990051048614448997E-14, 0.000000000000000000 ) ) ;
#91 = FACE_OUTER_BOUND ( 'NONE', #50, .T. ) ;
#92 = LINE ( 'NONE', #55, #108 ) ;
#93 = DIRECTION ( 'NONE',  ( -1.000000000000000000, -3.061616997868382648E-16, 0.000000000000000000 ) ) ;
#94 = CARTESIAN_POINT ( 'NONE',  ( -112.5000000000000000, -1.990051048614448997E-14, 0.000000000000000000 ) ) ;
#95 = AXIS2_PLACEMENT_3D ( 'NONE', #37, #58, #156 ) ;
#96 = EDGE_CURVE ( 'NONE', #148, #244, #246, .T. ) ;
#97 = CARTESIAN_POINT ( 'NONE',  ( -112.5000000000000000, -1.990051048614448997E-14, 0.000000000000000000 ) ) ;
#98 = DATE_AND_TIME ( #178, #137 ) ;
#99 = DIRECTION ( 'NONE',  ( -1.000000000000000000, -3.061616997868382648E-16, 0.000000000000000000 ) ) ;
#100 = APPROVAL_PERSON_ORGANIZATION ( #9, #181, #81 ) ;
#101 = APPLICATION_CONTEXT ( 'configuration controlled 3d designs of mechanical parts and assemblies' ) ;
#102 = DIRECTION ( 'NONE',  ( -1.000000000000000000, -3.061616997868382648E-16, 0.000000000000000000 ) ) ;
#103 = PERSON_AND_ORGANIZATION ( #150, #78 ) ;
#104 = SHAPE_DEFINITION_REPRESENTATION ( #35, #67 ) ;
#105 = VECTOR ( 'NONE', #130, 1000.000000000000000 ) ;
#106 = ORIENTED_EDGE ( 'NONE', *, *, #76, .T. ) ;
#107 = EDGE_LOOP ( 'NONE', ( #32, #112 ) ) ;
#108 = VECTOR ( 'NONE', #151, 1000.000000000000000 ) ;
#109 = ORIENTED_EDGE ( 'NONE', *, *, #10, .F. ) ;
#110 = CC_DESIGN_PERSON_AND_ORGANIZATION_ASSIGNMENT ( #27, #221, ( #208 ) ) ;
#111 = APPROVAL_ROLE ( '' ) ;
#112 = ORIENTED_EDGE ( 'NONE', *, *, #199, .T. ) ;
#113 = LINE ( 'NONE', #233, #161 ) ;
#114 = APPROVAL ( #83, 'UNSPECIFIED' ) ;
#115 = DIRECTION ( 'NONE',  ( 5.286776307738840622E-16, -1.000000000000000000, 0.000000000000000000 ) ) ;
#116 = FACE_OUTER_BOUND ( 'NONE', #145, .T. ) ;
#117 = CARTESIAN_POINT ( 'NONE',  ( 112.5000000000000000, 4.898587196589411606E-14, 0.000000000000000000 ) ) ;
#118 = FACE_OUTER_BOUND ( 'NONE', #241, .T. ) ;
#119 =( LENGTH_UNIT ( ) NAMED_UNIT ( * ) SI_UNIT ( .MILLI., .METRE. ) );
#120 = COORDINATED_UNIVERSAL_TIME_OFFSET ( 10, 0, .AHEAD. ) ;
#121 = APPROVAL_DATE_TIME ( #135, #114 ) ;
#122 = CC_DESIGN_PERSON_AND_ORGANIZATION_ASSIGNMENT ( #103, #42, ( #159 ) ) ;
#123 = VERTEX_POINT ( 'NONE', #79 ) ;
#124 = LOCAL_TIME ( 11, 58, 54.00000000000000000, #28 ) ;
#125 = ORIENTED_EDGE ( 'NONE', *, *, #76, .F. ) ;
#126 = ORIENTED_EDGE ( 'NONE', *, *, #96, .T. ) ;
#127 = CALENDAR_DATE ( 2025, 20, 11 ) ;
#128 = EDGE_LOOP ( 'NONE', ( #14, #109 ) ) ;
#129 = CARTESIAN_POINT ( 'NONE',  ( -112.5000000000000000, -1.990051048614448997E-14, 0.000000000000000000 ) ) ;
#130 = DIRECTION ( 'NONE',  ( 1.000000000000000000, 3.061616997868382648E-16, -0.000000000000000000 ) ) ;
#131 = CARTESIAN_POINT ( 'NONE',  ( -112.5000000000000142, 26.24999999999997868, 0.000000000000000000 ) ) ;
#132 = AXIS2_PLACEMENT_3D ( 'NONE', #19, #93, #170 ) ;
#133 = FACE_BOUND ( 'NONE', #107, .T. ) ;
#134 = CARTESIAN_POINT ( 'NONE',  ( 112.5000000000000000, 4.898587196589411606E-14, 0.000000000000000000 ) ) ;
#135 = DATE_AND_TIME ( #63, #65 ) ;
#136 = AXIS2_PLACEMENT_3D ( 'NONE', #117, #213, #234 ) ;
#137 = LOCAL_TIME ( 11, 58, 54.00000000000000000, #22 ) ;
#138 = CARTESIAN_POINT ( 'NONE',  ( 0.000000000000000000, 0.000000000000000000, 0.000000000000000000 ) ) ;
#139 = PERSON_AND_ORGANIZATION_ROLE ( 'design_supplier' ) ;
#140 = AXIS2_PLACEMENT_3D ( 'NONE', #134, #231, #209 ) ;
#141 = APPROVAL_PERSON_ORGANIZATION ( #184, #222, #111 ) ;
#142 = DIRECTION ( 'NONE',  ( 4.602914695792523219E-16, -1.000000000000000000, 0.000000000000000000 ) ) ;
#143 = EDGE_CURVE ( 'NONE', #33, #205, #113, .T. ) ;
#144 = CALENDAR_DATE ( 2025, 20, 11 ) ;
#145 = EDGE_LOOP ( 'NONE', ( #207, #66 ) ) ;
#146 = DATE_AND_TIME ( #127, #124 ) ;
#147 = UNCERTAINTY_MEASURE_WITH_UNIT (LENGTH_MEASURE( 1.000000000000000082E-05 ), #119, 'distance_accuracy_value', 'NONE');
#148 = VERTEX_POINT ( 'NONE', #131 ) ;
#149 = CC_DESIGN_PERSON_AND_ORGANIZATION_ASSIGNMENT ( #196, #139, ( #47 ) ) ;
#150 = PERSON ( 'UNSPECIFIED', 'UNSPECIFIED', 'UNSPECIFIED', ('UNSPECIFIED'), ('UNSPECIFIED'), ('UNSPECIFIED') ) ;
#151 = DIRECTION ( 'NONE',  ( 1.000000000000000000, 3.061616997868382648E-16, -0.000000000000000000 ) ) ;
#152 = DIRECTION ( 'NONE',  ( 1.000000000000000000, 3.061616997868382648E-16, -0.000000000000000000 ) ) ;
#153 = CARTESIAN_POINT ( 'NONE',  ( -112.5000000000000000, -1.990051048614448997E-14, 0.000000000000000000 ) ) ;
#154 = MANIFOLD_SOLID_BREP ( 'Stainless chs 60.3 X 3.9 CHS(1)', #188 ) ;
#155 = ADVANCED_FACE ( 'NONE', ( #91 ), #187, .T. ) ;
#156 = DIRECTION ( 'NONE',  ( -4.602914695792523219E-16, 1.000000000000000000, 0.000000000000000000 ) ) ;
#157 = EDGE_CURVE ( 'NONE', #33, #123, #84, .T. ) ;
#158 = COORDINATED_UNIVERSAL_TIME_OFFSET ( 10, 0, .AHEAD. ) ;
#159 = PRODUCT_DEFINITION ( 'UNKNOWN', '', #47, #216 ) ;
#160 = DATE_AND_TIME ( #220, #4 ) ;
#161 = VECTOR ( 'NONE', #211, 1000.000000000000000 ) ;
#162 = DIRECTION ( 'NONE',  ( 5.286776307738840622E-16, -1.000000000000000000, 0.000000000000000000 ) ) ;
#163 = PERSON_AND_ORGANIZATION_ROLE ( 'classification_officer' ) ;
#164 = ORIENTED_EDGE ( 'NONE', *, *, #165, .T. ) ;
#165 = EDGE_CURVE ( 'NONE', #205, #85, #197, .T. ) ;
#166 = ORIENTED_EDGE ( 'NONE', *, *, #51, .F. ) ;
#167 = ORIENTED_EDGE ( 'NONE', *, *, #51, .T. ) ;
#168 = DIRECTION ( 'NONE',  ( -1.000000000000000000, -3.061616997868382648E-16, 0.000000000000000000 ) ) ;
#169 = PLANE ( 'NONE',  #69 ) ;
#170 = DIRECTION ( 'NONE',  ( 3.061616997868382648E-16, -1.000000000000000000, 0.000000000000000000 ) ) ;
#171 = PLANE ( 'NONE',  #132 ) ;
#172 = AXIS2_PLACEMENT_3D ( 'NONE', #97, #173, #6 ) ;
#173 = DIRECTION ( 'NONE',  ( 1.000000000000000000, 3.061616997868382648E-16, -0.000000000000000000 ) ) ;
#174 = DATE_TIME_ROLE ( 'creation_date' ) ;
#175 = PERSON_AND_ORGANIZATION ( #150, #78 ) ;
#176 = AXIS2_PLACEMENT_3D ( 'NONE', #90, #72, #202 ) ;
#177 = LOCAL_TIME ( 11, 58, 54.00000000000000000, #201 ) ;
#178 = CALENDAR_DATE ( 2025, 20, 11 ) ;
#179 = CARTESIAN_POINT ( 'NONE',  ( -112.4999999999999858, -26.25000000000002132, 3.214697847761806317E-15 ) ) ;
#180 = CARTESIAN_POINT ( 'NONE',  ( -112.5000000000000000, -1.990051048614448997E-14, 0.000000000000000000 ) ) ;
#181 = APPROVAL ( #7, 'UNSPECIFIED' ) ;
#182 = ORIENTED_EDGE ( 'NONE', *, *, #143, .T. ) ;
#183 = VERTEX_POINT ( 'NONE', #18 ) ;
#184 = PERSON_AND_ORGANIZATION ( #150, #78 ) ;
#185 = ADVANCED_FACE ( 'NONE', ( #191 ), #59, .T. ) ;
#186 = FACE_OUTER_BOUND ( 'NONE', #245, .T. ) ;
#187 = CYLINDRICAL_SURFACE ( 'NONE', #95, 30.14999999999999858 ) ;
#188 = CLOSED_SHELL ( 'NONE', ( #185, #8, #212, #155, #203, #48 ) ) ;
#189 = DIRECTION ( 'NONE',  ( -1.000000000000000000, -3.061616997868382648E-16, 0.000000000000000000 ) ) ;
#190 = DIRECTION ( 'NONE',  ( -4.602914695792523219E-16, 1.000000000000000000, 0.000000000000000000 ) ) ;
#191 = FACE_OUTER_BOUND ( 'NONE', #53, .T. ) ;
#192 = CYLINDRICAL_SURFACE ( 'NONE', #172, 26.25000000000000000 ) ;
#193 = VECTOR ( 'NONE', #21, 1000.000000000000000 ) ;
#194 = CARTESIAN_POINT ( 'NONE',  ( 112.5000000000000000, 4.898587196589411606E-14, 0.000000000000000000 ) ) ;
#195 = APPROVAL_DATE_TIME ( #160, #181 ) ;
#196 = PERSON_AND_ORGANIZATION ( #150, #78 ) ;
#197 = CIRCLE ( 'NONE', #136, 30.14999999999999858 ) ;
#198 =( NAMED_UNIT ( * ) PLANE_ANGLE_UNIT ( ) SI_UNIT ( $, .RADIAN. ) );
#199 = EDGE_CURVE ( 'NONE', #183, #227, #11, .T. ) ;
#200 = DIRECTION ( 'NONE',  ( 0.000000000000000000, 0.000000000000000000, 1.000000000000000000 ) ) ;
#201 = COORDINATED_UNIVERSAL_TIME_OFFSET ( 10, 0, .AHEAD. ) ;
#202 = DIRECTION ( 'NONE',  ( -5.286776307738840622E-16, 1.000000000000000000, 0.000000000000000000 ) ) ;
#203 = ADVANCED_FACE ( 'NONE', ( #39, #116 ), #171, .T. ) ;
#204 = APPROVAL_DATE_TIME ( #146, #222 ) ;
#205 = VERTEX_POINT ( 'NONE', #20 ) ;
#206 = ORIENTED_EDGE ( 'NONE', *, *, #249, .F. ) ;
#207 = ORIENTED_EDGE ( 'NONE', *, *, #210, .T. ) ;
#208 = PRODUCT ( '3435-50-213-01_REV_', '3435-50-213-01_REV_', '', ( #237 ) ) ;
#209 = DIRECTION ( 'NONE',  ( 5.286776307738840622E-16, -1.000000000000000000, 0.000000000000000000 ) ) ;
#210 = EDGE_CURVE ( 'NONE', #123, #33, #236, .T. ) ;
#211 = DIRECTION ( 'NONE',  ( 1.000000000000000000, 3.061616997868382648E-16, -0.000000000000000000 ) ) ;
#212 = ADVANCED_FACE ( 'NONE', ( #118 ), #192, .F. ) ;
#213 = DIRECTION ( 'NONE',  ( -1.000000000000000000, -3.061616997868382648E-16, 0.000000000000000000 ) ) ;
#214 = CARTESIAN_POINT ( 'NONE',  ( -112.4999999999999858, -30.15000000000001990, 3.692310099429273552E-15 ) ) ;
#215 = CARTESIAN_POINT ( 'NONE',  ( 112.5000000000000000, 4.898587196589411606E-14, 0.000000000000000000 ) ) ;
#216 = DESIGN_CONTEXT ( 'detailed design', #101, 'design' ) ;
#217 = APPROVAL_ROLE ( '' ) ;
#218 = CIRCLE ( 'NONE', #73, 26.25000000000000000 ) ;
#219 = CC_DESIGN_APPROVAL ( #181, ( #47 ) ) ;
#220 = CALENDAR_DATE ( 2025, 20, 11 ) ;
#221 = PERSON_AND_ORGANIZATION_ROLE ( 'design_owner' ) ;
#222 = APPROVAL ( #70, 'UNSPECIFIED' ) ;
#223 = AXIS2_PLACEMENT_3D ( 'NONE', #153, #74, #115 ) ;
#224 = DIRECTION ( 'NONE',  ( 5.286776307738840622E-16, -1.000000000000000000, 0.000000000000000000 ) ) ;
#225 = DATE_AND_TIME ( #144, #177 ) ;
#226 = APPLICATION_CONTEXT ( 'configuration controlled 3d designs of mechanical parts and assemblies' ) ;
#227 = VERTEX_POINT ( 'NONE', #229 ) ;
#228 = AXIS2_PLACEMENT_3D ( 'NONE', #138, #200, #23 ) ;
#229 = CARTESIAN_POINT ( 'NONE',  ( 112.4999999999999858, 26.25000000000004619, 0.000000000000000000 ) ) ;
#230 = CC_DESIGN_PERSON_AND_ORGANIZATION_ASSIGNMENT ( #62, #163, ( #30 ) ) ;
#231 = DIRECTION ( 'NONE',  ( -1.000000000000000000, -3.061616997868382648E-16, 0.000000000000000000 ) ) ;
#232 = CIRCLE ( 'NONE', #29, 30.14999999999999858 ) ;
#233 = CARTESIAN_POINT ( 'NONE',  ( -112.4999999999999858, -30.15000000000001990, 3.692310099429270397E-15 ) ) ;
#234 = DIRECTION ( 'NONE',  ( 4.602914695792523219E-16, -1.000000000000000000, 0.000000000000000000 ) ) ;
#235 = APPLICATION_PROTOCOL_DEFINITION ( 'international standard', 'config_control_design', 1994, #101 ) ;
#236 = CIRCLE ( 'NONE', #24, 30.14999999999999858 ) ;
#237 = MECHANICAL_CONTEXT ( 'NONE', #226, 'mechanical' ) ;
#238 = CC_DESIGN_DATE_AND_TIME_ASSIGNMENT ( #98, #174, ( #159 ) ) ;
#239 = SECURITY_CLASSIFICATION_LEVEL ( 'unclassified' ) ;
#240 = CC_DESIGN_PERSON_AND_ORGANIZATION_ASSIGNMENT ( #175, #61, ( #47 ) ) ;
#241 = EDGE_LOOP ( 'NONE', ( #89, #46, #106, #34 ) ) ;
#242 = AXIS2_PLACEMENT_3D ( 'NONE', #129, #189, #5 ) ;
#243 = EDGE_CURVE ( 'NONE', #227, #183, #87, .T. ) ;
#244 = VERTEX_POINT ( 'NONE', #179 ) ;
#245 = EDGE_LOOP ( 'NONE', ( #126, #45, #31, #125 ) ) ;
#246 = CIRCLE ( 'NONE', #223, 26.25000000000000000 ) ;
#247 = APPROVAL_PERSON_ORGANIZATION ( #43, #114, #217 ) ;
#248 = LINE ( 'NONE', #40, #193 ) ;
#249 = EDGE_CURVE ( 'NONE', #85, #205, #232, .T. ) ;
ENDSEC;
END-ISO-10303-21;
