ISO-10303-21;
HEADER;
FILE_DESCRIPTION (( 'STEP AP203' ),
    '1' );
FILE_NAME ('3467-MU103-20-15_REV_.step',
    '2026-01-04T05:07:53',
    ( '' ),
    ( '' ),
    'SwSTEP 2.0',
    'SolidWorks 2025',
    '' );
FILE_SCHEMA (( 'CONFIG_CONTROL_DESIGN' ));
ENDSEC;

DATA;
#1 = LINE ( 'NONE', #51, #12 ) ;
#2 = CARTESIAN_POINT ( 'NONE',  ( -689.5000000000000000, 24.99999999999983302, -5.000000000000019540 ) ) ;
#3 = DIRECTION ( 'NONE',  ( -1.487096486582537186E-31, 4.857225732735059864E-16, -1.000000000000000000 ) ) ;
#4 = EDGE_CURVE ( 'NONE', #159, #61, #72, .T. ) ;
#5 = LOCAL_TIME ( 16, 7, 53.00000000000000000, #43 ) ;
#6 = VECTOR ( 'NONE', #172, 1000.000000000000000 ) ;
#7 = PRODUCT ( '3467-MU103-20-15_REV_', '3467-MU103-20-15_REV_', '', ( #130 ) ) ;
#8 = APPROVAL_STATUS ( 'not_yet_approved' ) ;
#9 = DATE_AND_TIME ( #214, #5 ) ;
#10 = VERTEX_POINT ( 'NONE', #220 ) ;
#11 = COORDINATED_UNIVERSAL_TIME_OFFSET ( 10, 0, .AHEAD. ) ;
#12 = VECTOR ( 'NONE', #94, 999.9999999999998863 ) ;
#13 = DIRECTION ( 'NONE',  ( 0.4226182617406927244, 0.9063077870366530453, -0.000000000000000000 ) ) ;
#14 = PRODUCT_DEFINITION_FORMATION_WITH_SPECIFIED_SOURCE ( 'ANY', '', #7, .NOT_KNOWN. ) ;
#15 = ORIENTED_EDGE ( 'NONE', *, *, #204, .F. ) ;
#16 = AXIS2_PLACEMENT_3D ( 'NONE', #192, #38, #79 ) ;
#17 = CARTESIAN_POINT ( 'NONE',  ( -689.5000000000000000, -25.00000000000017408, 4.999999999999986677 ) ) ;
#18 = DIRECTION ( 'NONE',  ( -0.8433914458128888292, -0.5372996083468190021, 0.000000000000000000 ) ) ;
#19 = AXIS2_PLACEMENT_3D ( 'NONE', #127, #18, #46 ) ;
#20 = ADVANCED_FACE ( 'NONE', ( #91 ), #182, .F. ) ;
#21 = APPLICATION_PROTOCOL_DEFINITION ( 'international standard', 'config_control_design', 1994, #219 ) ;
#22 = CC_DESIGN_APPROVAL ( #54, ( #14 ) ) ;
#23 = AXIS2_PLACEMENT_3D ( 'NONE', #24, #3, #76 ) ;
#24 = CARTESIAN_POINT ( 'NONE',  ( -689.5000000000000000, 24.99999999999982947, 5.000000000000011546 ) ) ;
#25 = LINE ( 'NONE', #190, #90 ) ;
#26 = CC_DESIGN_PERSON_AND_ORGANIZATION_ASSIGNMENT ( #231, #80, ( #86 ) ) ;
#27 = PERSON_AND_ORGANIZATION ( #148, #178 ) ;
#28 = EDGE_CURVE ( 'NONE', #195, #165, #167, .T. ) ;
#29 = VECTOR ( 'NONE', #217, 1000.000000000000000 ) ;
#30 = ORIENTED_EDGE ( 'NONE', *, *, #162, .F. ) ;
#31 = CARTESIAN_POINT ( 'NONE',  ( 689.5000000000000000, -24.99999999999974776, -5.000000000000013323 ) ) ;
#32 = EDGE_CURVE ( 'NONE', #195, #70, #218, .T. ) ;
#33 = CARTESIAN_POINT ( 'NONE',  ( 657.6464869596260314, 24.99999999999982592, -5.000000000000019540 ) ) ;
#34 = APPLICATION_CONTEXT ( 'configuration controlled 3d designs of mechanical parts and assemblies' ) ;
#35 = ADVANCED_FACE ( 'NONE', ( #47 ), #233, .F. ) ;
#36 = PERSON_AND_ORGANIZATION ( #148, #178 ) ;
#37 = DIRECTION ( 'NONE',  ( 0.5372996083468190021, -0.8433914458128888292, 0.000000000000000000 ) ) ;
#38 = DIRECTION ( 'NONE',  ( 0.9063077870366531563, -0.4226182617406927799, 0.000000000000000000 ) ) ;
#39 = CC_DESIGN_PERSON_AND_ORGANIZATION_ASSIGNMENT ( #66, #82, ( #14 ) ) ;
#40 = APPROVAL_PERSON_ORGANIZATION ( #27, #115, #44 ) ;
#41 = EDGE_LOOP ( 'NONE', ( #104, #48, #136, #212 ) ) ;
#42 = DESIGN_CONTEXT ( 'detailed design', #34, 'design' ) ;
#43 = COORDINATED_UNIVERSAL_TIME_OFFSET ( 10, 0, .AHEAD. ) ;
#44 = APPROVAL_ROLE ( '' ) ;
#45 = VECTOR ( 'NONE', #69, 1000.000000000000000 ) ;
#46 = DIRECTION ( 'NONE',  ( 0.5372996083468190021, -0.8433914458128888292, 0.000000000000000000 ) ) ;
#47 = FACE_OUTER_BOUND ( 'NONE', #41, .T. ) ;
#48 = ORIENTED_EDGE ( 'NONE', *, *, #32, .F. ) ;
#49 = EDGE_LOOP ( 'NONE', ( #166, #179, #235, #84 ) ) ;
#50 = DIRECTION ( 'NONE',  ( -0.000000000000000000, -3.469446951953614189E-16, 1.000000000000000000 ) ) ;
#51 = CARTESIAN_POINT ( 'NONE',  ( -666.1846170922505053, 24.99999999999982947, -5.000000000000019540 ) ) ;
#52 = LOCAL_TIME ( 16, 7, 53.00000000000000000, #210 ) ;
#53 = LINE ( 'NONE', #112, #6 ) ;
#54 = APPROVAL ( #81, 'UNSPECIFIED' ) ;
#55 = CARTESIAN_POINT ( 'NONE',  ( 657.6464869596260314, 24.99999999999982592, -5.000000000000019540 ) ) ;
#56 = CARTESIAN_POINT ( 'NONE',  ( 657.6464869596260314, 24.99999999999982592, 4.999999999999999112 ) ) ;
#57 = VECTOR ( 'NONE', #37, 1000.000000000000000 ) ;
#58 = PERSON_AND_ORGANIZATION ( #148, #178 ) ;
#59 = CC_DESIGN_PERSON_AND_ORGANIZATION_ASSIGNMENT ( #36, #228, ( #7 ) ) ;
#60 = CALENDAR_DATE ( 2026, 4, 1 ) ;
#61 = VERTEX_POINT ( 'NONE', #31 ) ;
#62 = APPROVAL_DATE_TIME ( #9, #216 ) ;
#63 = LOCAL_TIME ( 16, 7, 53.00000000000000000, #158 ) ;
#64 = CLOSED_SHELL ( 'NONE', ( #35, #146, #189, #65, #20, #116 ) ) ;
#65 = ADVANCED_FACE ( 'NONE', ( #145 ), #205, .F. ) ;
#66 = PERSON_AND_ORGANIZATION ( #148, #178 ) ;
#67 = VECTOR ( 'NONE', #50, 1000.000000000000000 ) ;
#68 = VERTEX_POINT ( 'NONE', #33 ) ;
#69 = DIRECTION ( 'NONE',  ( 1.000000000000000000, 3.061616997868382648E-16, -0.000000000000000000 ) ) ;
#70 = VERTEX_POINT ( 'NONE', #125 ) ;
#71 = ORIENTED_EDGE ( 'NONE', *, *, #204, .T. ) ;
#72 = LINE ( 'NONE', #183, #29 ) ;
#73 = DIRECTION ( 'NONE',  ( 3.061616997868382648E-16, -1.000000000000000000, -3.469446951953603342E-16 ) ) ;
#74 = CARTESIAN_POINT ( 'NONE',  ( -689.5000000000000000, -25.00000000000017053, -5.000000000000013323 ) ) ;
#75 = AXIS2_PLACEMENT_3D ( 'NONE', #187, #73, #207 ) ;
#76 = DIRECTION ( 'NONE',  ( 0.000000000000000000, 1.000000000000000000, 4.857225732735059864E-16 ) ) ;
#77 = EDGE_CURVE ( 'NONE', #159, #195, #105, .T. ) ;
#78 = PLANE ( 'NONE',  #75 ) ;
#79 = DIRECTION ( 'NONE',  ( 0.4226182617406927799, 0.9063077870366531563, 0.000000000000000000 ) ) ;
#80 = PERSON_AND_ORGANIZATION_ROLE ( 'classification_officer' ) ;
#81 = APPROVAL_STATUS ( 'not_yet_approved' ) ;
#82 = PERSON_AND_ORGANIZATION_ROLE ( 'design_supplier' ) ;
#83 = AXIS2_PLACEMENT_3D ( 'NONE', #154, #188, #191 ) ;
#84 = ORIENTED_EDGE ( 'NONE', *, *, #126, .F. ) ;
#85 = CC_DESIGN_PERSON_AND_ORGANIZATION_ASSIGNMENT ( #58, #194, ( #14 ) ) ;
#86 = SECURITY_CLASSIFICATION ( '', '', #99 ) ;
#87 = ORIENTED_EDGE ( 'NONE', *, *, #108, .T. ) ;
#88 = ORIENTED_EDGE ( 'NONE', *, *, #142, .T. ) ;
#89 = ORIENTED_EDGE ( 'NONE', *, *, #126, .T. ) ;
#90 = VECTOR ( 'NONE', #169, 1000.000000000000000 ) ;
#91 = FACE_OUTER_BOUND ( 'NONE', #102, .T. ) ;
#92 =( NAMED_UNIT ( * ) SI_UNIT ( $, .STERADIAN. ) SOLID_ANGLE_UNIT ( ) );
#93 = APPLICATION_PROTOCOL_DEFINITION ( 'international standard', 'config_control_design', 1994, #34 ) ;
#94 = DIRECTION ( 'NONE',  ( -0.4226182617406927799, -0.9063077870366531563, 1.100535376243149385E-16 ) ) ;
#95 = PRODUCT_RELATED_PRODUCT_CATEGORY ( 'detail', '', ( #7 ) ) ;
#96 = DATE_AND_TIME ( #60, #124 ) ;
#97 = PRODUCT_DEFINITION ( 'UNKNOWN', '', #14, #42 ) ;
#98 = ORIENTED_EDGE ( 'NONE', *, *, #157, .F. ) ;
#99 = SECURITY_CLASSIFICATION_LEVEL ( 'unclassified' ) ;
#100 = AXIS2_PLACEMENT_3D ( 'NONE', #103, #168, #222 ) ;
#101 = EDGE_CURVE ( 'NONE', #61, #70, #206, .T. ) ;
#102 = EDGE_LOOP ( 'NONE', ( #71, #229, #89, #176 ) ) ;
#103 = CARTESIAN_POINT ( 'NONE',  ( -689.5000000000000000, 24.99999999999983302, -5.000000000000019540 ) ) ;
#104 = ORIENTED_EDGE ( 'NONE', *, *, #101, .T. ) ;
#105 = LINE ( 'NONE', #185, #173 ) ;
#106 = APPROVAL_PERSON_ORGANIZATION ( #175, #54, #155 ) ;
#107 =( LENGTH_UNIT ( ) NAMED_UNIT ( * ) SI_UNIT ( .MILLI., .METRE. ) );
#108 = EDGE_CURVE ( 'NONE', #10, #68, #171, .T. ) ;
#109 = FACE_OUTER_BOUND ( 'NONE', #49, .T. ) ;
#110 = LINE ( 'NONE', #56, #57 ) ;
#111 = FACE_OUTER_BOUND ( 'NONE', #201, .T. ) ;
#112 = CARTESIAN_POINT ( 'NONE',  ( -689.5000000000000000, 24.99999999999982947, 5.000000000000011546 ) ) ;
#113 = APPROVAL_DATE_TIME ( #119, #54 ) ;
#114 = VECTOR ( 'NONE', #13, 1000.000000000000114 ) ;
#115 = APPROVAL ( #8, 'UNSPECIFIED' ) ;
#116 = ADVANCED_FACE ( 'NONE', ( #133 ), #226, .F. ) ;
#117 = DATE_AND_TIME ( #198, #150 ) ;
#118 = PRODUCT_DEFINITION_SHAPE ( 'NONE', 'NONE',  #97 ) ;
#119 = DATE_AND_TIME ( #137, #52 ) ;
#120 = SHAPE_DEFINITION_REPRESENTATION ( #118, #199 ) ;
#121 = CC_DESIGN_SECURITY_CLASSIFICATION ( #86, ( #14 ) ) ;
#122 = ORIENTED_EDGE ( 'NONE', *, *, #157, .T. ) ;
#123 = CARTESIAN_POINT ( 'NONE',  ( -689.5000000000000000, -25.00000000000017408, 4.999999999999986677 ) ) ;
#124 = LOCAL_TIME ( 16, 7, 53.00000000000000000, #11 ) ;
#125 = CARTESIAN_POINT ( 'NONE',  ( 689.5000000000000000, -24.99999999999975131, 4.999999999999986677 ) ) ;
#126 = EDGE_CURVE ( 'NONE', #140, #70, #110, .T. ) ;
#127 = CARTESIAN_POINT ( 'NONE',  ( 657.6464869596260314, 24.99999999999982592, -5.001000000000018986 ) ) ;
#128 = ORIENTED_EDGE ( 'NONE', *, *, #184, .F. ) ;
#129 = DIRECTION ( 'NONE',  ( -0.5372996083468190021, 0.8433914458128888292, -1.024135658342747851E-16 ) ) ;
#130 = MECHANICAL_CONTEXT ( 'NONE', #219, 'mechanical' ) ;
#131 = PLANE ( 'NONE',  #23 ) ;
#132 =( NAMED_UNIT ( * ) PLANE_ANGLE_UNIT ( ) SI_UNIT ( $, .RADIAN. ) );
#133 = FACE_OUTER_BOUND ( 'NONE', #236, .T. ) ;
#134 = DATE_TIME_ROLE ( 'classification_date' ) ;
#135 = ORIENTED_EDGE ( 'NONE', *, *, #28, .T. ) ;
#136 = ORIENTED_EDGE ( 'NONE', *, *, #77, .F. ) ;
#137 = CALENDAR_DATE ( 2026, 4, 1 ) ;
#138 = APPROVAL_STATUS ( 'not_yet_approved' ) ;
#139 = APPROVAL_ROLE ( '' ) ;
#140 = VERTEX_POINT ( 'NONE', #208 ) ;
#141 = EDGE_LOOP ( 'NONE', ( #180, #128, #87, #15 ) ) ;
#142 = EDGE_CURVE ( 'NONE', #165, #140, #53, .T. ) ;
#143 = ORIENTED_EDGE ( 'NONE', *, *, #108, .F. ) ;
#144 = DIRECTION ( 'NONE',  ( -3.061616997868382648E-16, 1.000000000000000000, 3.469446951953614189E-16 ) ) ;
#145 = FACE_OUTER_BOUND ( 'NONE', #141, .T. ) ;
#146 = ADVANCED_FACE ( 'NONE', ( #109 ), #131, .F. ) ;
#147 = LINE ( 'NONE', #55, #197 ) ;
#148 = PERSON ( 'UNSPECIFIED', 'UNSPECIFIED', 'UNSPECIFIED', ('UNSPECIFIED'), ('UNSPECIFIED'), ('UNSPECIFIED') ) ;
#149 = DIRECTION ( 'NONE',  ( -0.000000000000000000, -0.000000000000000000, 1.000000000000000000 ) ) ;
#150 = LOCAL_TIME ( 16, 7, 53.00000000000000000, #213 ) ;
#151 = VECTOR ( 'NONE', #149, 1000.000000000000000 ) ;
#152 = CARTESIAN_POINT ( 'NONE',  ( -689.5000000000000000, -25.00000000000017408, 4.999999999999999112 ) ) ;
#153 = DIRECTION ( 'NONE',  ( 1.000000000000000000, 3.061616997868382648E-16, -0.000000000000000000 ) ) ;
#154 = CARTESIAN_POINT ( 'NONE',  ( 0.000000000000000000, 0.000000000000000000, 0.000000000000000000 ) ) ;
#155 = APPROVAL_ROLE ( '' ) ;
#156 = PERSON_AND_ORGANIZATION ( #148, #178 ) ;
#157 = EDGE_CURVE ( 'NONE', #10, #165, #227, .T. ) ;
#158 = COORDINATED_UNIVERSAL_TIME_OFFSET ( 10, 0, .AHEAD. ) ;
#159 = VERTEX_POINT ( 'NONE', #74 ) ;
#160 =( GEOMETRIC_REPRESENTATION_CONTEXT ( 3 ) GLOBAL_UNCERTAINTY_ASSIGNED_CONTEXT ( ( #211 ) ) GLOBAL_UNIT_ASSIGNED_CONTEXT ( ( #107, #132, #92 ) ) REPRESENTATION_CONTEXT ( 'NONE', 'WORKASPACE' ) );
#161 = CALENDAR_DATE ( 2026, 4, 1 ) ;
#162 = EDGE_CURVE ( 'NONE', #68, #140, #25, .T. ) ;
#163 = ORIENTED_EDGE ( 'NONE', *, *, #77, .T. ) ;
#164 = VECTOR ( 'NONE', #153, 1000.000000000000000 ) ;
#165 = VERTEX_POINT ( 'NONE', #224 ) ;
#166 = ORIENTED_EDGE ( 'NONE', *, *, #142, .F. ) ;
#167 = LINE ( 'NONE', #234, #114 ) ;
#168 = DIRECTION ( 'NONE',  ( -3.717741216456342965E-32, 1.214306433183764966E-16, 1.000000000000000000 ) ) ;
#169 = DIRECTION ( 'NONE',  ( -0.000000000000000000, -0.000000000000000000, 1.000000000000000000 ) ) ;
#170 = CARTESIAN_POINT ( 'NONE',  ( -666.1846170922505053, 24.99999999999982947, -5.001000000000018986 ) ) ;
#171 = LINE ( 'NONE', #2, #164 ) ;
#172 = DIRECTION ( 'NONE',  ( 1.000000000000000000, 3.061616997868382648E-16, -0.000000000000000000 ) ) ;
#173 = VECTOR ( 'NONE', #237, 1000.000000000000000 ) ;
#174 = CC_DESIGN_PERSON_AND_ORGANIZATION_ASSIGNMENT ( #156, #230, ( #97 ) ) ;
#175 = PERSON_AND_ORGANIZATION ( #148, #178 ) ;
#176 = ORIENTED_EDGE ( 'NONE', *, *, #101, .F. ) ;
#177 = DATE_TIME_ROLE ( 'creation_date' ) ;
#178 = ORGANIZATION ( 'UNSPECIFIED', 'UNSPECIFIED', '' ) ;
#179 = ORIENTED_EDGE ( 'NONE', *, *, #28, .F. ) ;
#180 = ORIENTED_EDGE ( 'NONE', *, *, #4, .F. ) ;
#181 = CC_DESIGN_APPROVAL ( #115, ( #86 ) ) ;
#182 = PLANE ( 'NONE',  #19 ) ;
#183 = CARTESIAN_POINT ( 'NONE',  ( -689.5000000000000000, -25.00000000000017053, -5.000000000000013323 ) ) ;
#184 = EDGE_CURVE ( 'NONE', #10, #159, #1, .T. ) ;
#185 = CARTESIAN_POINT ( 'NONE',  ( -689.5000000000000000, -25.00000000000017408, 4.999999999999986677 ) ) ;
#186 = AXIS2_PLACEMENT_3D ( 'NONE', #123, #144, #202 ) ;
#187 = CARTESIAN_POINT ( 'NONE',  ( -689.5000000000000000, 24.99999999999982947, 5.000000000000011546 ) ) ;
#188 = DIRECTION ( 'NONE',  ( 0.000000000000000000, 0.000000000000000000, 1.000000000000000000 ) ) ;
#189 = ADVANCED_FACE ( 'NONE', ( #111 ), #78, .F. ) ;
#190 = CARTESIAN_POINT ( 'NONE',  ( 657.6464869596260314, 24.99999999999982592, -5.001000000000018986 ) ) ;
#191 = DIRECTION ( 'NONE',  ( 1.000000000000000000, 0.000000000000000000, 0.000000000000000000 ) ) ;
#192 = CARTESIAN_POINT ( 'NONE',  ( -666.1846170922505053, 24.99999999999982947, -5.001000000000018986 ) ) ;
#193 = MANIFOLD_SOLID_BREP ( 'Cut-Extrude1', #64 ) ;
#194 = PERSON_AND_ORGANIZATION_ROLE ( 'creator' ) ;
#195 = VERTEX_POINT ( 'NONE', #152 ) ;
#196 = DATE_AND_TIME ( #161, #63 ) ;
#197 = VECTOR ( 'NONE', #129, 1000.000000000000000 ) ;
#198 = CALENDAR_DATE ( 2026, 4, 1 ) ;
#199 = ADVANCED_BREP_SHAPE_REPRESENTATION ( '3467-MU103-20-15_REV_', ( #193, #83 ), #160 ) ;
#200 = CC_DESIGN_DATE_AND_TIME_ASSIGNMENT ( #96, #177, ( #97 ) ) ;
#201 = EDGE_LOOP ( 'NONE', ( #143, #122, #88, #30 ) ) ;
#202 = DIRECTION ( 'NONE',  ( 0.000000000000000000, -3.469446951953614189E-16, 1.000000000000000000 ) ) ;
#203 = ORIENTED_EDGE ( 'NONE', *, *, #184, .T. ) ;
#204 = EDGE_CURVE ( 'NONE', #61, #68, #147, .T. ) ;
#205 = PLANE ( 'NONE',  #100 ) ;
#206 = LINE ( 'NONE', #223, #67 ) ;
#207 = DIRECTION ( 'NONE',  ( 0.000000000000000000, 3.469446951953603342E-16, -1.000000000000000000 ) ) ;
#208 = CARTESIAN_POINT ( 'NONE',  ( 657.6464869596260314, 24.99999999999982592, 4.999999999999999112 ) ) ;
#209 = APPROVAL_DATE_TIME ( #196, #115 ) ;
#210 = COORDINATED_UNIVERSAL_TIME_OFFSET ( 10, 0, .AHEAD. ) ;
#211 = UNCERTAINTY_MEASURE_WITH_UNIT (LENGTH_MEASURE( 1.000000000000000082E-05 ), #107, 'distance_accuracy_value', 'NONE');
#212 = ORIENTED_EDGE ( 'NONE', *, *, #4, .T. ) ;
#213 = COORDINATED_UNIVERSAL_TIME_OFFSET ( 10, 0, .AHEAD. ) ;
#214 = CALENDAR_DATE ( 2026, 4, 1 ) ;
#215 = PERSON_AND_ORGANIZATION ( #148, #178 ) ;
#216 = APPROVAL ( #138, 'UNSPECIFIED' ) ;
#217 = DIRECTION ( 'NONE',  ( 1.000000000000000000, 3.061616997868382648E-16, -0.000000000000000000 ) ) ;
#218 = LINE ( 'NONE', #17, #45 ) ;
#219 = APPLICATION_CONTEXT ( 'configuration controlled 3d designs of mechanical parts and assemblies' ) ;
#220 = CARTESIAN_POINT ( 'NONE',  ( -666.1846170922505053, 24.99999999999983658, -5.000000000000019540 ) ) ;
#221 = APPROVAL_PERSON_ORGANIZATION ( #215, #216, #139 ) ;
#222 = DIRECTION ( 'NONE',  ( 0.000000000000000000, -1.000000000000000000, 1.214306433183764966E-16 ) ) ;
#223 = CARTESIAN_POINT ( 'NONE',  ( 689.5000000000000000, -24.99999999999975131, 4.999999999999986677 ) ) ;
#224 = CARTESIAN_POINT ( 'NONE',  ( -666.1846170922505053, 24.99999999999982947, 4.999999999999999112 ) ) ;
#225 = CC_DESIGN_DATE_AND_TIME_ASSIGNMENT ( #117, #134, ( #86 ) ) ;
#226 = PLANE ( 'NONE',  #16 ) ;
#227 = LINE ( 'NONE', #170, #151 ) ;
#228 = PERSON_AND_ORGANIZATION_ROLE ( 'design_owner' ) ;
#229 = ORIENTED_EDGE ( 'NONE', *, *, #162, .T. ) ;
#230 = PERSON_AND_ORGANIZATION_ROLE ( 'creator' ) ;
#231 = PERSON_AND_ORGANIZATION ( #148, #178 ) ;
#232 = CC_DESIGN_APPROVAL ( #216, ( #97 ) ) ;
#233 = PLANE ( 'NONE',  #186 ) ;
#234 = CARTESIAN_POINT ( 'NONE',  ( -666.1846170922505053, 24.99999999999982947, 4.999999999999999112 ) ) ;
#235 = ORIENTED_EDGE ( 'NONE', *, *, #32, .T. ) ;
#236 = EDGE_LOOP ( 'NONE', ( #203, #163, #135, #98 ) ) ;
#237 = DIRECTION ( 'NONE',  ( -0.000000000000000000, -3.469446951953614189E-16, 1.000000000000000000 ) ) ;
ENDSEC;
END-ISO-10303-21;
