ISO-10303-21;
HEADER;
FILE_DESCRIPTION (( 'STEP AP203' ),
    '1' );
FILE_NAME ('3467-MU103-20-35_REV_.step',
    '2026-01-04T05:09:23',
    ( '' ),
    ( '' ),
    'SwSTEP 2.0',
    'SolidWorks 2025',
    '' );
FILE_SCHEMA (( 'CONFIG_CONTROL_DESIGN' ));
ENDSEC;

DATA;
#1 = CALENDAR_DATE ( 2026, 4, 1 ) ;
#2 = CARTESIAN_POINT ( 'NONE',  ( -1377.500000000000000, 12.49999999999966427, -2.500000000000000000 ) ) ;
#3 = DIRECTION ( 'NONE',  ( 1.000000000000000000, 0.000000000000000000, -0.000000000000000000 ) ) ;
#4 = ADVANCED_FACE ( 'NONE', ( #222 ), #188, .T. ) ;
#5 = CARTESIAN_POINT ( 'NONE',  ( -1377.500000000000000, 12.49999999999966427, 2.500000000000000000 ) ) ;
#6 = PLANE ( 'NONE',  #89 ) ;
#7 = CARTESIAN_POINT ( 'NONE',  ( -1377.500000000000000, 12.49999999999966427, -2.500000000000000000 ) ) ;
#8 = DATE_AND_TIME ( #177, #232 ) ;
#9 = APPROVAL_PERSON_ORGANIZATION ( #212, #84, #178 ) ;
#10 = DIRECTION ( 'NONE',  ( 0.000000000000000000, 0.000000000000000000, 1.000000000000000000 ) ) ;
#11 = PLANE ( 'NONE',  #166 ) ;
#12 = DESIGN_CONTEXT ( 'detailed design', #35, 'design' ) ;
#13 = ADVANCED_FACE ( 'NONE', ( #101 ), #226, .F. ) ;
#14 = PERSON_AND_ORGANIZATION_ROLE ( 'design_supplier' ) ;
#15 = EDGE_CURVE ( 'NONE', #216, #218, #133, .T. ) ;
#16 = CLOSED_SHELL ( 'NONE', ( #17, #56, #223, #131, #4, #13 ) ) ;
#17 = ADVANCED_FACE ( 'NONE', ( #175 ), #44, .F. ) ;
#18 = EDGE_LOOP ( 'NONE', ( #236, #217, #94, #52 ) ) ;
#19 = ORIENTED_EDGE ( 'NONE', *, *, #214, .T. ) ;
#20 = LINE ( 'NONE', #195, #34 ) ;
#21 = ORIENTED_EDGE ( 'NONE', *, *, #220, .T. ) ;
#22 = VERTEX_POINT ( 'NONE', #5 ) ;
#23 = DIRECTION ( 'NONE',  ( -1.000000000000000000, -3.061616997868382648E-16, 0.000000000000000000 ) ) ;
#24 = DIRECTION ( 'NONE',  ( -1.000000000000000000, 0.000000000000000000, -0.000000000000000000 ) ) ;
#25 = CARTESIAN_POINT ( 'NONE',  ( -1377.500000000000000, 12.49999999999966427, 2.500000000000000000 ) ) ;
#26 = CARTESIAN_POINT ( 'NONE',  ( -1377.500000000000000, 12.49999999999966427, 2.500000000000000000 ) ) ;
#27 = CARTESIAN_POINT ( 'NONE',  ( 1377.500000000000000, 12.50000000000050804, -2.500000000000000000 ) ) ;
#28 = EDGE_CURVE ( 'NONE', #22, #216, #122, .T. ) ;
#29 = PERSON_AND_ORGANIZATION ( #96, #200 ) ;
#30 =( GEOMETRIC_REPRESENTATION_CONTEXT ( 3 ) GLOBAL_UNCERTAINTY_ASSIGNED_CONTEXT ( ( #230 ) ) GLOBAL_UNIT_ASSIGNED_CONTEXT ( ( #156, #193, #127 ) ) REPRESENTATION_CONTEXT ( 'NONE', 'WORKASPACE' ) );
#31 = APPROVAL_DATE_TIME ( #124, #154 ) ;
#32 = EDGE_CURVE ( 'NONE', #202, #78, #139, .T. ) ;
#33 = DIRECTION ( 'NONE',  ( 1.000000000000000000, 3.061616997868382648E-16, 0.000000000000000000 ) ) ;
#34 = VECTOR ( 'NONE', #47, 1000.000000000000000 ) ;
#35 = APPLICATION_CONTEXT ( 'configuration controlled 3d designs of mechanical parts and assemblies' ) ;
#36 = EDGE_LOOP ( 'NONE', ( #97, #132, #105, #146 ) ) ;
#37 = CARTESIAN_POINT ( 'NONE',  ( 0.000000000000000000, 0.000000000000000000, 0.000000000000000000 ) ) ;
#38 = ORIENTED_EDGE ( 'NONE', *, *, #210, .F. ) ;
#39 = CARTESIAN_POINT ( 'NONE',  ( 1377.500000000000000, 12.50000000000050804, 2.500000000000000000 ) ) ;
#40 = DIRECTION ( 'NONE',  ( 1.000000000000000000, 3.061616997868382648E-16, -0.000000000000000000 ) ) ;
#41 = VECTOR ( 'NONE', #151, 1000.000000000000000 ) ;
#42 = DIRECTION ( 'NONE',  ( -0.000000000000000000, -0.000000000000000000, 1.000000000000000000 ) ) ;
#43 = FACE_OUTER_BOUND ( 'NONE', #36, .T. ) ;
#44 = PLANE ( 'NONE',  #123 ) ;
#45 = VECTOR ( 'NONE', #40, 1000.000000000000000 ) ;
#46 = APPROVAL ( #118, 'UNSPECIFIED' ) ;
#47 = DIRECTION ( 'NONE',  ( -0.000000000000000000, 1.000000000000000000, -0.000000000000000000 ) ) ;
#48 = APPROVAL_ROLE ( '' ) ;
#49 = AXIS2_PLACEMENT_3D ( 'NONE', #85, #117, #187 ) ;
#50 = CALENDAR_DATE ( 2026, 4, 1 ) ;
#51 = VECTOR ( 'NONE', #224, 1000.000000000000000 ) ;
#52 = ORIENTED_EDGE ( 'NONE', *, *, #28, .T. ) ;
#53 = DIRECTION ( 'NONE',  ( -0.000000000000000000, -0.000000000000000000, 1.000000000000000000 ) ) ;
#54 = ORIENTED_EDGE ( 'NONE', *, *, #90, .F. ) ;
#55 = ORIENTED_EDGE ( 'NONE', *, *, #116, .T. ) ;
#56 = ADVANCED_FACE ( 'NONE', ( #43 ), #103, .F. ) ;
#57 = VECTOR ( 'NONE', #190, 1000.000000000000000 ) ;
#58 = ORIENTED_EDGE ( 'NONE', *, *, #135, .F. ) ;
#59 = VECTOR ( 'NONE', #136, 1000.000000000000000 ) ;
#60 = LINE ( 'NONE', #62, #87 ) ;
#61 = APPROVAL_DATE_TIME ( #115, #46 ) ;
#62 = CARTESIAN_POINT ( 'NONE',  ( -1377.500000000000000, -12.50000000000033751, 2.500000000000000000 ) ) ;
#63 = LOCAL_TIME ( 16, 9, 23.00000000000000000, #169 ) ;
#64 = FACE_OUTER_BOUND ( 'NONE', #219, .T. ) ;
#65 = DIRECTION ( 'NONE',  ( 0.000000000000000000, 0.000000000000000000, 1.000000000000000000 ) ) ;
#66 = CARTESIAN_POINT ( 'NONE',  ( -1377.500000000000000, -12.50000000000033751, 2.500000000000000000 ) ) ;
#67 = AXIS2_PLACEMENT_3D ( 'NONE', #26, #149, #98 ) ;
#68 = COORDINATED_UNIVERSAL_TIME_OFFSET ( 10, 0, .AHEAD. ) ;
#69 = DATE_AND_TIME ( #86, #143 ) ;
#70 = VECTOR ( 'NONE', #53, 1000.000000000000000 ) ;
#71 = PRODUCT ( '3467-MU103-20-35_REV_', '3467-MU103-20-35_REV_', '', ( #182 ) ) ;
#72 = SECURITY_CLASSIFICATION_LEVEL ( 'unclassified' ) ;
#73 = LOCAL_TIME ( 16, 9, 23.00000000000000000, #68 ) ;
#74 = ORIENTED_EDGE ( 'NONE', *, *, #168, .F. ) ;
#75 = DIRECTION ( 'NONE',  ( 1.000000000000000000, 0.000000000000000000, 0.000000000000000000 ) ) ;
#76 = ADVANCED_BREP_SHAPE_REPRESENTATION ( '3467-MU103-20-35_REV_', ( #141, #215 ), #30 ) ;
#77 = COORDINATED_UNIVERSAL_TIME_OFFSET ( 10, 0, .AHEAD. ) ;
#78 = VERTEX_POINT ( 'NONE', #100 ) ;
#79 = LINE ( 'NONE', #148, #51 ) ;
#80 = PRODUCT_DEFINITION_SHAPE ( 'NONE', 'NONE',  #111 ) ;
#81 = CARTESIAN_POINT ( 'NONE',  ( 1377.500000000000000, -12.49999999999949374, -2.500000000000000000 ) ) ;
#82 = CARTESIAN_POINT ( 'NONE',  ( -1377.500000000000000, 12.49999999999966427, 2.500000000000000000 ) ) ;
#83 = LINE ( 'NONE', #138, #70 ) ;
#84 = APPROVAL ( #106, 'UNSPECIFIED' ) ;
#85 = CARTESIAN_POINT ( 'NONE',  ( 1377.500000000000000, 0.000000000000000000, 0.000000000000000000 ) ) ;
#86 = CALENDAR_DATE ( 2026, 4, 1 ) ;
#87 = VECTOR ( 'NONE', #42, 1000.000000000000000 ) ;
#88 = COORDINATED_UNIVERSAL_TIME_OFFSET ( 10, 0, .AHEAD. ) ;
#89 = AXIS2_PLACEMENT_3D ( 'NONE', #2, #65, #3 ) ;
#90 = EDGE_CURVE ( 'NONE', #218, #147, #119, .T. ) ;
#91 = EDGE_LOOP ( 'NONE', ( #237, #54, #234, #163 ) ) ;
#92 = APPLICATION_PROTOCOL_DEFINITION ( 'international standard', 'config_control_design', 1994, #181 ) ;
#93 = APPROVAL_PERSON_ORGANIZATION ( #183, #46, #128 ) ;
#94 = ORIENTED_EDGE ( 'NONE', *, *, #208, .F. ) ;
#95 = EDGE_LOOP ( 'NONE', ( #19, #165, #74, #112 ) ) ;
#96 = PERSON ( 'UNSPECIFIED', 'UNSPECIFIED', 'UNSPECIFIED', ('UNSPECIFIED'), ('UNSPECIFIED'), ('UNSPECIFIED') ) ;
#97 = ORIENTED_EDGE ( 'NONE', *, *, #110, .T. ) ;
#98 = DIRECTION ( 'NONE',  ( -1.000000000000000000, 0.000000000000000000, -0.000000000000000000 ) ) ;
#99 = CALENDAR_DATE ( 2026, 4, 1 ) ;
#100 = CARTESIAN_POINT ( 'NONE',  ( 1377.500000000000000, -12.49999999999949374, 2.500000000000000000 ) ) ;
#101 = FACE_OUTER_BOUND ( 'NONE', #91, .T. ) ;
#102 = CC_DESIGN_PERSON_AND_ORGANIZATION_ASSIGNMENT ( #109, #14, ( #205 ) ) ;
#103 = PLANE ( 'NONE',  #67 ) ;
#104 = VECTOR ( 'NONE', #206, 1000.000000000000000 ) ;
#105 = ORIENTED_EDGE ( 'NONE', *, *, #220, .F. ) ;
#106 = APPROVAL_STATUS ( 'not_yet_approved' ) ;
#107 = APPROVAL_PERSON_ORGANIZATION ( #231, #154, #48 ) ;
#108 = CARTESIAN_POINT ( 'NONE',  ( -1377.500000000000000, -12.50000000000033751, -2.500000000000000000 ) ) ;
#109 = PERSON_AND_ORGANIZATION ( #96, #200 ) ;
#110 = EDGE_CURVE ( 'NONE', #78, #216, #191, .T. ) ;
#111 = PRODUCT_DEFINITION ( 'UNKNOWN', '', #205, #12 ) ;
#112 = ORIENTED_EDGE ( 'NONE', *, *, #210, .T. ) ;
#113 = APPROVAL_DATE_TIME ( #69, #84 ) ;
#114 = VECTOR ( 'NONE', #173, 1000.000000000000000 ) ;
#115 = DATE_AND_TIME ( #99, #125 ) ;
#116 = EDGE_CURVE ( 'NONE', #158, #218, #167, .T. ) ;
#117 = DIRECTION ( 'NONE',  ( -1.000000000000000000, 0.000000000000000000, -0.000000000000000000 ) ) ;
#118 = APPROVAL_STATUS ( 'not_yet_approved' ) ;
#119 = LINE ( 'NONE', #27, #104 ) ;
#120 = CARTESIAN_POINT ( 'NONE',  ( -1377.500000000000000, -12.50000000000033751, 2.500000000000000000 ) ) ;
#121 = DIRECTION ( 'NONE',  ( 1.000000000000000000, 3.061616997868382648E-16, -0.000000000000000000 ) ) ;
#122 = LINE ( 'NONE', #25, #57 ) ;
#123 = AXIS2_PLACEMENT_3D ( 'NONE', #66, #153, #23 ) ;
#124 = DATE_AND_TIME ( #50, #73 ) ;
#125 = LOCAL_TIME ( 16, 9, 23.00000000000000000, #77 ) ;
#126 = PERSON_AND_ORGANIZATION ( #96, #200 ) ;
#127 =( NAMED_UNIT ( * ) SI_UNIT ( $, .STERADIAN. ) SOLID_ANGLE_UNIT ( ) );
#128 = APPROVAL_ROLE ( '' ) ;
#129 = CC_DESIGN_SECURITY_CLASSIFICATION ( #161, ( #205 ) ) ;
#130 = ORIENTED_EDGE ( 'NONE', *, *, #168, .T. ) ;
#131 = ADVANCED_FACE ( 'NONE', ( #64 ), #6, .F. ) ;
#132 = ORIENTED_EDGE ( 'NONE', *, *, #28, .F. ) ;
#133 = LINE ( 'NONE', #152, #59 ) ;
#134 = CC_DESIGN_APPROVAL ( #154, ( #205 ) ) ;
#135 = EDGE_CURVE ( 'NONE', #158, #225, #79, .T. ) ;
#136 = DIRECTION ( 'NONE',  ( 0.000000000000000000, 0.000000000000000000, -1.000000000000000000 ) ) ;
#137 = LINE ( 'NONE', #207, #227 ) ;
#138 = CARTESIAN_POINT ( 'NONE',  ( 1377.500000000000000, -12.49999999999949374, 2.500000000000000000 ) ) ;
#139 = LINE ( 'NONE', #192, #45 ) ;
#140 = CARTESIAN_POINT ( 'NONE',  ( 1377.500000000000000, 12.50000000000050804, 2.500000000000000000 ) ) ;
#141 = MANIFOLD_SOLID_BREP ( 'Flat bar 25 X 5 FLAT BAR(1)', #16 ) ;
#142 = DATE_TIME_ROLE ( 'creation_date' ) ;
#143 = LOCAL_TIME ( 16, 9, 23.00000000000000000, #88 ) ;
#144 = PERSON_AND_ORGANIZATION ( #96, #200 ) ;
#145 = ORIENTED_EDGE ( 'NONE', *, *, #208, .T. ) ;
#146 = ORIENTED_EDGE ( 'NONE', *, *, #32, .T. ) ;
#147 = VERTEX_POINT ( 'NONE', #81 ) ;
#148 = CARTESIAN_POINT ( 'NONE',  ( -1377.500000000000000, 12.49999999999966427, -2.500000000000000000 ) ) ;
#149 = DIRECTION ( 'NONE',  ( 0.000000000000000000, 0.000000000000000000, -1.000000000000000000 ) ) ;
#150 = CC_DESIGN_APPROVAL ( #46, ( #161 ) ) ;
#151 = DIRECTION ( 'NONE',  ( 0.000000000000000000, 0.000000000000000000, -1.000000000000000000 ) ) ;
#152 = CARTESIAN_POINT ( 'NONE',  ( 1377.500000000000000, 12.50000000000050804, 2.500000000000000000 ) ) ;
#153 = DIRECTION ( 'NONE',  ( -3.061616997868382648E-16, 1.000000000000000000, 0.000000000000000000 ) ) ;
#154 = APPROVAL ( #155, 'UNSPECIFIED' ) ;
#155 = APPROVAL_STATUS ( 'not_yet_approved' ) ;
#156 =( LENGTH_UNIT ( ) NAMED_UNIT ( * ) SI_UNIT ( .MILLI., .METRE. ) );
#157 = PERSON_AND_ORGANIZATION_ROLE ( 'design_owner' ) ;
#158 = VERTEX_POINT ( 'NONE', #221 ) ;
#159 = PERSON_AND_ORGANIZATION_ROLE ( 'creator' ) ;
#160 = EDGE_LOOP ( 'NONE', ( #130, #21, #145, #201 ) ) ;
#161 = SECURITY_CLASSIFICATION ( '', '', #72 ) ;
#162 = DIRECTION ( 'NONE',  ( 3.061616997868382648E-16, -1.000000000000000000, 0.000000000000000000 ) ) ;
#163 = ORIENTED_EDGE ( 'NONE', *, *, #110, .F. ) ;
#164 = CC_DESIGN_PERSON_AND_ORGANIZATION_ASSIGNMENT ( #198, #194, ( #111 ) ) ;
#165 = ORIENTED_EDGE ( 'NONE', *, *, #32, .F. ) ;
#166 = AXIS2_PLACEMENT_3D ( 'NONE', #228, #162, #33 ) ;
#167 = LINE ( 'NONE', #7, #114 ) ;
#168 = EDGE_CURVE ( 'NONE', #225, #202, #60, .T. ) ;
#169 = COORDINATED_UNIVERSAL_TIME_OFFSET ( 10, 0, .AHEAD. ) ;
#170 = DIRECTION ( 'NONE',  ( -0.000000000000000000, 0.000000000000000000, 1.000000000000000000 ) ) ;
#171 = LINE ( 'NONE', #82, #41 ) ;
#172 = AXIS2_PLACEMENT_3D ( 'NONE', #203, #24, #170 ) ;
#173 = DIRECTION ( 'NONE',  ( 1.000000000000000000, 3.061616997868382648E-16, -0.000000000000000000 ) ) ;
#174 = CC_DESIGN_PERSON_AND_ORGANIZATION_ASSIGNMENT ( #126, #159, ( #205 ) ) ;
#175 = FACE_OUTER_BOUND ( 'NONE', #95, .T. ) ;
#176 = CC_DESIGN_DATE_AND_TIME_ASSIGNMENT ( #204, #189, ( #161 ) ) ;
#177 = CALENDAR_DATE ( 2026, 4, 1 ) ;
#178 = APPROVAL_ROLE ( '' ) ;
#179 = CC_DESIGN_APPROVAL ( #84, ( #111 ) ) ;
#180 = FACE_OUTER_BOUND ( 'NONE', #18, .T. ) ;
#181 = APPLICATION_CONTEXT ( 'configuration controlled 3d designs of mechanical parts and assemblies' ) ;
#182 = MECHANICAL_CONTEXT ( 'NONE', #181, 'mechanical' ) ;
#183 = PERSON_AND_ORGANIZATION ( #96, #200 ) ;
#184 = CC_DESIGN_PERSON_AND_ORGANIZATION_ASSIGNMENT ( #144, #186, ( #161 ) ) ;
#185 = ORIENTED_EDGE ( 'NONE', *, *, #90, .T. ) ;
#186 = PERSON_AND_ORGANIZATION_ROLE ( 'classification_officer' ) ;
#187 = DIRECTION ( 'NONE',  ( -0.000000000000000000, 0.000000000000000000, 1.000000000000000000 ) ) ;
#188 = PLANE ( 'NONE',  #172 ) ;
#189 = DATE_TIME_ROLE ( 'classification_date' ) ;
#190 = DIRECTION ( 'NONE',  ( 1.000000000000000000, 3.061616997868382648E-16, -0.000000000000000000 ) ) ;
#191 = LINE ( 'NONE', #39, #197 ) ;
#192 = CARTESIAN_POINT ( 'NONE',  ( -1377.500000000000000, -12.50000000000033751, 2.500000000000000000 ) ) ;
#193 =( NAMED_UNIT ( * ) PLANE_ANGLE_UNIT ( ) SI_UNIT ( $, .RADIAN. ) );
#194 = PERSON_AND_ORGANIZATION_ROLE ( 'creator' ) ;
#195 = CARTESIAN_POINT ( 'NONE',  ( -1377.500000000000000, 12.49999999999966427, 2.500000000000000000 ) ) ;
#196 = CC_DESIGN_PERSON_AND_ORGANIZATION_ASSIGNMENT ( #29, #157, ( #71 ) ) ;
#197 = VECTOR ( 'NONE', #209, 1000.000000000000000 ) ;
#198 = PERSON_AND_ORGANIZATION ( #96, #200 ) ;
#199 = SHAPE_DEFINITION_REPRESENTATION ( #80, #76 ) ;
#200 = ORGANIZATION ( 'UNSPECIFIED', 'UNSPECIFIED', '' ) ;
#201 = ORIENTED_EDGE ( 'NONE', *, *, #135, .T. ) ;
#202 = VERTEX_POINT ( 'NONE', #120 ) ;
#203 = CARTESIAN_POINT ( 'NONE',  ( -1377.500000000000000, -8.434754829127394310E-13, 0.000000000000000000 ) ) ;
#204 = DATE_AND_TIME ( #1, #63 ) ;
#205 = PRODUCT_DEFINITION_FORMATION_WITH_SPECIFIED_SOURCE ( 'ANY', '', #71, .NOT_KNOWN. ) ;
#206 = DIRECTION ( 'NONE',  ( 0.000000000000000000, -1.000000000000000000, 0.000000000000000000 ) ) ;
#207 = CARTESIAN_POINT ( 'NONE',  ( -1377.500000000000000, -12.50000000000033751, -2.500000000000000000 ) ) ;
#208 = EDGE_CURVE ( 'NONE', #22, #158, #171, .T. ) ;
#209 = DIRECTION ( 'NONE',  ( -0.000000000000000000, 1.000000000000000000, -0.000000000000000000 ) ) ;
#210 = EDGE_CURVE ( 'NONE', #225, #147, #137, .T. ) ;
#211 = COORDINATED_UNIVERSAL_TIME_OFFSET ( 10, 0, .AHEAD. ) ;
#212 = PERSON_AND_ORGANIZATION ( #96, #200 ) ;
#213 = PRODUCT_RELATED_PRODUCT_CATEGORY ( 'detail', '', ( #71 ) ) ;
#214 = EDGE_CURVE ( 'NONE', #147, #78, #83, .T. ) ;
#215 = AXIS2_PLACEMENT_3D ( 'NONE', #37, #10, #75 ) ;
#216 = VERTEX_POINT ( 'NONE', #140 ) ;
#217 = ORIENTED_EDGE ( 'NONE', *, *, #116, .F. ) ;
#218 = VERTEX_POINT ( 'NONE', #235 ) ;
#219 = EDGE_LOOP ( 'NONE', ( #185, #38, #58, #55 ) ) ;
#220 = EDGE_CURVE ( 'NONE', #202, #22, #20, .T. ) ;
#221 = CARTESIAN_POINT ( 'NONE',  ( -1377.500000000000000, 12.49999999999966427, -2.500000000000000000 ) ) ;
#222 = FACE_OUTER_BOUND ( 'NONE', #160, .T. ) ;
#223 = ADVANCED_FACE ( 'NONE', ( #180 ), #11, .F. ) ;
#224 = DIRECTION ( 'NONE',  ( 0.000000000000000000, -1.000000000000000000, 0.000000000000000000 ) ) ;
#225 = VERTEX_POINT ( 'NONE', #108 ) ;
#226 = PLANE ( 'NONE',  #49 ) ;
#227 = VECTOR ( 'NONE', #121, 1000.000000000000000 ) ;
#228 = CARTESIAN_POINT ( 'NONE',  ( -1377.500000000000000, 12.49999999999966427, 2.500000000000000000 ) ) ;
#229 = APPLICATION_PROTOCOL_DEFINITION ( 'international standard', 'config_control_design', 1994, #35 ) ;
#230 = UNCERTAINTY_MEASURE_WITH_UNIT (LENGTH_MEASURE( 1.000000000000000082E-05 ), #156, 'distance_accuracy_value', 'NONE');
#231 = PERSON_AND_ORGANIZATION ( #96, #200 ) ;
#232 = LOCAL_TIME ( 16, 9, 23.00000000000000000, #211 ) ;
#233 = CC_DESIGN_DATE_AND_TIME_ASSIGNMENT ( #8, #142, ( #111 ) ) ;
#234 = ORIENTED_EDGE ( 'NONE', *, *, #15, .F. ) ;
#235 = CARTESIAN_POINT ( 'NONE',  ( 1377.500000000000000, 12.50000000000050804, -2.500000000000000000 ) ) ;
#236 = ORIENTED_EDGE ( 'NONE', *, *, #15, .T. ) ;
#237 = ORIENTED_EDGE ( 'NONE', *, *, #214, .F. ) ;
ENDSEC;
END-ISO-10303-21;
