ISO-10303-21;
HEADER;
FILE_DESCRIPTION (( 'STEP AP203' ),
    '1' );
FILE_NAME ('3467-MU103-20-36_REV_.step',
    '2026-01-04T05:04:47',
    ( '' ),
    ( '' ),
    'SwSTEP 2.0',
    'SolidWorks 2025',
    '' );
FILE_SCHEMA (( 'CONFIG_CONTROL_DESIGN' ));
ENDSEC;

DATA;
#1 = ORIENTED_EDGE ( 'NONE', *, *, #97, .F. ) ;
#2 = CC_DESIGN_DATE_AND_TIME_ASSIGNMENT ( #46, #148, ( #159 ) ) ;
#3 = PLANE ( 'NONE',  #234 ) ;
#4 = DIRECTION ( 'NONE',  ( -1.000000000000000000, -3.061616997868383141E-16, 0.000000000000000000 ) ) ;
#5 = LINE ( 'NONE', #74, #125 ) ;
#6 = EDGE_CURVE ( 'NONE', #179, #72, #206, .T. ) ;
#7 = DIRECTION ( 'NONE',  ( 0.000000000000000000, 0.000000000000000000, -1.000000000000000000 ) ) ;
#8 = SECURITY_CLASSIFICATION_LEVEL ( 'unclassified' ) ;
#9 = CARTESIAN_POINT ( 'NONE',  ( 1585.000000000000000, 12.50000000000058265, -2.500000000000000000 ) ) ;
#10 = DATE_AND_TIME ( #95, #181 ) ;
#11 = VERTEX_POINT ( 'NONE', #208 ) ;
#12 = ADVANCED_FACE ( 'NONE', ( #63 ), #21, .F. ) ;
#13 = APPROVAL_DATE_TIME ( #41, #54 ) ;
#14 = LINE ( 'NONE', #84, #42 ) ;
#15 = DIRECTION ( 'NONE',  ( -1.000000000000000000, 0.000000000000000000, -0.000000000000000000 ) ) ;
#16 = CC_DESIGN_PERSON_AND_ORGANIZATION_ASSIGNMENT ( #78, #150, ( #147 ) ) ;
#17 = VECTOR ( 'NONE', #205, 1000.000000000000000 ) ;
#18 = EDGE_CURVE ( 'NONE', #11, #72, #119, .T. ) ;
#19 = VERTEX_POINT ( 'NONE', #59 ) ;
#20 = LOCAL_TIME ( 16, 4, 47.00000000000000000, #138 ) ;
#21 = PLANE ( 'NONE',  #161 ) ;
#22 = APPLICATION_PROTOCOL_DEFINITION ( 'international standard', 'config_control_design', 1994, #221 ) ;
#23 = EDGE_CURVE ( 'NONE', #19, #124, #36, .T. ) ;
#24 = LINE ( 'NONE', #171, #17 ) ;
#25 = PERSON_AND_ORGANIZATION_ROLE ( 'creator' ) ;
#26 = APPROVAL_PERSON_ORGANIZATION ( #118, #54, #133 ) ;
#27 = CARTESIAN_POINT ( 'NONE',  ( -1585.000000000000000, -12.50000000000038902, 2.500000000000000000 ) ) ;
#28 = PERSON_AND_ORGANIZATION ( #69, #198 ) ;
#29 = EDGE_LOOP ( 'NONE', ( #107, #108, #126, #94 ) ) ;
#30 = EDGE_CURVE ( 'NONE', #216, #11, #191, .T. ) ;
#31 = CARTESIAN_POINT ( 'NONE',  ( -1585.000000000000000, 12.49999999999961275, -2.500000000000000000 ) ) ;
#32 = PERSON_AND_ORGANIZATION ( #69, #198 ) ;
#33 = EDGE_CURVE ( 'NONE', #202, #151, #43, .T. ) ;
#34 = ORIENTED_EDGE ( 'NONE', *, *, #87, .F. ) ;
#35 = CLOSED_SHELL ( 'NONE', ( #219, #12, #57, #129, #48, #183 ) ) ;
#36 = LINE ( 'NONE', #58, #137 ) ;
#37 = PERSON_AND_ORGANIZATION ( #69, #198 ) ;
#38 = EDGE_LOOP ( 'NONE', ( #180, #165, #141, #217 ) ) ;
#39 = COORDINATED_UNIVERSAL_TIME_OFFSET ( 10, 0, .AHEAD. ) ;
#40 = DIRECTION ( 'NONE',  ( 0.000000000000000000, 0.000000000000000000, -1.000000000000000000 ) ) ;
#41 = DATE_AND_TIME ( #111, #121 ) ;
#42 = VECTOR ( 'NONE', #156, 1000.000000000000000 ) ;
#43 = LINE ( 'NONE', #127, #85 ) ;
#44 = APPROVAL_DATE_TIME ( #167, #139 ) ;
#45 = FACE_OUTER_BOUND ( 'NONE', #51, .T. ) ;
#46 = DATE_AND_TIME ( #212, #158 ) ;
#47 = PRODUCT_DEFINITION_SHAPE ( 'NONE', 'NONE',  #159 ) ;
#48 = ADVANCED_FACE ( 'NONE', ( #77 ), #112, .T. ) ;
#49 = EDGE_CURVE ( 'NONE', #151, #11, #24, .T. ) ;
#50 = DIRECTION ( 'NONE',  ( -0.000000000000000000, 0.000000000000000000, 1.000000000000000000 ) ) ;
#51 = EDGE_LOOP ( 'NONE', ( #237, #114, #53, #140 ) ) ;
#52 = EDGE_CURVE ( 'NONE', #202, #216, #149, .T. ) ;
#53 = ORIENTED_EDGE ( 'NONE', *, *, #67, .F. ) ;
#54 = APPROVAL ( #60, 'UNSPECIFIED' ) ;
#55 = ORIENTED_EDGE ( 'NONE', *, *, #6, .T. ) ;
#56 = PRODUCT_RELATED_PRODUCT_CATEGORY ( 'detail', '', ( #176 ) ) ;
#57 = ADVANCED_FACE ( 'NONE', ( #45 ), #166, .F. ) ;
#58 = CARTESIAN_POINT ( 'NONE',  ( -1585.000000000000000, -12.50000000000038902, -2.500000000000000000 ) ) ;
#59 = CARTESIAN_POINT ( 'NONE',  ( -1585.000000000000000, -12.50000000000038902, -2.500000000000000000 ) ) ;
#60 = APPROVAL_STATUS ( 'not_yet_approved' ) ;
#61 = DIRECTION ( 'NONE',  ( 1.000000000000000000, 3.061616997868383141E-16, -0.000000000000000000 ) ) ;
#62 = DIRECTION ( 'NONE',  ( -3.061616997868383141E-16, 1.000000000000000000, 0.000000000000000000 ) ) ;
#63 = FACE_OUTER_BOUND ( 'NONE', #38, .T. ) ;
#64 = MECHANICAL_CONTEXT ( 'NONE', #135, 'mechanical' ) ;
#65 = CC_DESIGN_PERSON_AND_ORGANIZATION_ASSIGNMENT ( #90, #115, ( #159 ) ) ;
#66 = CARTESIAN_POINT ( 'NONE',  ( -1585.000000000000000, 12.49999999999961275, 2.500000000000000000 ) ) ;
#67 = EDGE_CURVE ( 'NONE', #151, #179, #173, .T. ) ;
#68 = VECTOR ( 'NONE', #153, 1000.000000000000000 ) ;
#69 = PERSON ( 'UNSPECIFIED', 'UNSPECIFIED', 'UNSPECIFIED', ('UNSPECIFIED'), ('UNSPECIFIED'), ('UNSPECIFIED') ) ;
#70 = ORIENTED_EDGE ( 'NONE', *, *, #215, .F. ) ;
#71 = ORIENTED_EDGE ( 'NONE', *, *, #18, .F. ) ;
#72 = VERTEX_POINT ( 'NONE', #9 ) ;
#73 = DIRECTION ( 'NONE',  ( -0.000000000000000000, 1.000000000000000000, -0.000000000000000000 ) ) ;
#74 = CARTESIAN_POINT ( 'NONE',  ( 1585.000000000000000, -12.49999999999941913, 2.500000000000000000 ) ) ;
#75 = MANIFOLD_SOLID_BREP ( 'Flat bar 25 X 5 FLAT BAR(1)', #35 ) ;
#76 = COORDINATED_UNIVERSAL_TIME_OFFSET ( 10, 0, .AHEAD. ) ;
#77 = FACE_OUTER_BOUND ( 'NONE', #29, .T. ) ;
#78 = PERSON_AND_ORGANIZATION ( #69, #198 ) ;
#79 = ORIENTED_EDGE ( 'NONE', *, *, #23, .F. ) ;
#80 = PLANE ( 'NONE',  #116 ) ;
#81 = CARTESIAN_POINT ( 'NONE',  ( -1585.000000000000000, -9.705325883242773870E-13, 0.000000000000000000 ) ) ;
#82 = APPROVAL_PERSON_ORGANIZATION ( #28, #139, #210 ) ;
#83 = APPROVAL_STATUS ( 'not_yet_approved' ) ;
#84 = CARTESIAN_POINT ( 'NONE',  ( 1585.000000000000000, 12.50000000000058265, -2.500000000000000000 ) ) ;
#85 = VECTOR ( 'NONE', #211, 1000.000000000000000 ) ;
#86 = ORIENTED_EDGE ( 'NONE', *, *, #52, .F. ) ;
#87 = EDGE_CURVE ( 'NONE', #179, #19, #144, .T. ) ;
#88 = FACE_OUTER_BOUND ( 'NONE', #204, .T. ) ;
#89 = CARTESIAN_POINT ( 'NONE',  ( -1585.000000000000000, 12.49999999999961275, -2.500000000000000000 ) ) ;
#90 = PERSON_AND_ORGANIZATION ( #69, #198 ) ;
#91 = DIRECTION ( 'NONE',  ( -1.000000000000000000, 0.000000000000000000, -0.000000000000000000 ) ) ;
#92 = PERSON_AND_ORGANIZATION ( #69, #198 ) ;
#93 = VECTOR ( 'NONE', #136, 1000.000000000000000 ) ;
#94 = ORIENTED_EDGE ( 'NONE', *, *, #87, .T. ) ;
#95 = CALENDAR_DATE ( 2026, 4, 1 ) ;
#96 = DIRECTION ( 'NONE',  ( -1.000000000000000000, 0.000000000000000000, -0.000000000000000000 ) ) ;
#97 = EDGE_CURVE ( 'NONE', #19, #202, #146, .T. ) ;
#98 = CC_DESIGN_PERSON_AND_ORGANIZATION_ASSIGNMENT ( #169, #25, ( #199 ) ) ;
#99 = CC_DESIGN_APPROVAL ( #139, ( #199 ) ) ;
#100 = PLANE ( 'NONE',  #190 ) ;
#101 = APPROVAL_ROLE ( '' ) ;
#102 =( GEOMETRIC_REPRESENTATION_CONTEXT ( 3 ) GLOBAL_UNCERTAINTY_ASSIGNED_CONTEXT ( ( #187 ) ) GLOBAL_UNIT_ASSIGNED_CONTEXT ( ( #222, #189, #145 ) ) REPRESENTATION_CONTEXT ( 'NONE', 'WORKASPACE' ) );
#103 = CC_DESIGN_SECURITY_CLASSIFICATION ( #147, ( #199 ) ) ;
#104 = FACE_OUTER_BOUND ( 'NONE', #178, .T. ) ;
#105 = LOCAL_TIME ( 16, 4, 47.00000000000000000, #39 ) ;
#106 = DESIGN_CONTEXT ( 'detailed design', #221, 'design' ) ;
#107 = ORIENTED_EDGE ( 'NONE', *, *, #97, .T. ) ;
#108 = ORIENTED_EDGE ( 'NONE', *, *, #33, .T. ) ;
#109 = CC_DESIGN_DATE_AND_TIME_ASSIGNMENT ( #10, #235, ( #147 ) ) ;
#110 = CARTESIAN_POINT ( 'NONE',  ( -1585.000000000000000, -12.50000000000038902, 2.500000000000000000 ) ) ;
#111 = CALENDAR_DATE ( 2026, 4, 1 ) ;
#112 = PLANE ( 'NONE',  #120 ) ;
#113 = ADVANCED_BREP_SHAPE_REPRESENTATION ( '3467-MU103-20-36_REV_', ( #75, #142 ), #102 ) ;
#114 = ORIENTED_EDGE ( 'NONE', *, *, #6, .F. ) ;
#115 = PERSON_AND_ORGANIZATION_ROLE ( 'creator' ) ;
#116 = AXIS2_PLACEMENT_3D ( 'NONE', #154, #62, #4 ) ;
#117 = DIRECTION ( 'NONE',  ( 1.000000000000000000, 3.061616997868383141E-16, -0.000000000000000000 ) ) ;
#118 = PERSON_AND_ORGANIZATION ( #69, #198 ) ;
#119 = LINE ( 'NONE', #193, #196 ) ;
#120 = AXIS2_PLACEMENT_3D ( 'NONE', #81, #96, #188 ) ;
#121 = LOCAL_TIME ( 16, 4, 47.00000000000000000, #130 ) ;
#122 = APPROVAL ( #83, 'UNSPECIFIED' ) ;
#123 = EDGE_LOOP ( 'NONE', ( #201, #86, #1, #160 ) ) ;
#124 = VERTEX_POINT ( 'NONE', #195 ) ;
#125 = VECTOR ( 'NONE', #233, 1000.000000000000000 ) ;
#126 = ORIENTED_EDGE ( 'NONE', *, *, #67, .T. ) ;
#127 = CARTESIAN_POINT ( 'NONE',  ( -1585.000000000000000, 12.49999999999961275, 2.500000000000000000 ) ) ;
#128 = CARTESIAN_POINT ( 'NONE',  ( -1585.000000000000000, 12.49999999999961275, -2.500000000000000000 ) ) ;
#129 = ADVANCED_FACE ( 'NONE', ( #88 ), #3, .F. ) ;
#130 = COORDINATED_UNIVERSAL_TIME_OFFSET ( 10, 0, .AHEAD. ) ;
#131 = DIRECTION ( 'NONE',  ( 1.000000000000000000, 3.061616997868383141E-16, 0.000000000000000000 ) ) ;
#132 = CARTESIAN_POINT ( 'NONE',  ( 1585.000000000000000, 12.50000000000058265, 2.500000000000000000 ) ) ;
#133 = APPROVAL_ROLE ( '' ) ;
#134 = VECTOR ( 'NONE', #73, 1000.000000000000000 ) ;
#135 = APPLICATION_CONTEXT ( 'configuration controlled 3d designs of mechanical parts and assemblies' ) ;
#136 = DIRECTION ( 'NONE',  ( -0.000000000000000000, -0.000000000000000000, 1.000000000000000000 ) ) ;
#137 = VECTOR ( 'NONE', #117, 1000.000000000000000 ) ;
#138 = COORDINATED_UNIVERSAL_TIME_OFFSET ( 10, 0, .AHEAD. ) ;
#139 = APPROVAL ( #184, 'UNSPECIFIED' ) ;
#140 = ORIENTED_EDGE ( 'NONE', *, *, #49, .T. ) ;
#141 = ORIENTED_EDGE ( 'NONE', *, *, #33, .F. ) ;
#142 = AXIS2_PLACEMENT_3D ( 'NONE', #152, #192, #174 ) ;
#143 = EDGE_CURVE ( 'NONE', #124, #216, #5, .T. ) ;
#144 = LINE ( 'NONE', #209, #203 ) ;
#145 =( NAMED_UNIT ( * ) SI_UNIT ( $, .STERADIAN. ) SOLID_ANGLE_UNIT ( ) );
#146 = LINE ( 'NONE', #110, #93 ) ;
#147 = SECURITY_CLASSIFICATION ( '', '', #8 ) ;
#148 = DATE_TIME_ROLE ( 'creation_date' ) ;
#149 = LINE ( 'NONE', #27, #213 ) ;
#150 = PERSON_AND_ORGANIZATION_ROLE ( 'classification_officer' ) ;
#151 = VERTEX_POINT ( 'NONE', #214 ) ;
#152 = CARTESIAN_POINT ( 'NONE',  ( 0.000000000000000000, 0.000000000000000000, 0.000000000000000000 ) ) ;
#153 = DIRECTION ( 'NONE',  ( 0.000000000000000000, 0.000000000000000000, -1.000000000000000000 ) ) ;
#154 = CARTESIAN_POINT ( 'NONE',  ( -1585.000000000000000, -12.50000000000038902, 2.500000000000000000 ) ) ;
#155 = APPROVAL_DATE_TIME ( #197, #122 ) ;
#156 = DIRECTION ( 'NONE',  ( 0.000000000000000000, -1.000000000000000000, 0.000000000000000000 ) ) ;
#157 = CALENDAR_DATE ( 2026, 4, 1 ) ;
#158 = LOCAL_TIME ( 16, 4, 47.00000000000000000, #76 ) ;
#159 = PRODUCT_DEFINITION ( 'UNKNOWN', '', #199, #106 ) ;
#160 = ORIENTED_EDGE ( 'NONE', *, *, #23, .T. ) ;
#161 = AXIS2_PLACEMENT_3D ( 'NONE', #226, #40, #91 ) ;
#162 = CC_DESIGN_APPROVAL ( #54, ( #159 ) ) ;
#163 = ORIENTED_EDGE ( 'NONE', *, *, #215, .T. ) ;
#164 = CC_DESIGN_PERSON_AND_ORGANIZATION_ASSIGNMENT ( #37, #225, ( #176 ) ) ;
#165 = ORIENTED_EDGE ( 'NONE', *, *, #49, .F. ) ;
#166 = PLANE ( 'NONE',  #170 ) ;
#167 = DATE_AND_TIME ( #186, #105 ) ;
#168 = DIRECTION ( 'NONE',  ( 1.000000000000000000, 0.000000000000000000, -0.000000000000000000 ) ) ;
#169 = PERSON_AND_ORGANIZATION ( #69, #198 ) ;
#170 = AXIS2_PLACEMENT_3D ( 'NONE', #66, #228, #131 ) ;
#171 = CARTESIAN_POINT ( 'NONE',  ( -1585.000000000000000, 12.49999999999961275, 2.500000000000000000 ) ) ;
#172 = PERSON_AND_ORGANIZATION_ROLE ( 'design_supplier' ) ;
#173 = LINE ( 'NONE', #175, #68 ) ;
#174 = DIRECTION ( 'NONE',  ( 1.000000000000000000, 0.000000000000000000, 0.000000000000000000 ) ) ;
#175 = CARTESIAN_POINT ( 'NONE',  ( -1585.000000000000000, 12.49999999999961275, 2.500000000000000000 ) ) ;
#176 = PRODUCT ( '3467-MU103-20-36_REV_', '3467-MU103-20-36_REV_', '', ( #64 ) ) ;
#177 = CARTESIAN_POINT ( 'NONE',  ( 1585.000000000000000, 0.000000000000000000, 0.000000000000000000 ) ) ;
#178 = EDGE_LOOP ( 'NONE', ( #182, #70, #71, #185 ) ) ;
#179 = VERTEX_POINT ( 'NONE', #31 ) ;
#180 = ORIENTED_EDGE ( 'NONE', *, *, #30, .T. ) ;
#181 = LOCAL_TIME ( 16, 4, 47.00000000000000000, #227 ) ;
#182 = ORIENTED_EDGE ( 'NONE', *, *, #143, .F. ) ;
#183 = ADVANCED_FACE ( 'NONE', ( #104 ), #100, .F. ) ;
#184 = APPROVAL_STATUS ( 'not_yet_approved' ) ;
#185 = ORIENTED_EDGE ( 'NONE', *, *, #30, .F. ) ;
#186 = CALENDAR_DATE ( 2026, 4, 1 ) ;
#187 = UNCERTAINTY_MEASURE_WITH_UNIT (LENGTH_MEASURE( 1.000000000000000082E-05 ), #222, 'distance_accuracy_value', 'NONE');
#188 = DIRECTION ( 'NONE',  ( -0.000000000000000000, 0.000000000000000000, 1.000000000000000000 ) ) ;
#189 =( NAMED_UNIT ( * ) PLANE_ANGLE_UNIT ( ) SI_UNIT ( $, .RADIAN. ) );
#190 = AXIS2_PLACEMENT_3D ( 'NONE', #177, #15, #50 ) ;
#191 = LINE ( 'NONE', #132, #134 ) ;
#192 = DIRECTION ( 'NONE',  ( 0.000000000000000000, 0.000000000000000000, 1.000000000000000000 ) ) ;
#193 = CARTESIAN_POINT ( 'NONE',  ( 1585.000000000000000, 12.50000000000058265, 2.500000000000000000 ) ) ;
#194 = FACE_OUTER_BOUND ( 'NONE', #123, .T. ) ;
#195 = CARTESIAN_POINT ( 'NONE',  ( 1585.000000000000000, -12.49999999999941913, -2.500000000000000000 ) ) ;
#196 = VECTOR ( 'NONE', #7, 1000.000000000000000 ) ;
#197 = DATE_AND_TIME ( #157, #20 ) ;
#198 = ORGANIZATION ( 'UNSPECIFIED', 'UNSPECIFIED', '' ) ;
#199 = PRODUCT_DEFINITION_FORMATION_WITH_SPECIFIED_SOURCE ( 'ANY', '', #176, .NOT_KNOWN. ) ;
#200 = CC_DESIGN_PERSON_AND_ORGANIZATION_ASSIGNMENT ( #92, #172, ( #199 ) ) ;
#201 = ORIENTED_EDGE ( 'NONE', *, *, #143, .T. ) ;
#202 = VERTEX_POINT ( 'NONE', #231 ) ;
#203 = VECTOR ( 'NONE', #230, 1000.000000000000000 ) ;
#204 = EDGE_LOOP ( 'NONE', ( #163, #79, #34, #55 ) ) ;
#205 = DIRECTION ( 'NONE',  ( 1.000000000000000000, 3.061616997868383141E-16, -0.000000000000000000 ) ) ;
#206 = LINE ( 'NONE', #128, #236 ) ;
#207 = APPLICATION_PROTOCOL_DEFINITION ( 'international standard', 'config_control_design', 1994, #135 ) ;
#208 = CARTESIAN_POINT ( 'NONE',  ( 1585.000000000000000, 12.50000000000058265, 2.500000000000000000 ) ) ;
#209 = CARTESIAN_POINT ( 'NONE',  ( -1585.000000000000000, 12.49999999999961275, -2.500000000000000000 ) ) ;
#210 = APPROVAL_ROLE ( '' ) ;
#211 = DIRECTION ( 'NONE',  ( -0.000000000000000000, 1.000000000000000000, -0.000000000000000000 ) ) ;
#212 = CALENDAR_DATE ( 2026, 4, 1 ) ;
#213 = VECTOR ( 'NONE', #61, 1000.000000000000000 ) ;
#214 = CARTESIAN_POINT ( 'NONE',  ( -1585.000000000000000, 12.49999999999961275, 2.500000000000000000 ) ) ;
#215 = EDGE_CURVE ( 'NONE', #72, #124, #14, .T. ) ;
#216 = VERTEX_POINT ( 'NONE', #229 ) ;
#217 = ORIENTED_EDGE ( 'NONE', *, *, #52, .T. ) ;
#218 = APPROVAL_PERSON_ORGANIZATION ( #32, #122, #101 ) ;
#219 = ADVANCED_FACE ( 'NONE', ( #194 ), #80, .F. ) ;
#220 = DIRECTION ( 'NONE',  ( 1.000000000000000000, 3.061616997868383141E-16, -0.000000000000000000 ) ) ;
#221 = APPLICATION_CONTEXT ( 'configuration controlled 3d designs of mechanical parts and assemblies' ) ;
#222 =( LENGTH_UNIT ( ) NAMED_UNIT ( * ) SI_UNIT ( .MILLI., .METRE. ) );
#223 = CC_DESIGN_APPROVAL ( #122, ( #147 ) ) ;
#224 = DIRECTION ( 'NONE',  ( 0.000000000000000000, 0.000000000000000000, 1.000000000000000000 ) ) ;
#225 = PERSON_AND_ORGANIZATION_ROLE ( 'design_owner' ) ;
#226 = CARTESIAN_POINT ( 'NONE',  ( -1585.000000000000000, 12.49999999999961275, 2.500000000000000000 ) ) ;
#227 = COORDINATED_UNIVERSAL_TIME_OFFSET ( 10, 0, .AHEAD. ) ;
#228 = DIRECTION ( 'NONE',  ( 3.061616997868383141E-16, -1.000000000000000000, 0.000000000000000000 ) ) ;
#229 = CARTESIAN_POINT ( 'NONE',  ( 1585.000000000000000, -12.49999999999941913, 2.500000000000000000 ) ) ;
#230 = DIRECTION ( 'NONE',  ( 0.000000000000000000, -1.000000000000000000, 0.000000000000000000 ) ) ;
#231 = CARTESIAN_POINT ( 'NONE',  ( -1585.000000000000000, -12.50000000000038902, 2.500000000000000000 ) ) ;
#232 = SHAPE_DEFINITION_REPRESENTATION ( #47, #113 ) ;
#233 = DIRECTION ( 'NONE',  ( -0.000000000000000000, -0.000000000000000000, 1.000000000000000000 ) ) ;
#234 = AXIS2_PLACEMENT_3D ( 'NONE', #89, #224, #168 ) ;
#235 = DATE_TIME_ROLE ( 'classification_date' ) ;
#236 = VECTOR ( 'NONE', #220, 1000.000000000000000 ) ;
#237 = ORIENTED_EDGE ( 'NONE', *, *, #18, .T. ) ;
ENDSEC;
END-ISO-10303-21;
