ISO-10303-21;
HEADER;
FILE_DESCRIPTION (( 'STEP AP203' ),
    '1' );
FILE_NAME ('3483-MU103-40_REV_.step',
    '2026-01-04T05:02:53',
    ( '' ),
    ( '' ),
    'SwSTEP 2.0',
    'SolidWorks 2025',
    '' );
FILE_SCHEMA (( 'CONFIG_CONTROL_DESIGN' ));
ENDSEC;

DATA;
#1 = PERSON_AND_ORGANIZATION ( #56, #252 ) ;
#2 = ORIENTED_EDGE ( 'NONE', *, *, #77, .F. ) ;
#3 = VERTEX_POINT ( 'NONE', #92 ) ;
#4 = ORIENTED_EDGE ( 'NONE', *, *, #295, .F. ) ;
#5 = ORIENTED_EDGE ( 'NONE', *, *, #32, .F. ) ;
#6 = CARTESIAN_POINT ( 'NONE',  ( -187.5000000000000000, 485.0000000000000000, -1.550000000000000044 ) ) ;
#7 = EDGE_CURVE ( 'NONE', #86, #189, #217, .T. ) ;
#8 = DIRECTION ( 'NONE',  ( 0.000000000000000000, 0.000000000000000000, 1.000000000000000000 ) ) ;
#9 = DIRECTION ( 'NONE',  ( -0.000000000000000000, 0.000000000000000000, -1.000000000000000000 ) ) ;
#10 = ORIENTED_EDGE ( 'NONE', *, *, #127, .F. ) ;
#11 = VERTEX_POINT ( 'NONE', #6 ) ;
#12 = AXIS2_PLACEMENT_3D ( 'NONE', #168, #314, #193 ) ;
#13 = APPROVAL_PERSON_ORGANIZATION ( #105, #298, #269 ) ;
#14 = EDGE_CURVE ( 'NONE', #66, #212, #129, .T. ) ;
#15 = FACE_OUTER_BOUND ( 'NONE', #71, .T. ) ;
#16 = CARTESIAN_POINT ( 'NONE',  ( 187.5000000000000000, 485.0000000000000000, 0.000000000000000000 ) ) ;
#17 = DIRECTION ( 'NONE',  ( 1.000000000000000000, 0.000000000000000000, 0.000000000000000000 ) ) ;
#18 = LINE ( 'NONE', #320, #52 ) ;
#19 = APPROVAL_STATUS ( 'not_yet_approved' ) ;
#20 = CYLINDRICAL_SURFACE ( 'NONE', #270, 14.99999999999998579 ) ;
#21 = DATE_AND_TIME ( #321, #81 ) ;
#22 = DIRECTION ( 'NONE',  ( -0.000000000000000000, -0.000000000000000000, -1.000000000000000000 ) ) ;
#23 = PERSON_AND_ORGANIZATION ( #56, #252 ) ;
#24 = CARTESIAN_POINT ( 'NONE',  ( 172.5000000000000284, 485.0000000000000000, 0.000000000000000000 ) ) ;
#25 = CALENDAR_DATE ( 2026, 4, 1 ) ;
#26 = ADVANCED_FACE ( 'NONE', ( #283 ), #246, .T. ) ;
#27 = PERSON_AND_ORGANIZATION_ROLE ( 'design_supplier' ) ;
#28 = AXIS2_PLACEMENT_3D ( 'NONE', #368, #249, #191 ) ;
#29 = ORIENTED_EDGE ( 'NONE', *, *, #300, .F. ) ;
#30 = ORIENTED_EDGE ( 'NONE', *, *, #77, .T. ) ;
#31 = DIRECTION ( 'NONE',  ( -1.000000000000000000, 0.000000000000000000, 0.000000000000000000 ) ) ;
#32 = EDGE_CURVE ( 'NONE', #271, #328, #244, .T. ) ;
#33 = PLANE ( 'NONE',  #202 ) ;
#34 = VERTEX_POINT ( 'NONE', #16 ) ;
#35 = CARTESIAN_POINT ( 'NONE',  ( -172.5000000000000284, 500.0000000000000000, -1.550000000000000044 ) ) ;
#36 = EDGE_CURVE ( 'NONE', #11, #39, #315, .T. ) ;
#37 = ORIENTED_EDGE ( 'NONE', *, *, #7, .F. ) ;
#38 = LINE ( 'NONE', #288, #90 ) ;
#39 = VERTEX_POINT ( 'NONE', #184 ) ;
#40 = ADVANCED_FACE ( 'NONE', ( #307 ), #278, .T. ) ;
#41 = FACE_OUTER_BOUND ( 'NONE', #150, .T. ) ;
#42 = CARTESIAN_POINT ( 'NONE',  ( -187.5000000000000000, 500.0000000000000000, -1.550000000000000044 ) ) ;
#43 = CIRCLE ( 'NONE', #362, 14.99999999999998579 ) ;
#44 = LOCAL_TIME ( 16, 2, 53.00000000000000000, #325 ) ;
#45 = CYLINDRICAL_SURFACE ( 'NONE', #216, 14.99999999999998579 ) ;
#46 = DIRECTION ( 'NONE',  ( 0.000000000000000000, -0.000000000000000000, 1.000000000000000000 ) ) ;
#47 = ADVANCED_FACE ( 'NONE', ( #126 ), #359, .T. ) ;
#48 = COORDINATED_UNIVERSAL_TIME_OFFSET ( 10, 0, .AHEAD. ) ;
#49 = DIRECTION ( 'NONE',  ( 0.000000000000000000, 0.000000000000000000, 1.000000000000000000 ) ) ;
#50 = DATE_AND_TIME ( #264, #44 ) ;
#51 = CARTESIAN_POINT ( 'NONE',  ( 172.5000000000000284, 485.0000000000000000, -1.550000000000000044 ) ) ;
#52 = VECTOR ( 'NONE', #22, 1000.000000000000000 ) ;
#53 = VECTOR ( 'NONE', #360, 1000.000000000000000 ) ;
#54 = DATE_TIME_ROLE ( 'creation_date' ) ;
#55 = DIRECTION ( 'NONE',  ( -0.000000000000000000, 0.000000000000000000, 1.000000000000000000 ) ) ;
#56 = PERSON ( 'UNSPECIFIED', 'UNSPECIFIED', 'UNSPECIFIED', ('UNSPECIFIED'), ('UNSPECIFIED'), ('UNSPECIFIED') ) ;
#57 = SHAPE_DEFINITION_REPRESENTATION ( #60, #213 ) ;
#58 = ADVANCED_FACE ( 'NONE', ( #74 ), #20, .T. ) ;
#59 = PERSON_AND_ORGANIZATION_ROLE ( 'creator' ) ;
#60 = PRODUCT_DEFINITION_SHAPE ( 'NONE', 'NONE',  #138 ) ;
#61 = ORIENTED_EDGE ( 'NONE', *, *, #281, .F. ) ;
#62 = APPLICATION_CONTEXT ( 'configuration controlled 3d designs of mechanical parts and assemblies' ) ;
#63 = EDGE_CURVE ( 'NONE', #328, #86, #333, .T. ) ;
#64 = ADVANCED_FACE ( 'NONE', ( #319 ), #176, .T. ) ;
#65 = ORIENTED_EDGE ( 'NONE', *, *, #281, .T. ) ;
#66 = VERTEX_POINT ( 'NONE', #139 ) ;
#67 = ORIENTED_EDGE ( 'NONE', *, *, #302, .T. ) ;
#68 = DIRECTION ( 'NONE',  ( 0.000000000000000000, 1.000000000000000000, 0.000000000000000000 ) ) ;
#69 = ORIENTED_EDGE ( 'NONE', *, *, #306, .T. ) ;
#70 = CARTESIAN_POINT ( 'NONE',  ( -187.5000000000000000, 500.0000000000000000, 0.000000000000000000 ) ) ;
#71 = EDGE_LOOP ( 'NONE', ( #309, #134, #120, #136, #365, #237, #73, #167 ) ) ;
#72 = CARTESIAN_POINT ( 'NONE',  ( -172.5000000000000284, 3.545079520082348592E-33, -1.550000000000000044 ) ) ;
#73 = ORIENTED_EDGE ( 'NONE', *, *, #32, .T. ) ;
#74 = FACE_OUTER_BOUND ( 'NONE', #180, .T. ) ;
#75 = PLANE ( 'NONE',  #326 ) ;
#76 = DIRECTION ( 'NONE',  ( -0.000000000000000000, 0.000000000000000000, 1.000000000000000000 ) ) ;
#77 = EDGE_CURVE ( 'NONE', #355, #66, #18, .T. ) ;
#78 = PERSON_AND_ORGANIZATION ( #56, #252 ) ;
#79 = DIRECTION ( 'NONE',  ( 1.000000000000000000, 0.000000000000000000, 0.000000000000000000 ) ) ;
#80 = DIRECTION ( 'NONE',  ( 1.000000000000000000, 0.000000000000000000, 0.000000000000000000 ) ) ;
#81 = LOCAL_TIME ( 16, 2, 53.00000000000000000, #145 ) ;
#82 = DATE_AND_TIME ( #375, #185 ) ;
#83 = CARTESIAN_POINT ( 'NONE',  ( -172.5000000000000284, 15.00000000000001421, -1.550000000000000044 ) ) ;
#84 = APPROVAL_STATUS ( 'not_yet_approved' ) ;
#85 = CIRCLE ( 'NONE', #304, 14.99999999999998579 ) ;
#86 = VERTEX_POINT ( 'NONE', #228 ) ;
#87 = APPROVAL ( #148, 'UNSPECIFIED' ) ;
#88 = ORIENTED_EDGE ( 'NONE', *, *, #36, .T. ) ;
#89 = ORIENTED_EDGE ( 'NONE', *, *, #306, .F. ) ;
#90 = VECTOR ( 'NONE', #165, 1000.000000000000000 ) ;
#91 = EDGE_LOOP ( 'NONE', ( #221, #69, #37, #67 ) ) ;
#92 = CARTESIAN_POINT ( 'NONE',  ( 172.5000000000000000, 500.0000000000000000, -1.550000000000000044 ) ) ;
#93 = DIRECTION ( 'NONE',  ( 0.000000000000000000, -0.000000000000000000, 1.000000000000000000 ) ) ;
#94 = ORIENTED_EDGE ( 'NONE', *, *, #243, .F. ) ;
#95 = AXIS2_PLACEMENT_3D ( 'NONE', #343, #348, #172 ) ;
#96 = ORIENTED_EDGE ( 'NONE', *, *, #211, .T. ) ;
#97 = CARTESIAN_POINT ( 'NONE',  ( 187.5000000000000000, 500.0000000000000000, 0.000000000000000000 ) ) ;
#98 = DIRECTION ( 'NONE',  ( 0.000000000000000000, -1.000000000000000000, 0.000000000000000000 ) ) ;
#99 = LINE ( 'NONE', #72, #119 ) ;
#100 = EDGE_LOOP ( 'NONE', ( #88, #241, #5, #210 ) ) ;
#101 = CARTESIAN_POINT ( 'NONE',  ( 172.4999999999999432, 8.508190848197644283E-32, -1.550000000000000044 ) ) ;
#102 = CLOSED_SHELL ( 'NONE', ( #40, #290, #47, #64, #192, #275, #26, #179, #58, #250 ) ) ;
#103 = DIRECTION ( 'NONE',  ( 1.000000000000000000, 2.363386346721568322E-34, 0.000000000000000000 ) ) ;
#104 = CC_DESIGN_PERSON_AND_ORGANIZATION_ASSIGNMENT ( #78, #147, ( #259 ) ) ;
#105 = PERSON_AND_ORGANIZATION ( #56, #252 ) ;
#106 = DIRECTION ( 'NONE',  ( 1.000000000000000000, 0.000000000000000000, 0.000000000000000000 ) ) ;
#107 = SECURITY_CLASSIFICATION_LEVEL ( 'unclassified' ) ;
#108 = CARTESIAN_POINT ( 'NONE',  ( -172.5000000000000284, 15.00000000000001421, -1.550000000000000044 ) ) ;
#109 = CC_DESIGN_PERSON_AND_ORGANIZATION_ASSIGNMENT ( #23, #350, ( #138 ) ) ;
#110 = APPROVAL_ROLE ( '' ) ;
#111 = CARTESIAN_POINT ( 'NONE',  ( 172.4999999999999432, 8.508190848197644283E-32, -1.550000000000000044 ) ) ;
#112 = CIRCLE ( 'NONE', #322, 14.99999999999998579 ) ;
#113 = APPROVAL_DATE_TIME ( #50, #87 ) ;
#114 = PRODUCT ( '3483-MU103-40_REV_', '3483-MU103-40_REV_', '', ( #346 ) ) ;
#115 = ORIENTED_EDGE ( 'NONE', *, *, #207, .F. ) ;
#116 = APPLICATION_CONTEXT ( 'configuration controlled 3d designs of mechanical parts and assemblies' ) ;
#117 = EDGE_LOOP ( 'NONE', ( #287, #4, #188, #301 ) ) ;
#118 = VECTOR ( 'NONE', #280, 1000.000000000000000 ) ;
#119 = VECTOR ( 'NONE', #222, 1000.000000000000000 ) ;
#120 = ORIENTED_EDGE ( 'NONE', *, *, #243, .T. ) ;
#121 = ORIENTED_EDGE ( 'NONE', *, *, #339, .F. ) ;
#122 = ORIENTED_EDGE ( 'NONE', *, *, #295, .T. ) ;
#123 = CIRCLE ( 'NONE', #141, 15.00000000000001421 ) ;
#124 = CARTESIAN_POINT ( 'NONE',  ( -187.5000000000000000, 500.0000000000000000, -1.550000000000000044 ) ) ;
#125 = CARTESIAN_POINT ( 'NONE',  ( 172.5000000000000284, 485.0000000000000000, -1.550000000000000044 ) ) ;
#126 = FACE_OUTER_BOUND ( 'NONE', #336, .T. ) ;
#127 = EDGE_CURVE ( 'NONE', #66, #209, #123, .T. ) ;
#128 = DIRECTION ( 'NONE',  ( 0.000000000000000000, -0.000000000000000000, 1.000000000000000000 ) ) ;
#129 = LINE ( 'NONE', #158, #118 ) ;
#130 = CC_DESIGN_DATE_AND_TIME_ASSIGNMENT ( #82, #203, ( #259 ) ) ;
#131 =( NAMED_UNIT ( * ) SI_UNIT ( $, .STERADIAN. ) SOLID_ANGLE_UNIT ( ) );
#132 = VECTOR ( 'NONE', #190, 1000.000000000000000 ) ;
#133 = APPROVAL_PERSON_ORGANIZATION ( #1, #87, #110 ) ;
#134 = ORIENTED_EDGE ( 'NONE', *, *, #207, .T. ) ;
#135 = CARTESIAN_POINT ( 'NONE',  ( 0.000000000000000000, 0.000000000000000000, 0.000000000000000000 ) ) ;
#136 = ORIENTED_EDGE ( 'NONE', *, *, #144, .T. ) ;
#137 = LINE ( 'NONE', #358, #293 ) ;
#138 = PRODUCT_DEFINITION ( 'UNKNOWN', '', #305, #242 ) ;
#139 = CARTESIAN_POINT ( 'NONE',  ( 187.5000000000000000, 15.00000000000001421, -1.550000000000000044 ) ) ;
#140 = DATE_AND_TIME ( #25, #233 ) ;
#141 = AXIS2_PLACEMENT_3D ( 'NONE', #143, #374, #257 ) ;
#142 = CARTESIAN_POINT ( 'NONE',  ( -172.5000000000000284, 500.0000000000000000, 0.000000000000000000 ) ) ;
#143 = CARTESIAN_POINT ( 'NONE',  ( 172.4999999999999432, 14.99999999999999822, -1.550000000000000044 ) ) ;
#144 = EDGE_CURVE ( 'NONE', #34, #225, #112, .T. ) ;
#145 = COORDINATED_UNIVERSAL_TIME_OFFSET ( 10, 0, .AHEAD. ) ;
#146 = CARTESIAN_POINT ( 'NONE',  ( 172.4999999999999432, 8.508190848197644283E-32, 0.000000000000000000 ) ) ;
#147 = PERSON_AND_ORGANIZATION_ROLE ( 'classification_officer' ) ;
#148 = APPROVAL_STATUS ( 'not_yet_approved' ) ;
#149 = EDGE_CURVE ( 'NONE', #214, #39, #43, .T. ) ;
#150 = EDGE_LOOP ( 'NONE', ( #327, #154, #121, #122 ) ) ;
#151 = EDGE_LOOP ( 'NONE', ( #10, #2, #115, #89 ) ) ;
#152 = VECTOR ( 'NONE', #341, 1000.000000000000000 ) ;
#153 = VERTEX_POINT ( 'NONE', #142 ) ;
#154 = ORIENTED_EDGE ( 'NONE', *, *, #300, .T. ) ;
#155 = AXIS2_PLACEMENT_3D ( 'NONE', #124, #31, #8 ) ;
#156 = VECTOR ( 'NONE', #9, 1000.000000000000000 ) ;
#157 = DIRECTION ( 'NONE',  ( 0.000000000000000000, -0.000000000000000000, -1.000000000000000000 ) ) ;
#158 = CARTESIAN_POINT ( 'NONE',  ( 187.5000000000000000, 500.0000000000000000, -1.550000000000000044 ) ) ;
#159 = CARTESIAN_POINT ( 'NONE',  ( -187.5000000000000000, 485.0000000000000000, 0.000000000000000000 ) ) ;
#160 = CC_DESIGN_DATE_AND_TIME_ASSIGNMENT ( #21, #54, ( #138 ) ) ;
#161 = DIRECTION ( 'NONE',  ( 1.000000000000000000, 2.363386346721568322E-34, 0.000000000000000000 ) ) ;
#162 = CARTESIAN_POINT ( 'NONE',  ( -187.5000000000000000, 15.00000000000001421, -1.550000000000000044 ) ) ;
#163 = CC_DESIGN_APPROVAL ( #235, ( #259 ) ) ;
#164 = ORIENTED_EDGE ( 'NONE', *, *, #14, .F. ) ;
#165 = DIRECTION ( 'NONE',  ( 1.000000000000000000, 2.363386346721568322E-34, 0.000000000000000000 ) ) ;
#166 = AXIS2_PLACEMENT_3D ( 'NONE', #364, #157, #279 ) ;
#167 = ORIENTED_EDGE ( 'NONE', *, *, #63, .T. ) ;
#168 = CARTESIAN_POINT ( 'NONE',  ( -172.5000000000000284, 485.0000000000000000, 0.000000000000000000 ) ) ;
#169 = DIRECTION ( 'NONE',  ( 1.000000000000000000, 0.000000000000000000, 0.000000000000000000 ) ) ;
#170 = PERSON_AND_ORGANIZATION ( #56, #252 ) ;
#171 = PLANE ( 'NONE',  #329 ) ;
#172 = DIRECTION ( 'NONE',  ( 1.000000000000000000, 0.000000000000000000, 0.000000000000000000 ) ) ;
#173 = VECTOR ( 'NONE', #161, 1000.000000000000000 ) ;
#174 = DIRECTION ( 'NONE',  ( 1.000000000000000000, 0.000000000000000000, 0.000000000000000000 ) ) ;
#175 = VECTOR ( 'NONE', #224, 1000.000000000000000 ) ;
#176 = PLANE ( 'NONE',  #340 ) ;
#177 = COORDINATED_UNIVERSAL_TIME_OFFSET ( 10, 0, .AHEAD. ) ;
#178 = AXIS2_PLACEMENT_3D ( 'NONE', #265, #376, #79 ) ;
#179 = ADVANCED_FACE ( 'NONE', ( #344 ), #231, .T. ) ;
#180 = EDGE_LOOP ( 'NONE', ( #61, #330, #183, #29 ) ) ;
#181 = MANIFOLD_SOLID_BREP ( 'Fillet1', #102 ) ;
#182 = CIRCLE ( 'NONE', #166, 14.99999999999998579 ) ;
#183 = ORIENTED_EDGE ( 'NONE', *, *, #247, .F. ) ;
#184 = CARTESIAN_POINT ( 'NONE',  ( -187.5000000000000000, 15.00000000000001421, -1.550000000000000044 ) ) ;
#185 = LOCAL_TIME ( 16, 2, 53.00000000000000000, #177 ) ;
#186 = ORIENTED_EDGE ( 'NONE', *, *, #149, .F. ) ;
#187 = LINE ( 'NONE', #366, #156 ) ;
#188 = ORIENTED_EDGE ( 'NONE', *, *, #144, .F. ) ;
#189 = VERTEX_POINT ( 'NONE', #146 ) ;
#190 = DIRECTION ( 'NONE',  ( -0.000000000000000000, 1.000000000000000000, -0.000000000000000000 ) ) ;
#191 = DIRECTION ( 'NONE',  ( 1.000000000000000000, 0.000000000000000000, 0.000000000000000000 ) ) ;
#192 = ADVANCED_FACE ( 'NONE', ( #323 ), #171, .F. ) ;
#193 = DIRECTION ( 'NONE',  ( 1.000000000000000000, 0.000000000000000000, 0.000000000000000000 ) ) ;
#194 = DIRECTION ( 'NONE',  ( 1.000000000000000000, 0.000000000000000000, 0.000000000000000000 ) ) ;
#195 = DIRECTION ( 'NONE',  ( 0.000000000000000000, 0.000000000000000000, 1.000000000000000000 ) ) ;
#196 = DIRECTION ( 'NONE',  ( 0.000000000000000000, -0.000000000000000000, -1.000000000000000000 ) ) ;
#197 = DIRECTION ( 'NONE',  ( 0.000000000000000000, -0.000000000000000000, 1.000000000000000000 ) ) ;
#198 = APPROVAL_DATE_TIME ( #140, #298 ) ;
#199 = CC_DESIGN_PERSON_AND_ORGANIZATION_ASSIGNMENT ( #372, #27, ( #305 ) ) ;
#200 = AXIS2_PLACEMENT_3D ( 'NONE', #83, #49, #174 ) ;
#201 = CARTESIAN_POINT ( 'NONE',  ( -172.5000000000000284, 3.545079520082348592E-33, -1.550000000000000044 ) ) ;
#202 = AXIS2_PLACEMENT_3D ( 'NONE', #254, #68, #128 ) ;
#203 = DATE_TIME_ROLE ( 'classification_date' ) ;
#204 = DIRECTION ( 'NONE',  ( 0.000000000000000000, -0.000000000000000000, -1.000000000000000000 ) ) ;
#205 = APPLICATION_PROTOCOL_DEFINITION ( 'international standard', 'config_control_design', 1994, #116 ) ;
#206 = LOCAL_TIME ( 16, 2, 53.00000000000000000, #48 ) ;
#207 = EDGE_CURVE ( 'NONE', #189, #355, #267, .T. ) ;
#208 = AXIS2_PLACEMENT_3D ( 'NONE', #263, #55, #342 ) ;
#209 = VERTEX_POINT ( 'NONE', #111 ) ;
#210 = ORIENTED_EDGE ( 'NONE', *, *, #367, .T. ) ;
#211 = EDGE_CURVE ( 'NONE', #212, #34, #294, .T. ) ;
#212 = VERTEX_POINT ( 'NONE', #347 ) ;
#213 = ADVANCED_BREP_SHAPE_REPRESENTATION ( '3483-MU103-40_REV_', ( #181, #95 ), #285 ) ;
#214 = VERTEX_POINT ( 'NONE', #201 ) ;
#215 = VECTOR ( 'NONE', #98, 1000.000000000000000 ) ;
#216 = AXIS2_PLACEMENT_3D ( 'NONE', #125, #245, #218 ) ;
#217 = LINE ( 'NONE', #255, #173 ) ;
#218 = DIRECTION ( 'NONE',  ( 1.000000000000000000, 0.000000000000000000, 0.000000000000000000 ) ) ;
#219 = CARTESIAN_POINT ( 'NONE',  ( 187.5000000000000000, 500.0000000000000000, -1.550000000000000044 ) ) ;
#220 =( LENGTH_UNIT ( ) NAMED_UNIT ( * ) SI_UNIT ( .MILLI., .METRE. ) );
#221 = ORIENTED_EDGE ( 'NONE', *, *, #266, .T. ) ;
#222 = DIRECTION ( 'NONE',  ( -0.000000000000000000, -0.000000000000000000, -1.000000000000000000 ) ) ;
#223 = EDGE_LOOP ( 'NONE', ( #186, #276, #357, #273 ) ) ;
#224 = DIRECTION ( 'NONE',  ( -1.000000000000000000, -0.000000000000000000, -0.000000000000000000 ) ) ;
#225 = VERTEX_POINT ( 'NONE', #349 ) ;
#226 = CARTESIAN_POINT ( 'NONE',  ( -187.5000000000000000, 15.00000000000001421, 0.000000000000000000 ) ) ;
#227 = UNCERTAINTY_MEASURE_WITH_UNIT (LENGTH_MEASURE( 1.000000000000000082E-05 ), #220, 'distance_accuracy_value', 'NONE');
#228 = CARTESIAN_POINT ( 'NONE',  ( -172.5000000000000284, 3.545079520082348592E-33, 0.000000000000000000 ) ) ;
#229 = DIRECTION ( 'NONE',  ( -0.000000000000000000, 0.000000000000000000, -1.000000000000000000 ) ) ;
#230 = CC_DESIGN_PERSON_AND_ORGANIZATION_ASSIGNMENT ( #170, #351, ( #114 ) ) ;
#231 = CYLINDRICAL_SURFACE ( 'NONE', #200, 14.99999999999998579 ) ;
#232 = CARTESIAN_POINT ( 'NONE',  ( 187.5000000000000000, 485.0000000000000000, -1.550000000000000044 ) ) ;
#233 = LOCAL_TIME ( 16, 2, 53.00000000000000000, #296 ) ;
#234 = PERSON_AND_ORGANIZATION ( #56, #252 ) ;
#235 = APPROVAL ( #84, 'UNSPECIFIED' ) ;
#236 = APPROVAL_PERSON_ORGANIZATION ( #234, #235, #318 ) ;
#237 = ORIENTED_EDGE ( 'NONE', *, *, #247, .T. ) ;
#238 = VECTOR ( 'NONE', #334, 1000.000000000000000 ) ;
#239 = ORIENTED_EDGE ( 'NONE', *, *, #240, .T. ) ;
#240 = EDGE_CURVE ( 'NONE', #3, #212, #85, .T. ) ;
#241 = ORIENTED_EDGE ( 'NONE', *, *, #345, .T. ) ;
#242 = DESIGN_CONTEXT ( 'detailed design', #116, 'design' ) ;
#243 = EDGE_CURVE ( 'NONE', #355, #34, #317, .T. ) ;
#244 = LINE ( 'NONE', #253, #215 ) ;
#245 = DIRECTION ( 'NONE',  ( 0.000000000000000000, -0.000000000000000000, 1.000000000000000000 ) ) ;
#246 = CYLINDRICAL_SURFACE ( 'NONE', #28, 15.00000000000001421 ) ;
#247 = EDGE_CURVE ( 'NONE', #153, #271, #353, .T. ) ;
#248 = CARTESIAN_POINT ( 'NONE',  ( -187.5000000000000000, 485.0000000000000000, -1.550000000000000044 ) ) ;
#249 = DIRECTION ( 'NONE',  ( 0.000000000000000000, 0.000000000000000000, 1.000000000000000000 ) ) ;
#250 = ADVANCED_FACE ( 'NONE', ( #316 ), #45, .T. ) ;
#251 = VECTOR ( 'NONE', #197, 1000.000000000000000 ) ;
#252 = ORGANIZATION ( 'UNSPECIFIED', 'UNSPECIFIED', '' ) ;
#253 = CARTESIAN_POINT ( 'NONE',  ( -187.5000000000000000, 500.0000000000000000, 0.000000000000000000 ) ) ;
#254 = CARTESIAN_POINT ( 'NONE',  ( -187.5000000000000000, 500.0000000000000000, -1.550000000000000044 ) ) ;
#255 = CARTESIAN_POINT ( 'NONE',  ( -187.5000000000000000, 0.000000000000000000, 0.000000000000000000 ) ) ;
#256 = LINE ( 'NONE', #101, #152 ) ;
#257 = DIRECTION ( 'NONE',  ( 1.000000000000000000, 0.000000000000000000, 0.000000000000000000 ) ) ;
#258 = APPLICATION_PROTOCOL_DEFINITION ( 'international standard', 'config_control_design', 1994, #62 ) ;
#259 = SECURITY_CLASSIFICATION ( '', '', #107 ) ;
#260 = DIRECTION ( 'NONE',  ( -0.000000000000000000, 0.000000000000000000, 1.000000000000000000 ) ) ;
#261 = CC_DESIGN_PERSON_AND_ORGANIZATION_ASSIGNMENT ( #292, #59, ( #305 ) ) ;
#262 = CALENDAR_DATE ( 2026, 4, 1 ) ;
#263 = CARTESIAN_POINT ( 'NONE',  ( -172.5000000000000284, 15.00000000000001421, 0.000000000000000000 ) ) ;
#264 = CALENDAR_DATE ( 2026, 4, 1 ) ;
#265 = CARTESIAN_POINT ( 'NONE',  ( 172.4999999999999432, 14.99999999999999822, 0.000000000000000000 ) ) ;
#266 = EDGE_CURVE ( 'NONE', #214, #209, #38, .T. ) ;
#267 = CIRCLE ( 'NONE', #178, 15.00000000000001421 ) ;
#268 = CC_DESIGN_APPROVAL ( #87, ( #305 ) ) ;
#269 = APPROVAL_ROLE ( '' ) ;
#270 = AXIS2_PLACEMENT_3D ( 'NONE', #370, #46, #169 ) ;
#271 = VERTEX_POINT ( 'NONE', #159 ) ;
#272 = EDGE_CURVE ( 'NONE', #3, #354, #312, .T. ) ;
#273 = ORIENTED_EDGE ( 'NONE', *, *, #345, .F. ) ;
#274 = ORIENTED_EDGE ( 'NONE', *, *, #127, .T. ) ;
#275 = ADVANCED_FACE ( 'NONE', ( #15 ), #75, .T. ) ;
#276 = ORIENTED_EDGE ( 'NONE', *, *, #302, .F. ) ;
#277 = LINE ( 'NONE', #248, #53 ) ;
#278 = PLANE ( 'NONE',  #155 ) ;
#279 = DIRECTION ( 'NONE',  ( 1.000000000000000000, 0.000000000000000000, 0.000000000000000000 ) ) ;
#280 = DIRECTION ( 'NONE',  ( -0.000000000000000000, 1.000000000000000000, -0.000000000000000000 ) ) ;
#281 = EDGE_CURVE ( 'NONE', #11, #354, #182, .T. ) ;
#282 =( NAMED_UNIT ( * ) PLANE_ANGLE_UNIT ( ) SI_UNIT ( $, .RADIAN. ) );
#283 = FACE_OUTER_BOUND ( 'NONE', #151, .T. ) ;
#284 = VECTOR ( 'NONE', #338, 1000.000000000000000 ) ;
#285 =( GEOMETRIC_REPRESENTATION_CONTEXT ( 3 ) GLOBAL_UNCERTAINTY_ASSIGNED_CONTEXT ( ( #227 ) ) GLOBAL_UNIT_ASSIGNED_CONTEXT ( ( #220, #282, #131 ) ) REPRESENTATION_CONTEXT ( 'NONE', 'WORKASPACE' ) );
#286 = CARTESIAN_POINT ( 'NONE',  ( -187.5000000000000000, 500.0000000000000000, -1.550000000000000044 ) ) ;
#287 = ORIENTED_EDGE ( 'NONE', *, *, #240, .F. ) ;
#288 = CARTESIAN_POINT ( 'NONE',  ( -187.5000000000000000, 0.000000000000000000, -1.550000000000000044 ) ) ;
#289 = DIRECTION ( 'NONE',  ( 1.000000000000000000, 0.000000000000000000, 0.000000000000000000 ) ) ;
#290 = ADVANCED_FACE ( 'NONE', ( #41 ), #33, .T. ) ;
#291 = CARTESIAN_POINT ( 'NONE',  ( 0.000000000000000000, 0.000000000000000000, -1.550000000000000044 ) ) ;
#292 = PERSON_AND_ORGANIZATION ( #56, #252 ) ;
#293 = VECTOR ( 'NONE', #93, 1000.000000000000000 ) ;
#294 = LINE ( 'NONE', #232, #251 ) ;
#295 = EDGE_CURVE ( 'NONE', #225, #3, #187, .T. ) ;
#296 = COORDINATED_UNIVERSAL_TIME_OFFSET ( 10, 0, .AHEAD. ) ;
#297 = CARTESIAN_POINT ( 'NONE',  ( -187.5000000000000000, 0.000000000000000000, -1.550000000000000044 ) ) ;
#298 = APPROVAL ( #19, 'UNSPECIFIED' ) ;
#299 = APPROVAL_DATE_TIME ( #324, #235 ) ;
#300 = EDGE_CURVE ( 'NONE', #354, #153, #137, .T. ) ;
#301 = ORIENTED_EDGE ( 'NONE', *, *, #211, .F. ) ;
#302 = EDGE_CURVE ( 'NONE', #86, #214, #99, .T. ) ;
#303 = ORIENTED_EDGE ( 'NONE', *, *, #149, .T. ) ;
#304 = AXIS2_PLACEMENT_3D ( 'NONE', #51, #204, #194 ) ;
#305 = PRODUCT_DEFINITION_FORMATION_WITH_SPECIFIED_SOURCE ( 'ANY', '', #114, .NOT_KNOWN. ) ;
#306 = EDGE_CURVE ( 'NONE', #209, #189, #256, .T. ) ;
#307 = FACE_OUTER_BOUND ( 'NONE', #100, .T. ) ;
#308 = CC_DESIGN_SECURITY_CLASSIFICATION ( #259, ( #305 ) ) ;
#309 = ORIENTED_EDGE ( 'NONE', *, *, #7, .T. ) ;
#310 = LINE ( 'NONE', #162, #363 ) ;
#311 = EDGE_LOOP ( 'NONE', ( #164, #274, #361, #303, #335, #65, #313, #239 ) ) ;
#312 = LINE ( 'NONE', #286, #238 ) ;
#313 = ORIENTED_EDGE ( 'NONE', *, *, #272, .F. ) ;
#314 = DIRECTION ( 'NONE',  ( -0.000000000000000000, 0.000000000000000000, 1.000000000000000000 ) ) ;
#315 = LINE ( 'NONE', #42, #284 ) ;
#316 = FACE_OUTER_BOUND ( 'NONE', #117, .T. ) ;
#317 = LINE ( 'NONE', #97, #132 ) ;
#318 = APPROVAL_ROLE ( '' ) ;
#319 = FACE_OUTER_BOUND ( 'NONE', #91, .T. ) ;
#320 = CARTESIAN_POINT ( 'NONE',  ( 187.5000000000000000, 15.00000000000001421, -1.550000000000000044 ) ) ;
#321 = CALENDAR_DATE ( 2026, 4, 1 ) ;
#322 = AXIS2_PLACEMENT_3D ( 'NONE', #24, #76, #289 ) ;
#323 = FACE_OUTER_BOUND ( 'NONE', #311, .T. ) ;
#324 = DATE_AND_TIME ( #262, #206 ) ;
#325 = COORDINATED_UNIVERSAL_TIME_OFFSET ( 10, 0, .AHEAD. ) ;
#326 = AXIS2_PLACEMENT_3D ( 'NONE', #135, #369, #17 ) ;
#327 = ORIENTED_EDGE ( 'NONE', *, *, #272, .T. ) ;
#328 = VERTEX_POINT ( 'NONE', #226 ) ;
#329 = AXIS2_PLACEMENT_3D ( 'NONE', #291, #260, #106 ) ;
#330 = ORIENTED_EDGE ( 'NONE', *, *, #367, .F. ) ;
#331 = LINE ( 'NONE', #70, #175 ) ;
#332 = DIRECTION ( 'NONE',  ( 1.000000000000000000, 0.000000000000000000, -0.000000000000000000 ) ) ;
#333 = CIRCLE ( 'NONE', #208, 14.99999999999998579 ) ;
#334 = DIRECTION ( 'NONE',  ( -1.000000000000000000, -0.000000000000000000, -0.000000000000000000 ) ) ;
#335 = ORIENTED_EDGE ( 'NONE', *, *, #36, .F. ) ;
#336 = EDGE_LOOP ( 'NONE', ( #94, #30, #356, #96 ) ) ;
#337 = CARTESIAN_POINT ( 'NONE',  ( 187.5000000000000000, 15.00000000000001421, 0.000000000000000000 ) ) ;
#338 = DIRECTION ( 'NONE',  ( 0.000000000000000000, -1.000000000000000000, 0.000000000000000000 ) ) ;
#339 = EDGE_CURVE ( 'NONE', #225, #153, #331, .T. ) ;
#340 = AXIS2_PLACEMENT_3D ( 'NONE', #297, #373, #103 ) ;
#341 = DIRECTION ( 'NONE',  ( 0.000000000000000000, 0.000000000000000000, 1.000000000000000000 ) ) ;
#342 = DIRECTION ( 'NONE',  ( 1.000000000000000000, 0.000000000000000000, 0.000000000000000000 ) ) ;
#343 = CARTESIAN_POINT ( 'NONE',  ( 0.000000000000000000, 0.000000000000000000, 0.000000000000000000 ) ) ;
#344 = FACE_OUTER_BOUND ( 'NONE', #223, .T. ) ;
#345 = EDGE_CURVE ( 'NONE', #39, #328, #310, .T. ) ;
#346 = MECHANICAL_CONTEXT ( 'NONE', #62, 'mechanical' ) ;
#347 = CARTESIAN_POINT ( 'NONE',  ( 187.5000000000000000, 485.0000000000000000, -1.550000000000000044 ) ) ;
#348 = DIRECTION ( 'NONE',  ( 0.000000000000000000, 0.000000000000000000, 1.000000000000000000 ) ) ;
#349 = CARTESIAN_POINT ( 'NONE',  ( 172.5000000000000000, 500.0000000000000000, 0.000000000000000000 ) ) ;
#350 = PERSON_AND_ORGANIZATION_ROLE ( 'creator' ) ;
#351 = PERSON_AND_ORGANIZATION_ROLE ( 'design_owner' ) ;
#352 = PRODUCT_RELATED_PRODUCT_CATEGORY ( 'detail', '', ( #114 ) ) ;
#353 = CIRCLE ( 'NONE', #12, 14.99999999999998579 ) ;
#354 = VERTEX_POINT ( 'NONE', #35 ) ;
#355 = VERTEX_POINT ( 'NONE', #337 ) ;
#356 = ORIENTED_EDGE ( 'NONE', *, *, #14, .T. ) ;
#357 = ORIENTED_EDGE ( 'NONE', *, *, #63, .F. ) ;
#358 = CARTESIAN_POINT ( 'NONE',  ( -172.5000000000000284, 500.0000000000000000, -1.550000000000000044 ) ) ;
#359 = PLANE ( 'NONE',  #371 ) ;
#360 = DIRECTION ( 'NONE',  ( -0.000000000000000000, -0.000000000000000000, -1.000000000000000000 ) ) ;
#361 = ORIENTED_EDGE ( 'NONE', *, *, #266, .F. ) ;
#362 = AXIS2_PLACEMENT_3D ( 'NONE', #108, #196, #80 ) ;
#363 = VECTOR ( 'NONE', #195, 1000.000000000000000 ) ;
#364 = CARTESIAN_POINT ( 'NONE',  ( -172.5000000000000284, 485.0000000000000000, -1.550000000000000044 ) ) ;
#365 = ORIENTED_EDGE ( 'NONE', *, *, #339, .T. ) ;
#366 = CARTESIAN_POINT ( 'NONE',  ( 172.5000000000000000, 500.0000000000000000, -1.550000000000000044 ) ) ;
#367 = EDGE_CURVE ( 'NONE', #271, #11, #277, .T. ) ;
#368 = CARTESIAN_POINT ( 'NONE',  ( 172.4999999999999432, 14.99999999999999822, -1.550000000000000044 ) ) ;
#369 = DIRECTION ( 'NONE',  ( -0.000000000000000000, 0.000000000000000000, 1.000000000000000000 ) ) ;
#370 = CARTESIAN_POINT ( 'NONE',  ( -172.5000000000000284, 485.0000000000000000, -1.550000000000000044 ) ) ;
#371 = AXIS2_PLACEMENT_3D ( 'NONE', #219, #332, #229 ) ;
#372 = PERSON_AND_ORGANIZATION ( #56, #252 ) ;
#373 = DIRECTION ( 'NONE',  ( 2.363386346721568322E-34, -1.000000000000000000, 0.000000000000000000 ) ) ;
#374 = DIRECTION ( 'NONE',  ( 0.000000000000000000, -0.000000000000000000, -1.000000000000000000 ) ) ;
#375 = CALENDAR_DATE ( 2026, 4, 1 ) ;
#376 = DIRECTION ( 'NONE',  ( -0.000000000000000000, 0.000000000000000000, 1.000000000000000000 ) ) ;
#377 = CC_DESIGN_APPROVAL ( #298, ( #138 ) ) ;
ENDSEC;
END-ISO-10303-21;
