ISO-10303-21;
HEADER;
FILE_DESCRIPTION (( 'STEP AP203' ),
    '1' );
FILE_NAME ('3484-MU103-30-11_REV_.step',
    '2026-01-04T05:13:51',
    ( '' ),
    ( '' ),
    'SwSTEP 2.0',
    'SolidWorks 2025',
    '' );
FILE_SCHEMA (( 'CONFIG_CONTROL_DESIGN' ));
ENDSEC;

DATA;
#1 = EDGE_CURVE ( 'NONE', #162, #264, #249, .T. ) ;
#2 = LINE ( 'NONE', #86, #383 ) ;
#3 = CIRCLE ( 'NONE', #82, 6.999999999999999112 ) ;
#4 = DIRECTION ( 'NONE',  ( -0.000000000000000000, -0.000000000000000000, -1.000000000000000000 ) ) ;
#5 = CARTESIAN_POINT ( 'NONE',  ( 0.000000000000000000, 0.000000000000000000, 0.000000000000000000 ) ) ;
#6 = APPROVAL_STATUS ( 'not_yet_approved' ) ;
#7 = EDGE_LOOP ( 'NONE', ( #72, #165, #262, #314, #345, #363 ) ) ;
#8 = EDGE_CURVE ( 'NONE', #264, #283, #102, .T. ) ;
#9 = APPROVAL_PERSON_ORGANIZATION ( #43, #241, #285 ) ;
#10 = APPROVAL_STATUS ( 'not_yet_approved' ) ;
#11 = ORIENTED_EDGE ( 'NONE', *, *, #361, .F. ) ;
#12 =( NAMED_UNIT ( * ) SI_UNIT ( $, .STERADIAN. ) SOLID_ANGLE_UNIT ( ) );
#13 = ORIENTED_EDGE ( 'NONE', *, *, #311, .T. ) ;
#14 = EDGE_CURVE ( 'NONE', #368, #162, #325, .T. ) ;
#15 = PRODUCT ( '3484-MU103-30-11_REV_', '3484-MU103-30-11_REV_', '', ( #200 ) ) ;
#16 = ORIENTED_EDGE ( 'NONE', *, *, #32, .T. ) ;
#17 = VECTOR ( 'NONE', #290, 1000.000000000000000 ) ;
#18 = VECTOR ( 'NONE', #65, 1000.000000000000000 ) ;
#19 = ORIENTED_EDGE ( 'NONE', *, *, #322, .F. ) ;
#20 = DIRECTION ( 'NONE',  ( -1.805090809928219933E-16, -1.000000000000000000, 0.000000000000000000 ) ) ;
#21 = CARTESIAN_POINT ( 'NONE',  ( -20.00000000000000000, 70.00000000000000000, 0.000000000000000000 ) ) ;
#22 = CIRCLE ( 'NONE', #350, 2.999999999999999112 ) ;
#23 = PLANE ( 'NONE',  #152 ) ;
#24 = CC_DESIGN_PERSON_AND_ORGANIZATION_ASSIGNMENT ( #338, #124, ( #169 ) ) ;
#25 = CARTESIAN_POINT ( 'NONE',  ( 20.00000000000001066, 20.32855135025613080, -6.000000000000000000 ) ) ;
#26 = CARTESIAN_POINT ( 'NONE',  ( 15.07547169811321730, 18.02720591437806874, -6.000000000000000000 ) ) ;
#27 = DIRECTION ( 'NONE',  ( 0.000000000000000000, 0.000000000000000000, 1.000000000000000000 ) ) ;
#28 = AXIS2_PLACEMENT_3D ( 'NONE', #303, #122, #328 ) ;
#29 = CARTESIAN_POINT ( 'NONE',  ( 6.999999999999992006, 70.00000000000000000, -6.000000000000000000 ) ) ;
#30 = CYLINDRICAL_SURFACE ( 'NONE', #28, 23.50000000000000355 ) ;
#31 = CARTESIAN_POINT ( 'NONE',  ( 6.999999999999992006, 70.00000000000000000, -6.000000000000000000 ) ) ;
#32 = EDGE_CURVE ( 'NONE', #149, #41, #131, .T. ) ;
#33 = VECTOR ( 'NONE', #265, 1000.000000000000000 ) ;
#34 = DIRECTION ( 'NONE',  ( 0.000000000000000000, 0.000000000000000000, 1.000000000000000000 ) ) ;
#35 = CARTESIAN_POINT ( 'NONE',  ( -20.00000000000000000, 70.00000000000000000, -6.000000000000000000 ) ) ;
#36 = EDGE_CURVE ( 'NONE', #259, #278, #116, .T. ) ;
#37 = ORIENTED_EDGE ( 'NONE', *, *, #281, .T. ) ;
#38 = CARTESIAN_POINT ( 'NONE',  ( 0.000000000000000000, 0.000000000000000000, 0.000000000000000000 ) ) ;
#39 = LOCAL_TIME ( 16, 13, 51.00000000000000000, #277 ) ;
#40 = APPLICATION_PROTOCOL_DEFINITION ( 'international standard', 'config_control_design', 1994, #375 ) ;
#41 = VERTEX_POINT ( 'NONE', #243 ) ;
#42 = ADVANCED_BREP_SHAPE_REPRESENTATION ( '3484-MU103-30-11_REV_', ( #164, #304 ), #142 ) ;
#43 = PERSON_AND_ORGANIZATION ( #119, #115 ) ;
#44 = EDGE_LOOP ( 'NONE', ( #99, #13 ) ) ;
#45 = PERSON_AND_ORGANIZATION_ROLE ( 'creator' ) ;
#46 = VERTEX_POINT ( 'NONE', #181 ) ;
#47 = AXIS2_PLACEMENT_3D ( 'NONE', #179, #295, #51 ) ;
#48 = EDGE_CURVE ( 'NONE', #220, #368, #79, .T. ) ;
#49 = VECTOR ( 'NONE', #367, 1000.000000000000000 ) ;
#50 = DIRECTION ( 'NONE',  ( 0.000000000000000000, 0.000000000000000000, 1.000000000000000000 ) ) ;
#51 = DIRECTION ( 'NONE',  ( 1.000000000000000000, 0.000000000000000000, 0.000000000000000000 ) ) ;
#52 = CARTESIAN_POINT ( 'NONE',  ( 20.00000000000000000, 70.00000000000000000, -6.000000000000000000 ) ) ;
#53 = AXIS2_PLACEMENT_3D ( 'NONE', #38, #261, #280 ) ;
#54 = CIRCLE ( 'NONE', #125, 6.999999999999999112 ) ;
#55 = CARTESIAN_POINT ( 'NONE',  ( -17.00000000000001066, 20.32855135025611659, 0.000000000000000000 ) ) ;
#56 = PLANE ( 'NONE',  #105 ) ;
#57 = CARTESIAN_POINT ( 'NONE',  ( -6.938893903907228378E-15, 70.00000000000000000, 0.000000000000000000 ) ) ;
#58 = CARTESIAN_POINT ( 'NONE',  ( 20.00000000000001066, 20.32855135025611659, -6.000000000000000000 ) ) ;
#59 = ORIENTED_EDGE ( 'NONE', *, *, #329, .T. ) ;
#60 = LINE ( 'NONE', #58, #18 ) ;
#61 = DIRECTION ( 'NONE',  ( -1.805090809928219933E-16, 1.000000000000000000, -0.000000000000000000 ) ) ;
#62 = COORDINATED_UNIVERSAL_TIME_OFFSET ( 10, 0, .AHEAD. ) ;
#63 = ORIENTED_EDGE ( 'NONE', *, *, #118, .F. ) ;
#64 = APPLICATION_CONTEXT ( 'configuration controlled 3d designs of mechanical parts and assemblies' ) ;
#65 = DIRECTION ( 'NONE',  ( -0.000000000000000000, -0.000000000000000000, -1.000000000000000000 ) ) ;
#66 = CIRCLE ( 'NONE', #192, 6.999999999999999112 ) ;
#67 = PERSON_AND_ORGANIZATION ( #119, #115 ) ;
#68 = ORIENTED_EDGE ( 'NONE', *, *, #32, .F. ) ;
#69 = PERSON_AND_ORGANIZATION ( #119, #115 ) ;
#70 = ORIENTED_EDGE ( 'NONE', *, *, #180, .F. ) ;
#71 = CALENDAR_DATE ( 2026, 4, 1 ) ;
#72 = ORIENTED_EDGE ( 'NONE', *, *, #48, .T. ) ;
#73 = AXIS2_PLACEMENT_3D ( 'NONE', #275, #4, #362 ) ;
#74 = ORIENTED_EDGE ( 'NONE', *, *, #309, .F. ) ;
#75 = ORIENTED_EDGE ( 'NONE', *, *, #269, .F. ) ;
#76 = CC_DESIGN_DATE_AND_TIME_ASSIGNMENT ( #254, #348, ( #169 ) ) ;
#77 = FACE_OUTER_BOUND ( 'NONE', #372, .T. ) ;
#78 = PERSON_AND_ORGANIZATION ( #119, #115 ) ;
#79 = LINE ( 'NONE', #21, #221 ) ;
#80 = CARTESIAN_POINT ( 'NONE',  ( 17.00000000000001066, 20.32855135025611659, -6.000000000000000000 ) ) ;
#81 = LINE ( 'NONE', #26, #33 ) ;
#82 = AXIS2_PLACEMENT_3D ( 'NONE', #93, #34, #153 ) ;
#83 = CYLINDRICAL_SURFACE ( 'NONE', #47, 6.999999999999999112 ) ;
#84 = CARTESIAN_POINT ( 'NONE',  ( -17.00000000000001066, 20.32855135025611659, -6.000000000000000000 ) ) ;
#85 = CC_DESIGN_PERSON_AND_ORGANIZATION_ASSIGNMENT ( #67, #45, ( #216 ) ) ;
#86 = CARTESIAN_POINT ( 'NONE',  ( -20.00000000000001066, 20.32855135025611659, -6.000000000000000000 ) ) ;
#87 = ORIENTED_EDGE ( 'NONE', *, *, #151, .T. ) ;
#88 = CLOSED_SHELL ( 'NONE', ( #227, #284, #166, #294, #117, #258, #291, #156, #333, #237 ) ) ;
#89 = PLANE ( 'NONE',  #160 ) ;
#90 = LOCAL_TIME ( 16, 13, 51.00000000000000000, #62 ) ;
#91 = APPROVAL ( #10, 'UNSPECIFIED' ) ;
#92 = CARTESIAN_POINT ( 'NONE',  ( 20.00000000000001066, 20.32855135025613080, 0.000000000000000000 ) ) ;
#93 = CARTESIAN_POINT ( 'NONE',  ( -6.938893903907228378E-15, 70.00000000000000000, 0.000000000000000000 ) ) ;
#94 = PERSON_AND_ORGANIZATION ( #119, #115 ) ;
#95 = LOCAL_TIME ( 16, 13, 51.00000000000000000, #198 ) ;
#96 = ORIENTED_EDGE ( 'NONE', *, *, #316, .T. ) ;
#97 = PRODUCT_RELATED_PRODUCT_CATEGORY ( 'detail', '', ( #15 ) ) ;
#98 = DIRECTION ( 'NONE',  ( 1.000000000000000000, 0.000000000000000000, 0.000000000000000000 ) ) ;
#99 = ORIENTED_EDGE ( 'NONE', *, *, #361, .T. ) ;
#100 = DIRECTION ( 'NONE',  ( -0.000000000000000000, -0.000000000000000000, -1.000000000000000000 ) ) ;
#101 = VERTEX_POINT ( 'NONE', #349 ) ;
#102 = CIRCLE ( 'NONE', #381, 2.999999999999999112 ) ;
#103 = VECTOR ( 'NONE', #292, 1000.000000000000000 ) ;
#104 = PRODUCT_DEFINITION_FORMATION_WITH_SPECIFIED_SOURCE ( 'ANY', '', #15, .NOT_KNOWN. ) ;
#105 = AXIS2_PLACEMENT_3D ( 'NONE', #384, #385, #330 ) ;
#106 =( NAMED_UNIT ( * ) PLANE_ANGLE_UNIT ( ) SI_UNIT ( $, .RADIAN. ) );
#107 = ORIENTED_EDGE ( 'NONE', *, *, #269, .T. ) ;
#108 = ORIENTED_EDGE ( 'NONE', *, *, #346, .T. ) ;
#109 = CARTESIAN_POINT ( 'NONE',  ( -20.00000000000001066, 20.32855135025613080, -6.000000000000000000 ) ) ;
#110 = AXIS2_PLACEMENT_3D ( 'NONE', #222, #100, #313 ) ;
#111 = CARTESIAN_POINT ( 'NONE',  ( -6.938893903907228378E-15, 70.00000000000000000, -6.000000000000000000 ) ) ;
#112 = CARTESIAN_POINT ( 'NONE',  ( 17.00000000000001066, 20.32855135025611659, 0.000000000000000000 ) ) ;
#113 = APPROVAL_STATUS ( 'not_yet_approved' ) ;
#114 = CARTESIAN_POINT ( 'NONE',  ( 19.99999999999999289, 70.00000000000000000, -6.000000000000000000 ) ) ;
#115 = ORGANIZATION ( 'UNSPECIFIED', 'UNSPECIFIED', '' ) ;
#116 = LINE ( 'NONE', #266, #17 ) ;
#117 = ADVANCED_FACE ( 'NONE', ( #77 ), #268, .T. ) ;
#118 = EDGE_CURVE ( 'NONE', #46, #264, #81, .T. ) ;
#119 = PERSON ( 'UNSPECIFIED', 'UNSPECIFIED', 'UNSPECIFIED', ('UNSPECIFIED'), ('UNSPECIFIED'), ('UNSPECIFIED') ) ;
#120 = FACE_OUTER_BOUND ( 'NONE', #318, .T. ) ;
#121 = ORIENTED_EDGE ( 'NONE', *, *, #163, .T. ) ;
#122 = DIRECTION ( 'NONE',  ( 0.000000000000000000, 0.000000000000000000, 1.000000000000000000 ) ) ;
#123 = CARTESIAN_POINT ( 'NONE',  ( 20.00000000000000000, 70.00000000000000000, 0.000000000000000000 ) ) ;
#124 = PERSON_AND_ORGANIZATION_ROLE ( 'classification_officer' ) ;
#125 = AXIS2_PLACEMENT_3D ( 'NONE', #371, #307, #369 ) ;
#126 = PRODUCT_DEFINITION_SHAPE ( 'NONE', 'NONE',  #216 ) ;
#127 = DIRECTION ( 'NONE',  ( 0.000000000000000000, 0.000000000000000000, 1.000000000000000000 ) ) ;
#128 = DATE_AND_TIME ( #167, #39 ) ;
#129 = CALENDAR_DATE ( 2026, 4, 1 ) ;
#130 = ORIENTED_EDGE ( 'NONE', *, *, #14, .F. ) ;
#131 = CIRCLE ( 'NONE', #189, 20.00000000000000000 ) ;
#132 = CC_DESIGN_PERSON_AND_ORGANIZATION_ASSIGNMENT ( #256, #224, ( #104 ) ) ;
#133 = ORIENTED_EDGE ( 'NONE', *, *, #281, .F. ) ;
#134 = LINE ( 'NONE', #35, #49 ) ;
#135 = EDGE_LOOP ( 'NONE', ( #225, #133, #197, #63 ) ) ;
#136 = ORIENTED_EDGE ( 'NONE', *, *, #302, .F. ) ;
#137 = VECTOR ( 'NONE', #276, 1000.000000000000000 ) ;
#138 = ORIENTED_EDGE ( 'NONE', *, *, #364, .T. ) ;
#139 = SHAPE_DEFINITION_REPRESENTATION ( #126, #42 ) ;
#140 = CARTESIAN_POINT ( 'NONE',  ( 19.99999999999999289, 70.00000000000000000, -6.000000000000000000 ) ) ;
#141 = FACE_OUTER_BOUND ( 'NONE', #373, .T. ) ;
#142 =( GEOMETRIC_REPRESENTATION_CONTEXT ( 3 ) GLOBAL_UNCERTAINTY_ASSIGNED_CONTEXT ( ( #335 ) ) GLOBAL_UNIT_ASSIGNED_CONTEXT ( ( #194, #106, #12 ) ) REPRESENTATION_CONTEXT ( 'NONE', 'WORKASPACE' ) );
#143 = LINE ( 'NONE', #240, #233 ) ;
#144 = FACE_OUTER_BOUND ( 'NONE', #135, .T. ) ;
#145 = DIRECTION ( 'NONE',  ( 1.000000000000000000, 0.000000000000000000, 0.000000000000000000 ) ) ;
#146 = LOCAL_TIME ( 16, 13, 51.00000000000000000, #323 ) ;
#147 = DIRECTION ( 'NONE',  ( 0.000000000000000000, 0.000000000000000000, 1.000000000000000000 ) ) ;
#148 = FACE_OUTER_BOUND ( 'NONE', #7, .T. ) ;
#149 = VERTEX_POINT ( 'NONE', #114 ) ;
#150 = LINE ( 'NONE', #301, #137 ) ;
#151 = EDGE_CURVE ( 'NONE', #231, #149, #319, .T. ) ;
#152 = AXIS2_PLACEMENT_3D ( 'NONE', #382, #351, #379 ) ;
#153 = DIRECTION ( 'NONE',  ( 1.000000000000000000, 0.000000000000000000, 0.000000000000000000 ) ) ;
#154 = CC_DESIGN_SECURITY_CLASSIFICATION ( #169, ( #104 ) ) ;
#155 = DIRECTION ( 'NONE',  ( 1.000000000000000000, 0.000000000000000000, 0.000000000000000000 ) ) ;
#156 = ADVANCED_FACE ( 'NONE', ( #211 ), #324, .F. ) ;
#157 = ORIENTED_EDGE ( 'NONE', *, *, #1, .F. ) ;
#158 = PERSON_AND_ORGANIZATION ( #119, #115 ) ;
#159 = EDGE_LOOP ( 'NONE', ( #282, #11, #107, #312 ) ) ;
#160 = AXIS2_PLACEMENT_3D ( 'NONE', #5, #217, #299 ) ;
#161 = DATE_AND_TIME ( #129, #95 ) ;
#162 = VERTEX_POINT ( 'NONE', #378 ) ;
#163 = EDGE_CURVE ( 'NONE', #149, #101, #175, .T. ) ;
#164 = MANIFOLD_SOLID_BREP ( 'Fillet1', #88 ) ;
#165 = ORIENTED_EDGE ( 'NONE', *, *, #14, .T. ) ;
#166 = ADVANCED_FACE ( 'NONE', ( #271 ), #23, .T. ) ;
#167 = CALENDAR_DATE ( 2026, 4, 1 ) ;
#168 = ORIENTED_EDGE ( 'NONE', *, *, #311, .F. ) ;
#169 = SECURITY_CLASSIFICATION ( '', '', #172 ) ;
#170 = APPROVAL_ROLE ( '' ) ;
#171 = DIRECTION ( 'NONE',  ( 1.000000000000000000, 0.000000000000000000, 0.000000000000000000 ) ) ;
#172 = SECURITY_CLASSIFICATION_LEVEL ( 'unclassified' ) ;
#173 = CC_DESIGN_PERSON_AND_ORGANIZATION_ASSIGNMENT ( #158, #279, ( #104 ) ) ;
#174 = CYLINDRICAL_SURFACE ( 'NONE', #210, 2.999999999999999112 ) ;
#175 = LINE ( 'NONE', #140, #103 ) ;
#176 = VECTOR ( 'NONE', #206, 1000.000000000000000 ) ;
#177 = CIRCLE ( 'NONE', #110, 23.50000000000000355 ) ;
#178 = AXIS2_PLACEMENT_3D ( 'NONE', #52, #207, #238 ) ;
#179 = CARTESIAN_POINT ( 'NONE',  ( -6.938893903907228378E-15, 70.00000000000000000, -6.000000000000000000 ) ) ;
#180 = EDGE_CURVE ( 'NONE', #41, #195, #143, .T. ) ;
#181 = CARTESIAN_POINT ( 'NONE',  ( 15.07547169811321908, 18.02720591437806874, -6.000000000000000000 ) ) ;
#182 = LINE ( 'NONE', #29, #306 ) ;
#183 = LOCAL_TIME ( 16, 13, 51.00000000000000000, #341 ) ;
#184 = FACE_OUTER_BOUND ( 'NONE', #287, .T. ) ;
#185 = ORIENTED_EDGE ( 'NONE', *, *, #48, .F. ) ;
#186 = CYLINDRICAL_SURFACE ( 'NONE', #215, 20.00000000000000000 ) ;
#187 = CARTESIAN_POINT ( 'NONE',  ( -6.938893903907228378E-15, 70.00000000000000000, -6.000000000000000000 ) ) ;
#188 = ORIENTED_EDGE ( 'NONE', *, *, #376, .F. ) ;
#189 = AXIS2_PLACEMENT_3D ( 'NONE', #242, #354, #289 ) ;
#190 = AXIS2_PLACEMENT_3D ( 'NONE', #55, #297, #204 ) ;
#191 = FACE_OUTER_BOUND ( 'NONE', #342, .T. ) ;
#192 = AXIS2_PLACEMENT_3D ( 'NONE', #57, #27, #272 ) ;
#193 = EDGE_LOOP ( 'NONE', ( #168, #201, #59, #75 ) ) ;
#194 =( LENGTH_UNIT ( ) NAMED_UNIT ( * ) SI_UNIT ( .MILLI., .METRE. ) );
#195 = VERTEX_POINT ( 'NONE', #109 ) ;
#196 = DATE_TIME_ROLE ( 'creation_date' ) ;
#197 = ORIENTED_EDGE ( 'NONE', *, *, #8, .F. ) ;
#198 = COORDINATED_UNIVERSAL_TIME_OFFSET ( 10, 0, .AHEAD. ) ;
#199 = ORIENTED_EDGE ( 'NONE', *, *, #180, .T. ) ;
#200 = MECHANICAL_CONTEXT ( 'NONE', #64, 'mechanical' ) ;
#201 = ORIENTED_EDGE ( 'NONE', *, *, #36, .T. ) ;
#202 = CC_DESIGN_PERSON_AND_ORGANIZATION_ASSIGNMENT ( #94, #260, ( #15 ) ) ;
#203 = ORIENTED_EDGE ( 'NONE', *, *, #316, .F. ) ;
#204 = DIRECTION ( 'NONE',  ( 1.000000000000000000, 0.000000000000000000, 0.000000000000000000 ) ) ;
#205 = CALENDAR_DATE ( 2026, 4, 1 ) ;
#206 = DIRECTION ( 'NONE',  ( -1.805090809928219933E-16, 1.000000000000000000, -0.000000000000000000 ) ) ;
#207 = DIRECTION ( 'NONE',  ( 1.000000000000000000, 1.805090809928219686E-16, -0.000000000000000000 ) ) ;
#208 = CARTESIAN_POINT ( 'NONE',  ( 6.999999999999992006, 70.00000000000000000, 0.000000000000000000 ) ) ;
#209 = CC_DESIGN_APPROVAL ( #356, ( #169 ) ) ;
#210 = AXIS2_PLACEMENT_3D ( 'NONE', #80, #380, #355 ) ;
#211 = FACE_OUTER_BOUND ( 'NONE', #159, .T. ) ;
#212 = DIRECTION ( 'NONE',  ( 1.000000000000000000, 0.000000000000000000, 0.000000000000000000 ) ) ;
#213 = DIRECTION ( 'NONE',  ( 0.000000000000000000, 0.000000000000000000, 1.000000000000000000 ) ) ;
#214 = VERTEX_POINT ( 'NONE', #208 ) ;
#215 = AXIS2_PLACEMENT_3D ( 'NONE', #187, #147, #298 ) ;
#216 = PRODUCT_DEFINITION ( 'UNKNOWN', '', #104, #296 ) ;
#217 = DIRECTION ( 'NONE',  ( 0.000000000000000000, 0.000000000000000000, 1.000000000000000000 ) ) ;
#218 = CYLINDRICAL_SURFACE ( 'NONE', #343, 2.999999999999999112 ) ;
#219 = DIRECTION ( 'NONE',  ( 0.000000000000000000, 0.000000000000000000, 1.000000000000000000 ) ) ;
#220 = VERTEX_POINT ( 'NONE', #326 ) ;
#221 = VECTOR ( 'NONE', #20, 1000.000000000000000 ) ;
#222 = CARTESIAN_POINT ( 'NONE',  ( 0.000000000000000000, 0.000000000000000000, -6.000000000000000000 ) ) ;
#223 = ORIENTED_EDGE ( 'NONE', *, *, #163, .F. ) ;
#224 = PERSON_AND_ORGANIZATION_ROLE ( 'creator' ) ;
#225 = ORIENTED_EDGE ( 'NONE', *, *, #359, .F. ) ;
#226 = APPLICATION_PROTOCOL_DEFINITION ( 'international standard', 'config_control_design', 1994, #64 ) ;
#227 = ADVANCED_FACE ( 'NONE', ( #353 ), #83, .F. ) ;
#228 = ORIENTED_EDGE ( 'NONE', *, *, #359, .T. ) ;
#229 = APPROVAL_DATE_TIME ( #317, #91 ) ;
#230 = AXIS2_PLACEMENT_3D ( 'NONE', #111, #374, #145 ) ;
#231 = VERTEX_POINT ( 'NONE', #25 ) ;
#232 = AXIS2_PLACEMENT_3D ( 'NONE', #248, #127, #155 ) ;
#233 = VECTOR ( 'NONE', #321, 1000.000000000000000 ) ;
#234 = CARTESIAN_POINT ( 'NONE',  ( 0.000000000000000000, 0.000000000000000000, 0.000000000000000000 ) ) ;
#235 = ORIENTED_EDGE ( 'NONE', *, *, #302, .T. ) ;
#236 = ORIENTED_EDGE ( 'NONE', *, *, #346, .F. ) ;
#237 = ADVANCED_FACE ( 'NONE', ( #144 ), #174, .T. ) ;
#238 = DIRECTION ( 'NONE',  ( -1.805090809928219686E-16, 1.000000000000000000, 0.000000000000000000 ) ) ;
#239 = APPROVAL_PERSON_ORGANIZATION ( #78, #356, #170 ) ;
#240 = CARTESIAN_POINT ( 'NONE',  ( -20.00000000000000000, 70.00000000000000000, -6.000000000000000000 ) ) ;
#241 = APPROVAL ( #6, 'UNSPECIFIED' ) ;
#242 = CARTESIAN_POINT ( 'NONE',  ( -6.938893903907228378E-15, 70.00000000000000000, -6.000000000000000000 ) ) ;
#243 = CARTESIAN_POINT ( 'NONE',  ( -20.00000000000000000, 70.00000000000000000, -6.000000000000000000 ) ) ;
#244 = CIRCLE ( 'NONE', #73, 2.999999999999999112 ) ;
#245 = CARTESIAN_POINT ( 'NONE',  ( 15.07547169811321908, 18.02720591437806874, 0.000000000000000000 ) ) ;
#246 = DIRECTION ( 'NONE',  ( 1.000000000000000000, 0.000000000000000000, 0.000000000000000000 ) ) ;
#247 = EDGE_LOOP ( 'NONE', ( #199, #108, #185, #252 ) ) ;
#248 = CARTESIAN_POINT ( 'NONE',  ( -6.938893903907228378E-15, 70.00000000000000000, -6.000000000000000000 ) ) ;
#249 = CIRCLE ( 'NONE', #53, 23.50000000000000355 ) ;
#250 = AXIS2_PLACEMENT_3D ( 'NONE', #251, #274, #212 ) ;
#251 = CARTESIAN_POINT ( 'NONE',  ( -6.938893903907228378E-15, 70.00000000000000000, 0.000000000000000000 ) ) ;
#252 = ORIENTED_EDGE ( 'NONE', *, *, #364, .F. ) ;
#253 = CARTESIAN_POINT ( 'NONE',  ( -17.00000000000001066, 20.32855135025611659, -6.000000000000000000 ) ) ;
#254 = DATE_AND_TIME ( #286, #90 ) ;
#255 = CARTESIAN_POINT ( 'NONE',  ( -20.00000000000001066, 20.32855135025613080, 0.000000000000000000 ) ) ;
#256 = PERSON_AND_ORGANIZATION ( #119, #115 ) ;
#257 = ORIENTED_EDGE ( 'NONE', *, *, #151, .F. ) ;
#258 = ADVANCED_FACE ( 'NONE', ( #327, #141 ), #56, .F. ) ;
#259 = VERTEX_POINT ( 'NONE', #273 ) ;
#260 = PERSON_AND_ORGANIZATION_ROLE ( 'design_owner' ) ;
#261 = DIRECTION ( 'NONE',  ( -0.000000000000000000, -0.000000000000000000, -1.000000000000000000 ) ) ;
#262 = ORIENTED_EDGE ( 'NONE', *, *, #1, .T. ) ;
#263 = APPROVAL_DATE_TIME ( #288, #356 ) ;
#264 = VERTEX_POINT ( 'NONE', #245 ) ;
#265 = DIRECTION ( 'NONE',  ( 0.000000000000000000, 0.000000000000000000, 1.000000000000000000 ) ) ;
#266 = CARTESIAN_POINT ( 'NONE',  ( -7.000000000000006217, 70.00000000000000000, -6.000000000000000000 ) ) ;
#267 = CC_DESIGN_APPROVAL ( #241, ( #104 ) ) ;
#268 = PLANE ( 'NONE',  #178 ) ;
#269 = EDGE_CURVE ( 'NONE', #300, #214, #182, .T. ) ;
#270 = CARTESIAN_POINT ( 'NONE',  ( 20.00000000000000000, 70.00000000000000000, -6.000000000000000000 ) ) ;
#271 = FACE_OUTER_BOUND ( 'NONE', #247, .T. ) ;
#272 = DIRECTION ( 'NONE',  ( 1.000000000000000000, 0.000000000000000000, 0.000000000000000000 ) ) ;
#273 = CARTESIAN_POINT ( 'NONE',  ( -7.000000000000006217, 70.00000000000000000, -6.000000000000000000 ) ) ;
#274 = DIRECTION ( 'NONE',  ( 0.000000000000000000, 0.000000000000000000, 1.000000000000000000 ) ) ;
#275 = CARTESIAN_POINT ( 'NONE',  ( 17.00000000000001066, 20.32855135025611659, -6.000000000000000000 ) ) ;
#276 = DIRECTION ( 'NONE',  ( -0.000000000000000000, -0.000000000000000000, -1.000000000000000000 ) ) ;
#277 = COORDINATED_UNIVERSAL_TIME_OFFSET ( 10, 0, .AHEAD. ) ;
#278 = VERTEX_POINT ( 'NONE', #334 ) ;
#279 = PERSON_AND_ORGANIZATION_ROLE ( 'design_supplier' ) ;
#280 = DIRECTION ( 'NONE',  ( 1.000000000000000000, 0.000000000000000000, 0.000000000000000000 ) ) ;
#281 = EDGE_CURVE ( 'NONE', #283, #231, #60, .T. ) ;
#282 = ORIENTED_EDGE ( 'NONE', *, *, #36, .F. ) ;
#283 = VERTEX_POINT ( 'NONE', #92 ) ;
#284 = ADVANCED_FACE ( 'NONE', ( #184 ), #30, .F. ) ;
#285 = APPROVAL_ROLE ( '' ) ;
#286 = CALENDAR_DATE ( 2026, 4, 1 ) ;
#287 = EDGE_LOOP ( 'NONE', ( #157, #96, #370, #315 ) ) ;
#288 = DATE_AND_TIME ( #205, #146 ) ;
#289 = DIRECTION ( 'NONE',  ( 1.000000000000000000, 0.000000000000000000, 0.000000000000000000 ) ) ;
#290 = DIRECTION ( 'NONE',  ( 0.000000000000000000, 0.000000000000000000, 1.000000000000000000 ) ) ;
#291 = ADVANCED_FACE ( 'NONE', ( #357, #148 ), #89, .T. ) ;
#292 = DIRECTION ( 'NONE',  ( 0.000000000000000000, 0.000000000000000000, 1.000000000000000000 ) ) ;
#293 = VECTOR ( 'NONE', #61, 1000.000000000000000 ) ;
#294 = ADVANCED_FACE ( 'NONE', ( #191 ), #186, .T. ) ;
#295 = DIRECTION ( 'NONE',  ( 0.000000000000000000, 0.000000000000000000, 1.000000000000000000 ) ) ;
#296 = DESIGN_CONTEXT ( 'detailed design', #375, 'design' ) ;
#297 = DIRECTION ( 'NONE',  ( 0.000000000000000000, 0.000000000000000000, 1.000000000000000000 ) ) ;
#298 = DIRECTION ( 'NONE',  ( 1.000000000000000000, 0.000000000000000000, 0.000000000000000000 ) ) ;
#299 = DIRECTION ( 'NONE',  ( 1.000000000000000000, 0.000000000000000000, -0.000000000000000000 ) ) ;
#300 = VERTEX_POINT ( 'NONE', #31 ) ;
#301 = CARTESIAN_POINT ( 'NONE',  ( -15.07547169811321730, 18.02720591437806874, -6.000000000000000000 ) ) ;
#302 = EDGE_CURVE ( 'NONE', #308, #195, #22, .T. ) ;
#303 = CARTESIAN_POINT ( 'NONE',  ( 0.000000000000000000, 0.000000000000000000, -6.000000000000000000 ) ) ;
#304 = AXIS2_PLACEMENT_3D ( 'NONE', #234, #310, #98 ) ;
#305 = CARTESIAN_POINT ( 'NONE',  ( -15.07547169811321908, 18.02720591437806874, -6.000000000000000000 ) ) ;
#306 = VECTOR ( 'NONE', #219, 1000.000000000000000 ) ;
#307 = DIRECTION ( 'NONE',  ( 0.000000000000000000, 0.000000000000000000, 1.000000000000000000 ) ) ;
#308 = VERTEX_POINT ( 'NONE', #305 ) ;
#309 = EDGE_CURVE ( 'NONE', #214, #278, #3, .T. ) ;
#310 = DIRECTION ( 'NONE',  ( 0.000000000000000000, 0.000000000000000000, 1.000000000000000000 ) ) ;
#311 = EDGE_CURVE ( 'NONE', #259, #300, #365, .T. ) ;
#312 = ORIENTED_EDGE ( 'NONE', *, *, #309, .T. ) ;
#313 = DIRECTION ( 'NONE',  ( 1.000000000000000000, 0.000000000000000000, 0.000000000000000000 ) ) ;
#314 = ORIENTED_EDGE ( 'NONE', *, *, #8, .T. ) ;
#315 = ORIENTED_EDGE ( 'NONE', *, *, #118, .T. ) ;
#316 = EDGE_CURVE ( 'NONE', #162, #308, #150, .T. ) ;
#317 = DATE_AND_TIME ( #71, #183 ) ;
#318 = EDGE_LOOP ( 'NONE', ( #136, #203, #130, #236 ) ) ;
#319 = LINE ( 'NONE', #270, #176 ) ;
#320 = APPROVAL_PERSON_ORGANIZATION ( #69, #91, #337 ) ;
#321 = DIRECTION ( 'NONE',  ( -1.805090809928219933E-16, -1.000000000000000000, 0.000000000000000000 ) ) ;
#322 = EDGE_CURVE ( 'NONE', #101, #220, #377, .T. ) ;
#323 = COORDINATED_UNIVERSAL_TIME_OFFSET ( 10, 0, .AHEAD. ) ;
#324 = CYLINDRICAL_SURFACE ( 'NONE', #230, 6.999999999999999112 ) ;
#325 = CIRCLE ( 'NONE', #190, 2.999999999999999112 ) ;
#326 = CARTESIAN_POINT ( 'NONE',  ( -20.00000000000000000, 70.00000000000000000, 0.000000000000000000 ) ) ;
#327 = FACE_BOUND ( 'NONE', #44, .T. ) ;
#328 = DIRECTION ( 'NONE',  ( 1.000000000000000000, 0.000000000000000000, 0.000000000000000000 ) ) ;
#329 = EDGE_CURVE ( 'NONE', #278, #214, #66, .T. ) ;
#330 = DIRECTION ( 'NONE',  ( 1.000000000000000000, 0.000000000000000000, -0.000000000000000000 ) ) ;
#331 = LINE ( 'NONE', #123, #293 ) ;
#332 = DIRECTION ( 'NONE',  ( 0.000000000000000000, 0.000000000000000000, 1.000000000000000000 ) ) ;
#333 = ADVANCED_FACE ( 'NONE', ( #120 ), #218, .T. ) ;
#334 = CARTESIAN_POINT ( 'NONE',  ( -7.000000000000006217, 70.00000000000000000, 0.000000000000000000 ) ) ;
#335 = UNCERTAINTY_MEASURE_WITH_UNIT (LENGTH_MEASURE( 1.000000000000000082E-05 ), #194, 'distance_accuracy_value', 'NONE');
#336 = CC_DESIGN_APPROVAL ( #91, ( #216 ) ) ;
#337 = APPROVAL_ROLE ( '' ) ;
#338 = PERSON_AND_ORGANIZATION ( #119, #115 ) ;
#339 = CC_DESIGN_DATE_AND_TIME_ASSIGNMENT ( #128, #196, ( #216 ) ) ;
#340 = EDGE_LOOP ( 'NONE', ( #74, #347 ) ) ;
#341 = COORDINATED_UNIVERSAL_TIME_OFFSET ( 10, 0, .AHEAD. ) ;
#342 = EDGE_LOOP ( 'NONE', ( #19, #223, #16, #138 ) ) ;
#343 = AXIS2_PLACEMENT_3D ( 'NONE', #253, #332, #246 ) ;
#344 = APPROVAL_DATE_TIME ( #161, #241 ) ;
#345 = ORIENTED_EDGE ( 'NONE', *, *, #352, .T. ) ;
#346 = EDGE_CURVE ( 'NONE', #195, #368, #2, .T. ) ;
#347 = ORIENTED_EDGE ( 'NONE', *, *, #329, .F. ) ;
#348 = DATE_TIME_ROLE ( 'classification_date' ) ;
#349 = CARTESIAN_POINT ( 'NONE',  ( 19.99999999999999289, 70.00000000000000000, 0.000000000000000000 ) ) ;
#350 = AXIS2_PLACEMENT_3D ( 'NONE', #84, #360, #358 ) ;
#351 = DIRECTION ( 'NONE',  ( -1.000000000000000000, 1.805090809928219686E-16, 0.000000000000000000 ) ) ;
#352 = EDGE_CURVE ( 'NONE', #283, #101, #331, .T. ) ;
#353 = FACE_OUTER_BOUND ( 'NONE', #193, .T. ) ;
#354 = DIRECTION ( 'NONE',  ( 0.000000000000000000, 0.000000000000000000, 1.000000000000000000 ) ) ;
#355 = DIRECTION ( 'NONE',  ( 1.000000000000000000, 0.000000000000000000, 0.000000000000000000 ) ) ;
#356 = APPROVAL ( #113, 'UNSPECIFIED' ) ;
#357 = FACE_BOUND ( 'NONE', #340, .T. ) ;
#358 = DIRECTION ( 'NONE',  ( 1.000000000000000000, 1.156482317317871725E-15, 0.000000000000000000 ) ) ;
#359 = EDGE_CURVE ( 'NONE', #231, #46, #244, .T. ) ;
#360 = DIRECTION ( 'NONE',  ( -0.000000000000000000, -0.000000000000000000, -1.000000000000000000 ) ) ;
#361 = EDGE_CURVE ( 'NONE', #300, #259, #54, .T. ) ;
#362 = DIRECTION ( 'NONE',  ( 1.000000000000000000, 0.000000000000000000, 0.000000000000000000 ) ) ;
#363 = ORIENTED_EDGE ( 'NONE', *, *, #322, .T. ) ;
#364 = EDGE_CURVE ( 'NONE', #41, #220, #134, .T. ) ;
#365 = CIRCLE ( 'NONE', #232, 6.999999999999999112 ) ;
#366 = ORIENTED_EDGE ( 'NONE', *, *, #352, .F. ) ;
#367 = DIRECTION ( 'NONE',  ( 0.000000000000000000, 0.000000000000000000, 1.000000000000000000 ) ) ;
#368 = VERTEX_POINT ( 'NONE', #255 ) ;
#369 = DIRECTION ( 'NONE',  ( 1.000000000000000000, 0.000000000000000000, 0.000000000000000000 ) ) ;
#370 = ORIENTED_EDGE ( 'NONE', *, *, #376, .T. ) ;
#371 = CARTESIAN_POINT ( 'NONE',  ( -6.938893903907228378E-15, 70.00000000000000000, -6.000000000000000000 ) ) ;
#372 = EDGE_LOOP ( 'NONE', ( #366, #37, #87, #121 ) ) ;
#373 = EDGE_LOOP ( 'NONE', ( #188, #235, #70, #68, #257, #228 ) ) ;
#374 = DIRECTION ( 'NONE',  ( 0.000000000000000000, 0.000000000000000000, 1.000000000000000000 ) ) ;
#375 = APPLICATION_CONTEXT ( 'configuration controlled 3d designs of mechanical parts and assemblies' ) ;
#376 = EDGE_CURVE ( 'NONE', #308, #46, #177, .T. ) ;
#377 = CIRCLE ( 'NONE', #250, 20.00000000000000000 ) ;
#378 = CARTESIAN_POINT ( 'NONE',  ( -15.07547169811321908, 18.02720591437806874, 0.000000000000000000 ) ) ;
#379 = DIRECTION ( 'NONE',  ( -1.805090809928219686E-16, -1.000000000000000000, 0.000000000000000000 ) ) ;
#380 = DIRECTION ( 'NONE',  ( 0.000000000000000000, 0.000000000000000000, 1.000000000000000000 ) ) ;
#381 = AXIS2_PLACEMENT_3D ( 'NONE', #112, #50, #171 ) ;
#382 = CARTESIAN_POINT ( 'NONE',  ( -20.00000000000000000, 70.00000000000000000, -6.000000000000000000 ) ) ;
#383 = VECTOR ( 'NONE', #213, 1000.000000000000000 ) ;
#384 = CARTESIAN_POINT ( 'NONE',  ( 0.000000000000000000, 0.000000000000000000, -6.000000000000000000 ) ) ;
#385 = DIRECTION ( 'NONE',  ( 0.000000000000000000, 0.000000000000000000, 1.000000000000000000 ) ) ;
ENDSEC;
END-ISO-10303-21;
