ISO-10303-21;
HEADER;
FILE_DESCRIPTION (( 'STEP AP203' ),
    '1' );
FILE_NAME ('3484-MU103-40_REV_.step',
    '2026-01-04T05:13:30',
    ( '' ),
    ( '' ),
    'SwSTEP 2.0',
    'SolidWorks 2025',
    '' );
FILE_SCHEMA (( 'CONFIG_CONTROL_DESIGN' ));
ENDSEC;

DATA;
#1 = VECTOR ( 'NONE', #107, 1000.000000000000000 ) ;
#2 = DIRECTION ( 'NONE',  ( 0.000000000000000000, -1.000000000000000000, 0.000000000000000000 ) ) ;
#3 = EDGE_LOOP ( 'NONE', ( #359, #217, #46, #219 ) ) ;
#4 = DIRECTION ( 'NONE',  ( 0.000000000000000000, -0.000000000000000000, 1.000000000000000000 ) ) ;
#5 = ORIENTED_EDGE ( 'NONE', *, *, #199, .T. ) ;
#6 =( LENGTH_UNIT ( ) NAMED_UNIT ( * ) SI_UNIT ( .MILLI., .METRE. ) );
#7 = VERTEX_POINT ( 'NONE', #201 ) ;
#8 = DIRECTION ( 'NONE',  ( 1.000000000000000000, 0.000000000000000000, 0.000000000000000000 ) ) ;
#9 = ORIENTED_EDGE ( 'NONE', *, *, #59, .T. ) ;
#10 = DATE_AND_TIME ( #298, #204 ) ;
#11 = DIRECTION ( 'NONE',  ( 1.000000000000000000, 0.000000000000000000, 0.000000000000000000 ) ) ;
#12 = APPROVAL_STATUS ( 'not_yet_approved' ) ;
#13 = PLANE ( 'NONE',  #264 ) ;
#14 = VECTOR ( 'NONE', #249, 1000.000000000000000 ) ;
#15 = DIRECTION ( 'NONE',  ( 0.000000000000000000, 0.000000000000000000, 1.000000000000000000 ) ) ;
#16 = VECTOR ( 'NONE', #172, 1000.000000000000000 ) ;
#17 = ADVANCED_FACE ( 'NONE', ( #140 ), #13, .F. ) ;
#18 = LOCAL_TIME ( 16, 13, 30.00000000000000000, #247 ) ;
#19 = DIRECTION ( 'NONE',  ( -0.000000000000000000, 1.000000000000000000, -0.000000000000000000 ) ) ;
#20 = CARTESIAN_POINT ( 'NONE',  ( 172.4999999999999432, 14.99999999999999822, 0.000000000000000000 ) ) ;
#21 = COORDINATED_UNIVERSAL_TIME_OFFSET ( 10, 0, .AHEAD. ) ;
#22 = CARTESIAN_POINT ( 'NONE',  ( -172.5000000000000284, 3.545079520082348592E-33, -1.550000000000000044 ) ) ;
#23 = AXIS2_PLACEMENT_3D ( 'NONE', #49, #168, #190 ) ;
#24 = PLANE ( 'NONE',  #131 ) ;
#25 = DIRECTION ( 'NONE',  ( 0.000000000000000000, 0.000000000000000000, 1.000000000000000000 ) ) ;
#26 = DIRECTION ( 'NONE',  ( 1.000000000000000000, 2.363386346721568322E-34, 0.000000000000000000 ) ) ;
#27 = AXIS2_PLACEMENT_3D ( 'NONE', #205, #296, #55 ) ;
#28 = PRODUCT ( '3484-MU103-40_REV_', '3484-MU103-40_REV_', '', ( #245 ) ) ;
#29 = DIRECTION ( 'NONE',  ( -0.000000000000000000, 0.000000000000000000, 1.000000000000000000 ) ) ;
#30 = VERTEX_POINT ( 'NONE', #75 ) ;
#31 = ADVANCED_BREP_SHAPE_REPRESENTATION ( '3484-MU103-40_REV_', ( #202, #327 ), #222 ) ;
#32 = CARTESIAN_POINT ( 'NONE',  ( -187.5000000000000000, 485.0000000000000000, 0.000000000000000000 ) ) ;
#33 = VERTEX_POINT ( 'NONE', #104 ) ;
#34 = CALENDAR_DATE ( 2026, 4, 1 ) ;
#35 = ORIENTED_EDGE ( 'NONE', *, *, #85, .T. ) ;
#36 = PERSON_AND_ORGANIZATION_ROLE ( 'design_owner' ) ;
#37 = EDGE_CURVE ( 'NONE', #33, #377, #164, .T. ) ;
#38 = ORIENTED_EDGE ( 'NONE', *, *, #84, .F. ) ;
#39 = AXIS2_PLACEMENT_3D ( 'NONE', #90, #240, #210 ) ;
#40 = LINE ( 'NONE', #96, #14 ) ;
#41 = ORIENTED_EDGE ( 'NONE', *, *, #340, .F. ) ;
#42 = EDGE_CURVE ( 'NONE', #68, #159, #273, .T. ) ;
#43 = DATE_TIME_ROLE ( 'creation_date' ) ;
#44 = DIRECTION ( 'NONE',  ( 1.000000000000000000, 2.363386346721568322E-34, 0.000000000000000000 ) ) ;
#45 = FACE_OUTER_BOUND ( 'NONE', #215, .T. ) ;
#46 = ORIENTED_EDGE ( 'NONE', *, *, #160, .F. ) ;
#47 = PERSON_AND_ORGANIZATION ( #92, #236 ) ;
#48 = CARTESIAN_POINT ( 'NONE',  ( -172.5000000000000284, 500.0000000000000000, 0.000000000000000000 ) ) ;
#49 = CARTESIAN_POINT ( 'NONE',  ( 172.4999999999999432, 14.99999999999999822, -1.550000000000000044 ) ) ;
#50 = APPROVAL ( #255, 'UNSPECIFIED' ) ;
#51 = DATE_AND_TIME ( #229, #374 ) ;
#52 = VERTEX_POINT ( 'NONE', #334 ) ;
#53 = EDGE_CURVE ( 'NONE', #33, #30, #258, .T. ) ;
#54 = EDGE_CURVE ( 'NONE', #56, #67, #361, .T. ) ;
#55 = DIRECTION ( 'NONE',  ( -0.000000000000000000, 0.000000000000000000, -1.000000000000000000 ) ) ;
#56 = VERTEX_POINT ( 'NONE', #227 ) ;
#57 = LINE ( 'NONE', #88, #295 ) ;
#58 = ADVANCED_FACE ( 'NONE', ( #281 ), #314, .T. ) ;
#59 = EDGE_CURVE ( 'NONE', #162, #132, #106, .T. ) ;
#60 = EDGE_CURVE ( 'NONE', #91, #377, #256, .T. ) ;
#61 = PLANE ( 'NONE',  #27 ) ;
#62 = ORIENTED_EDGE ( 'NONE', *, *, #291, .F. ) ;
#63 = DIRECTION ( 'NONE',  ( 1.000000000000000000, 0.000000000000000000, 0.000000000000000000 ) ) ;
#64 = CC_DESIGN_APPROVAL ( #322, ( #150 ) ) ;
#65 = ORIENTED_EDGE ( 'NONE', *, *, #53, .T. ) ;
#66 = CIRCLE ( 'NONE', #188, 14.99999999999998579 ) ;
#67 = VERTEX_POINT ( 'NONE', #248 ) ;
#68 = VERTEX_POINT ( 'NONE', #48 ) ;
#69 = DIRECTION ( 'NONE',  ( 1.000000000000000000, 0.000000000000000000, 0.000000000000000000 ) ) ;
#70 = ORIENTED_EDGE ( 'NONE', *, *, #375, .T. ) ;
#71 = VECTOR ( 'NONE', #119, 1000.000000000000000 ) ;
#72 = DIRECTION ( 'NONE',  ( -0.000000000000000000, 0.000000000000000000, 1.000000000000000000 ) ) ;
#73 = DIRECTION ( 'NONE',  ( 0.000000000000000000, -0.000000000000000000, 1.000000000000000000 ) ) ;
#74 = ORIENTED_EDGE ( 'NONE', *, *, #187, .F. ) ;
#75 = CARTESIAN_POINT ( 'NONE',  ( -172.5000000000000284, 3.545079520082348592E-33, -1.550000000000000044 ) ) ;
#76 = AXIS2_PLACEMENT_3D ( 'NONE', #238, #351, #174 ) ;
#77 = ORIENTED_EDGE ( 'NONE', *, *, #376, .F. ) ;
#78 = FACE_OUTER_BOUND ( 'NONE', #331, .T. ) ;
#79 = PERSON_AND_ORGANIZATION ( #92, #236 ) ;
#80 = FACE_OUTER_BOUND ( 'NONE', #237, .T. ) ;
#81 = PRODUCT_DEFINITION_FORMATION_WITH_SPECIFIED_SOURCE ( 'ANY', '', #28, .NOT_KNOWN. ) ;
#82 = SECURITY_CLASSIFICATION ( '', '', #282 ) ;
#83 = CARTESIAN_POINT ( 'NONE',  ( -172.5000000000000284, 485.0000000000000000, -1.550000000000000044 ) ) ;
#84 = EDGE_CURVE ( 'NONE', #377, #7, #373, .T. ) ;
#85 = EDGE_CURVE ( 'NONE', #271, #137, #226, .T. ) ;
#86 = PRODUCT_RELATED_PRODUCT_CATEGORY ( 'detail', '', ( #28 ) ) ;
#87 = CC_DESIGN_SECURITY_CLASSIFICATION ( #82, ( #81 ) ) ;
#88 = CARTESIAN_POINT ( 'NONE',  ( 187.5000000000000000, 485.0000000000000000, -1.550000000000000044 ) ) ;
#89 = ORIENTED_EDGE ( 'NONE', *, *, #37, .T. ) ;
#90 = CARTESIAN_POINT ( 'NONE',  ( 172.4999999999999432, 14.99999999999999822, -1.550000000000000044 ) ) ;
#91 = VERTEX_POINT ( 'NONE', #198 ) ;
#92 = PERSON ( 'UNSPECIFIED', 'UNSPECIFIED', 'UNSPECIFIED', ('UNSPECIFIED'), ('UNSPECIFIED'), ('UNSPECIFIED') ) ;
#93 = FACE_OUTER_BOUND ( 'NONE', #3, .T. ) ;
#94 = ORIENTED_EDGE ( 'NONE', *, *, #352, .F. ) ;
#95 = ORIENTED_EDGE ( 'NONE', *, *, #103, .T. ) ;
#96 = CARTESIAN_POINT ( 'NONE',  ( -187.5000000000000000, 500.0000000000000000, -1.550000000000000044 ) ) ;
#97 = ORIENTED_EDGE ( 'NONE', *, *, #84, .T. ) ;
#98 = COORDINATED_UNIVERSAL_TIME_OFFSET ( 10, 0, .AHEAD. ) ;
#99 = CARTESIAN_POINT ( 'NONE',  ( 187.5000000000000000, 500.0000000000000000, -1.550000000000000044 ) ) ;
#100 = CC_DESIGN_PERSON_AND_ORGANIZATION_ASSIGNMENT ( #276, #36, ( #28 ) ) ;
#101 = VECTOR ( 'NONE', #310, 1000.000000000000000 ) ;
#102 = DATE_AND_TIME ( #135, #214 ) ;
#103 = EDGE_CURVE ( 'NONE', #159, #132, #134, .T. ) ;
#104 = CARTESIAN_POINT ( 'NONE',  ( -172.5000000000000284, 3.545079520082348592E-33, 0.000000000000000000 ) ) ;
#105 = CARTESIAN_POINT ( 'NONE',  ( 172.4999999999999432, 8.508190848197644283E-32, 0.000000000000000000 ) ) ;
#106 = LINE ( 'NONE', #165, #251 ) ;
#107 = DIRECTION ( 'NONE',  ( 1.000000000000000000, 2.363386346721568322E-34, 0.000000000000000000 ) ) ;
#108 = EDGE_CURVE ( 'NONE', #56, #68, #336, .T. ) ;
#109 = AXIS2_PLACEMENT_3D ( 'NONE', #231, #127, #316 ) ;
#110 = APPROVAL_DATE_TIME ( #51, #50 ) ;
#111 = APPROVAL_PERSON_ORGANIZATION ( #342, #50, #117 ) ;
#112 = CARTESIAN_POINT ( 'NONE',  ( 187.5000000000000000, 485.0000000000000000, -1.550000000000000044 ) ) ;
#113 = ADVANCED_FACE ( 'NONE', ( #221 ), #312, .T. ) ;
#114 = CARTESIAN_POINT ( 'NONE',  ( 187.5000000000000000, 15.00000000000001421, -1.550000000000000044 ) ) ;
#115 = DIRECTION ( 'NONE',  ( 1.000000000000000000, 0.000000000000000000, 0.000000000000000000 ) ) ;
#116 = CC_DESIGN_APPROVAL ( #308, ( #81 ) ) ;
#117 = APPROVAL_ROLE ( '' ) ;
#118 = VECTOR ( 'NONE', #254, 1000.000000000000000 ) ;
#119 = DIRECTION ( 'NONE',  ( -0.000000000000000000, -0.000000000000000000, -1.000000000000000000 ) ) ;
#120 = CC_DESIGN_DATE_AND_TIME_ASSIGNMENT ( #313, #257, ( #82 ) ) ;
#121 = AXIS2_PLACEMENT_3D ( 'NONE', #364, #224, #341 ) ;
#122 = CC_DESIGN_APPROVAL ( #50, ( #82 ) ) ;
#123 = ORIENTED_EDGE ( 'NONE', *, *, #200, .T. ) ;
#124 = CYLINDRICAL_SURFACE ( 'NONE', #319, 14.99999999999998579 ) ;
#125 = ORIENTED_EDGE ( 'NONE', *, *, #311, .F. ) ;
#126 = CC_DESIGN_PERSON_AND_ORGANIZATION_ASSIGNMENT ( #79, #337, ( #81 ) ) ;
#127 = DIRECTION ( 'NONE',  ( -0.000000000000000000, 0.000000000000000000, 1.000000000000000000 ) ) ;
#128 = ORIENTED_EDGE ( 'NONE', *, *, #37, .F. ) ;
#129 = CARTESIAN_POINT ( 'NONE',  ( 172.5000000000000284, 485.0000000000000000, -1.550000000000000044 ) ) ;
#130 = EDGE_LOOP ( 'NONE', ( #299, #363, #176, #297 ) ) ;
#131 = AXIS2_PLACEMENT_3D ( 'NONE', #369, #288, #25 ) ;
#132 = VERTEX_POINT ( 'NONE', #283 ) ;
#133 = PERSON_AND_ORGANIZATION_ROLE ( 'creator' ) ;
#134 = LINE ( 'NONE', #228, #118 ) ;
#135 = CALENDAR_DATE ( 2026, 4, 1 ) ;
#136 = LOCAL_TIME ( 16, 13, 30.00000000000000000, #287 ) ;
#137 = VERTEX_POINT ( 'NONE', #112 ) ;
#138 = DIRECTION ( 'NONE',  ( -0.000000000000000000, 0.000000000000000000, 1.000000000000000000 ) ) ;
#139 = DIRECTION ( 'NONE',  ( 1.000000000000000000, 0.000000000000000000, 0.000000000000000000 ) ) ;
#140 = FACE_OUTER_BOUND ( 'NONE', #154, .T. ) ;
#141 = ADVANCED_FACE ( 'NONE', ( #78 ), #61, .T. ) ;
#142 = UNCERTAINTY_MEASURE_WITH_UNIT (LENGTH_MEASURE( 1.000000000000000082E-05 ), #6, 'distance_accuracy_value', 'NONE');
#143 = DIRECTION ( 'NONE',  ( -0.000000000000000000, 0.000000000000000000, -1.000000000000000000 ) ) ;
#144 = CARTESIAN_POINT ( 'NONE',  ( -187.5000000000000000, 500.0000000000000000, -1.550000000000000044 ) ) ;
#145 = PLANE ( 'NONE',  #220 ) ;
#146 = CALENDAR_DATE ( 2026, 4, 1 ) ;
#147 = PLANE ( 'NONE',  #109 ) ;
#148 = CC_DESIGN_PERSON_AND_ORGANIZATION_ASSIGNMENT ( #161, #133, ( #150 ) ) ;
#149 = DIRECTION ( 'NONE',  ( 1.000000000000000000, 0.000000000000000000, 0.000000000000000000 ) ) ;
#150 = PRODUCT_DEFINITION ( 'UNKNOWN', '', #81, #206 ) ;
#151 = ORIENTED_EDGE ( 'NONE', *, *, #42, .T. ) ;
#152 = CARTESIAN_POINT ( 'NONE',  ( -187.5000000000000000, 15.00000000000001421, -1.550000000000000044 ) ) ;
#153 = EDGE_CURVE ( 'NONE', #30, #162, #66, .T. ) ;
#154 = EDGE_LOOP ( 'NONE', ( #301, #211, #321, #324, #239, #355, #77, #156 ) ) ;
#155 = DATE_AND_TIME ( #34, #18 ) ;
#156 = ORIENTED_EDGE ( 'NONE', *, *, #340, .T. ) ;
#157 = APPLICATION_PROTOCOL_DEFINITION ( 'international standard', 'config_control_design', 1994, #207 ) ;
#158 = CIRCLE ( 'NONE', #367, 14.99999999999998579 ) ;
#159 = VERTEX_POINT ( 'NONE', #32 ) ;
#160 = EDGE_CURVE ( 'NONE', #132, #33, #243, .T. ) ;
#161 = PERSON_AND_ORGANIZATION ( #92, #236 ) ;
#162 = VERTEX_POINT ( 'NONE', #152 ) ;
#163 = CARTESIAN_POINT ( 'NONE',  ( 172.5000000000000284, 485.0000000000000000, -1.550000000000000044 ) ) ;
#164 = LINE ( 'NONE', #194, #1 ) ;
#165 = CARTESIAN_POINT ( 'NONE',  ( -187.5000000000000000, 15.00000000000001421, -1.550000000000000044 ) ) ;
#166 = AXIS2_PLACEMENT_3D ( 'NONE', #339, #277, #44 ) ;
#167 = ORIENTED_EDGE ( 'NONE', *, *, #160, .T. ) ;
#168 = DIRECTION ( 'NONE',  ( 0.000000000000000000, 0.000000000000000000, 1.000000000000000000 ) ) ;
#169 = LINE ( 'NONE', #265, #196 ) ;
#170 = CLOSED_SHELL ( 'NONE', ( #317, #191, #141, #58, #17, #218, #113, #286, #279, #347 ) ) ;
#171 = APPROVAL_PERSON_ORGANIZATION ( #242, #308, #270 ) ;
#172 = DIRECTION ( 'NONE',  ( -0.000000000000000000, 1.000000000000000000, -0.000000000000000000 ) ) ;
#173 = VERTEX_POINT ( 'NONE', #345 ) ;
#174 = DIRECTION ( 'NONE',  ( 1.000000000000000000, 0.000000000000000000, 0.000000000000000000 ) ) ;
#175 = LINE ( 'NONE', #372, #71 ) ;
#176 = ORIENTED_EDGE ( 'NONE', *, *, #108, .F. ) ;
#177 = AXIS2_PLACEMENT_3D ( 'NONE', #272, #138, #253 ) ;
#178 = CARTESIAN_POINT ( 'NONE',  ( -172.5000000000000284, 15.00000000000001421, -1.550000000000000044 ) ) ;
#179 = VECTOR ( 'NONE', #19, 1000.000000000000000 ) ;
#180 = ORIENTED_EDGE ( 'NONE', *, *, #375, .F. ) ;
#181 = COORDINATED_UNIVERSAL_TIME_OFFSET ( 10, 0, .AHEAD. ) ;
#182 = APPLICATION_CONTEXT ( 'configuration controlled 3d designs of mechanical parts and assemblies' ) ;
#183 = ORIENTED_EDGE ( 'NONE', *, *, #108, .T. ) ;
#184 = CARTESIAN_POINT ( 'NONE',  ( 0.000000000000000000, 0.000000000000000000, 0.000000000000000000 ) ) ;
#185 = VERTEX_POINT ( 'NONE', #326 ) ;
#186 = PERSON_AND_ORGANIZATION ( #92, #236 ) ;
#187 = EDGE_CURVE ( 'NONE', #137, #52, #57, .T. ) ;
#188 = AXIS2_PLACEMENT_3D ( 'NONE', #178, #268, #115 ) ;
#189 = EDGE_LOOP ( 'NONE', ( #125, #269, #303, #332 ) ) ;
#190 = DIRECTION ( 'NONE',  ( 1.000000000000000000, 0.000000000000000000, 0.000000000000000000 ) ) ;
#191 = ADVANCED_FACE ( 'NONE', ( #208 ), #145, .T. ) ;
#192 = DIRECTION ( 'NONE',  ( 0.000000000000000000, -0.000000000000000000, -1.000000000000000000 ) ) ;
#193 = CC_DESIGN_PERSON_AND_ORGANIZATION_ASSIGNMENT ( #197, #344, ( #81 ) ) ;
#194 = CARTESIAN_POINT ( 'NONE',  ( -187.5000000000000000, 0.000000000000000000, 0.000000000000000000 ) ) ;
#195 = CARTESIAN_POINT ( 'NONE',  ( -187.5000000000000000, 500.0000000000000000, 0.000000000000000000 ) ) ;
#196 = VECTOR ( 'NONE', #2, 1000.000000000000000 ) ;
#197 = PERSON_AND_ORGANIZATION ( #92, #236 ) ;
#198 = CARTESIAN_POINT ( 'NONE',  ( 172.4999999999999432, 8.508190848197644283E-32, -1.550000000000000044 ) ) ;
#199 = EDGE_CURVE ( 'NONE', #159, #185, #175, .T. ) ;
#200 = EDGE_CURVE ( 'NONE', #7, #52, #260, .T. ) ;
#201 = CARTESIAN_POINT ( 'NONE',  ( 187.5000000000000000, 15.00000000000001421, 0.000000000000000000 ) ) ;
#202 = MANIFOLD_SOLID_BREP ( 'Fillet1', #170 ) ;
#203 = DIRECTION ( 'NONE',  ( 0.000000000000000000, -0.000000000000000000, 1.000000000000000000 ) ) ;
#204 = LOCAL_TIME ( 16, 13, 30.00000000000000000, #181 ) ;
#205 = CARTESIAN_POINT ( 'NONE',  ( 187.5000000000000000, 500.0000000000000000, -1.550000000000000044 ) ) ;
#206 = DESIGN_CONTEXT ( 'detailed design', #207, 'design' ) ;
#207 = APPLICATION_CONTEXT ( 'configuration controlled 3d designs of mechanical parts and assemblies' ) ;
#208 = FACE_OUTER_BOUND ( 'NONE', #130, .T. ) ;
#209 = EDGE_LOOP ( 'NONE', ( #357, #244, #128, #65 ) ) ;
#210 = DIRECTION ( 'NONE',  ( 1.000000000000000000, 0.000000000000000000, 0.000000000000000000 ) ) ;
#211 = ORIENTED_EDGE ( 'NONE', *, *, #291, .T. ) ;
#212 = DIRECTION ( 'NONE',  ( 0.000000000000000000, -0.000000000000000000, -1.000000000000000000 ) ) ;
#213 = AXIS2_PLACEMENT_3D ( 'NONE', #20, #368, #11 ) ;
#214 = LOCAL_TIME ( 16, 13, 30.00000000000000000, #98 ) ;
#215 = EDGE_LOOP ( 'NONE', ( #41, #274, #94, #74 ) ) ;
#216 = EDGE_CURVE ( 'NONE', #173, #68, #235, .T. ) ;
#217 = ORIENTED_EDGE ( 'NONE', *, *, #53, .F. ) ;
#218 = ADVANCED_FACE ( 'NONE', ( #80 ), #147, .T. ) ;
#219 = ORIENTED_EDGE ( 'NONE', *, *, #59, .F. ) ;
#220 = AXIS2_PLACEMENT_3D ( 'NONE', #144, #262, #4 ) ;
#221 = FACE_OUTER_BOUND ( 'NONE', #267, .T. ) ;
#222 =( GEOMETRIC_REPRESENTATION_CONTEXT ( 3 ) GLOBAL_UNCERTAINTY_ASSIGNED_CONTEXT ( ( #142 ) ) GLOBAL_UNIT_ASSIGNED_CONTEXT ( ( #6, #278, #362 ) ) REPRESENTATION_CONTEXT ( 'NONE', 'WORKASPACE' ) );
#223 = APPROVAL_DATE_TIME ( #102, #308 ) ;
#224 = DIRECTION ( 'NONE',  ( -0.000000000000000000, 0.000000000000000000, 1.000000000000000000 ) ) ;
#225 = APPLICATION_PROTOCOL_DEFINITION ( 'international standard', 'config_control_design', 1994, #182 ) ;
#226 = LINE ( 'NONE', #99, #179 ) ;
#227 = CARTESIAN_POINT ( 'NONE',  ( 172.5000000000000000, 500.0000000000000000, 0.000000000000000000 ) ) ;
#228 = CARTESIAN_POINT ( 'NONE',  ( -187.5000000000000000, 500.0000000000000000, 0.000000000000000000 ) ) ;
#229 = CALENDAR_DATE ( 2026, 4, 1 ) ;
#230 = CARTESIAN_POINT ( 'NONE',  ( -187.5000000000000000, 0.000000000000000000, -1.550000000000000044 ) ) ;
#231 = CARTESIAN_POINT ( 'NONE',  ( 0.000000000000000000, 0.000000000000000000, 0.000000000000000000 ) ) ;
#232 = CC_DESIGN_PERSON_AND_ORGANIZATION_ASSIGNMENT ( #47, #365, ( #82 ) ) ;
#233 = VECTOR ( 'NONE', #292, 1000.000000000000000 ) ;
#234 = CIRCLE ( 'NONE', #177, 14.99999999999998579 ) ;
#235 = LINE ( 'NONE', #259, #233 ) ;
#236 = ORGANIZATION ( 'UNSPECIFIED', 'UNSPECIFIED', '' ) ;
#237 = EDGE_LOOP ( 'NONE', ( #89, #97, #123, #329, #183, #151, #95, #167 ) ) ;
#238 = CARTESIAN_POINT ( 'NONE',  ( -172.5000000000000284, 15.00000000000001421, -1.550000000000000044 ) ) ;
#239 = ORIENTED_EDGE ( 'NONE', *, *, #261, .F. ) ;
#240 = DIRECTION ( 'NONE',  ( 0.000000000000000000, -0.000000000000000000, -1.000000000000000000 ) ) ;
#241 = ORIENTED_EDGE ( 'NONE', *, *, #200, .F. ) ;
#242 = PERSON_AND_ORGANIZATION ( #92, #236 ) ;
#243 = CIRCLE ( 'NONE', #325, 14.99999999999998579 ) ;
#244 = ORIENTED_EDGE ( 'NONE', *, *, #60, .T. ) ;
#245 = MECHANICAL_CONTEXT ( 'NONE', #182, 'mechanical' ) ;
#246 = EDGE_LOOP ( 'NONE', ( #350, #9, #328, #5 ) ) ;
#247 = COORDINATED_UNIVERSAL_TIME_OFFSET ( 10, 0, .AHEAD. ) ;
#248 = CARTESIAN_POINT ( 'NONE',  ( 172.5000000000000000, 500.0000000000000000, -1.550000000000000044 ) ) ;
#249 = DIRECTION ( 'NONE',  ( -1.000000000000000000, -0.000000000000000000, -0.000000000000000000 ) ) ;
#250 = APPROVAL_PERSON_ORGANIZATION ( #186, #322, #304 ) ;
#251 = VECTOR ( 'NONE', #275, 1000.000000000000000 ) ;
#252 = CARTESIAN_POINT ( 'NONE',  ( 0.000000000000000000, 0.000000000000000000, -1.550000000000000044 ) ) ;
#253 = DIRECTION ( 'NONE',  ( 1.000000000000000000, 0.000000000000000000, 0.000000000000000000 ) ) ;
#254 = DIRECTION ( 'NONE',  ( 0.000000000000000000, -1.000000000000000000, 0.000000000000000000 ) ) ;
#255 = APPROVAL_STATUS ( 'not_yet_approved' ) ;
#256 = LINE ( 'NONE', #280, #346 ) ;
#257 = DATE_TIME_ROLE ( 'classification_date' ) ;
#258 = LINE ( 'NONE', #22, #348 ) ;
#259 = CARTESIAN_POINT ( 'NONE',  ( -172.5000000000000284, 500.0000000000000000, -1.550000000000000044 ) ) ;
#260 = LINE ( 'NONE', #320, #16 ) ;
#261 = EDGE_CURVE ( 'NONE', #185, #162, #169, .T. ) ;
#262 = DIRECTION ( 'NONE',  ( 0.000000000000000000, 1.000000000000000000, 0.000000000000000000 ) ) ;
#263 = CIRCLE ( 'NONE', #309, 14.99999999999998579 ) ;
#264 = AXIS2_PLACEMENT_3D ( 'NONE', #252, #72, #139 ) ;
#265 = CARTESIAN_POINT ( 'NONE',  ( -187.5000000000000000, 500.0000000000000000, -1.550000000000000044 ) ) ;
#266 = VECTOR ( 'NONE', #358, 1000.000000000000000 ) ;
#267 = EDGE_LOOP ( 'NONE', ( #62, #180, #38, #293 ) ) ;
#268 = DIRECTION ( 'NONE',  ( 0.000000000000000000, -0.000000000000000000, -1.000000000000000000 ) ) ;
#269 = ORIENTED_EDGE ( 'NONE', *, *, #199, .F. ) ;
#270 = APPROVAL_ROLE ( '' ) ;
#271 = VERTEX_POINT ( 'NONE', #114 ) ;
#272 = CARTESIAN_POINT ( 'NONE',  ( 172.5000000000000284, 485.0000000000000000, 0.000000000000000000 ) ) ;
#273 = CIRCLE ( 'NONE', #121, 14.99999999999998579 ) ;
#274 = ORIENTED_EDGE ( 'NONE', *, *, #54, .F. ) ;
#275 = DIRECTION ( 'NONE',  ( 0.000000000000000000, 0.000000000000000000, 1.000000000000000000 ) ) ;
#276 = PERSON_AND_ORGANIZATION ( #92, #236 ) ;
#277 = DIRECTION ( 'NONE',  ( 2.363386346721568322E-34, -1.000000000000000000, 0.000000000000000000 ) ) ;
#278 =( NAMED_UNIT ( * ) PLANE_ANGLE_UNIT ( ) SI_UNIT ( $, .RADIAN. ) );
#279 = ADVANCED_FACE ( 'NONE', ( #349 ), #124, .T. ) ;
#280 = CARTESIAN_POINT ( 'NONE',  ( 172.4999999999999432, 8.508190848197644283E-32, -1.550000000000000044 ) ) ;
#281 = FACE_OUTER_BOUND ( 'NONE', #209, .T. ) ;
#282 = SECURITY_CLASSIFICATION_LEVEL ( 'unclassified' ) ;
#283 = CARTESIAN_POINT ( 'NONE',  ( -187.5000000000000000, 15.00000000000001421, 0.000000000000000000 ) ) ;
#284 = DIRECTION ( 'NONE',  ( 1.000000000000000000, 0.000000000000000000, 0.000000000000000000 ) ) ;
#285 = VECTOR ( 'NONE', #143, 1000.000000000000000 ) ;
#286 = ADVANCED_FACE ( 'NONE', ( #93 ), #315, .T. ) ;
#287 = COORDINATED_UNIVERSAL_TIME_OFFSET ( 10, 0, .AHEAD. ) ;
#288 = DIRECTION ( 'NONE',  ( -1.000000000000000000, 0.000000000000000000, 0.000000000000000000 ) ) ;
#289 = LINE ( 'NONE', #230, #338 ) ;
#290 = CIRCLE ( 'NONE', #39, 15.00000000000001421 ) ;
#291 = EDGE_CURVE ( 'NONE', #271, #91, #290, .T. ) ;
#292 = DIRECTION ( 'NONE',  ( 0.000000000000000000, -0.000000000000000000, 1.000000000000000000 ) ) ;
#293 = ORIENTED_EDGE ( 'NONE', *, *, #60, .F. ) ;
#294 = AXIS2_PLACEMENT_3D ( 'NONE', #129, #73, #8 ) ;
#295 = VECTOR ( 'NONE', #203, 1000.000000000000000 ) ;
#296 = DIRECTION ( 'NONE',  ( 1.000000000000000000, 0.000000000000000000, -0.000000000000000000 ) ) ;
#297 = ORIENTED_EDGE ( 'NONE', *, *, #54, .T. ) ;
#298 = CALENDAR_DATE ( 2026, 4, 1 ) ;
#299 = ORIENTED_EDGE ( 'NONE', *, *, #376, .T. ) ;
#300 = CARTESIAN_POINT ( 'NONE',  ( 187.5000000000000000, 15.00000000000001421, -1.550000000000000044 ) ) ;
#301 = ORIENTED_EDGE ( 'NONE', *, *, #85, .F. ) ;
#302 = APPROVAL_DATE_TIME ( #10, #322 ) ;
#303 = ORIENTED_EDGE ( 'NONE', *, *, #42, .F. ) ;
#304 = APPROVAL_ROLE ( '' ) ;
#305 = CARTESIAN_POINT ( 'NONE',  ( 172.5000000000000000, 500.0000000000000000, -1.550000000000000044 ) ) ;
#306 = DIRECTION ( 'NONE',  ( 1.000000000000000000, 0.000000000000000000, 0.000000000000000000 ) ) ;
#307 = DIRECTION ( 'NONE',  ( -0.000000000000000000, -0.000000000000000000, -1.000000000000000000 ) ) ;
#308 = APPROVAL ( #360, 'UNSPECIFIED' ) ;
#309 = AXIS2_PLACEMENT_3D ( 'NONE', #354, #212, #63 ) ;
#310 = DIRECTION ( 'NONE',  ( -1.000000000000000000, -0.000000000000000000, -0.000000000000000000 ) ) ;
#311 = EDGE_CURVE ( 'NONE', #185, #173, #263, .T. ) ;
#312 = CYLINDRICAL_SURFACE ( 'NONE', #23, 15.00000000000001421 ) ;
#313 = DATE_AND_TIME ( #146, #136 ) ;
#314 = PLANE ( 'NONE',  #166 ) ;
#315 = CYLINDRICAL_SURFACE ( 'NONE', #76, 14.99999999999998579 ) ;
#316 = DIRECTION ( 'NONE',  ( 1.000000000000000000, 0.000000000000000000, 0.000000000000000000 ) ) ;
#317 = ADVANCED_FACE ( 'NONE', ( #323 ), #24, .T. ) ;
#318 = PRODUCT_DEFINITION_SHAPE ( 'NONE', 'NONE',  #150 ) ;
#319 = AXIS2_PLACEMENT_3D ( 'NONE', #83, #370, #284 ) ;
#320 = CARTESIAN_POINT ( 'NONE',  ( 187.5000000000000000, 500.0000000000000000, 0.000000000000000000 ) ) ;
#321 = ORIENTED_EDGE ( 'NONE', *, *, #330, .F. ) ;
#322 = APPROVAL ( #12, 'UNSPECIFIED' ) ;
#323 = FACE_OUTER_BOUND ( 'NONE', #246, .T. ) ;
#324 = ORIENTED_EDGE ( 'NONE', *, *, #153, .T. ) ;
#325 = AXIS2_PLACEMENT_3D ( 'NONE', #343, #29, #149 ) ;
#326 = CARTESIAN_POINT ( 'NONE',  ( -187.5000000000000000, 485.0000000000000000, -1.550000000000000044 ) ) ;
#327 = AXIS2_PLACEMENT_3D ( 'NONE', #184, #15, #69 ) ;
#328 = ORIENTED_EDGE ( 'NONE', *, *, #103, .F. ) ;
#329 = ORIENTED_EDGE ( 'NONE', *, *, #352, .T. ) ;
#330 = EDGE_CURVE ( 'NONE', #30, #91, #289, .T. ) ;
#331 = EDGE_LOOP ( 'NONE', ( #241, #70, #35, #353 ) ) ;
#332 = ORIENTED_EDGE ( 'NONE', *, *, #216, .F. ) ;
#333 = CYLINDRICAL_SURFACE ( 'NONE', #294, 14.99999999999998579 ) ;
#334 = CARTESIAN_POINT ( 'NONE',  ( 187.5000000000000000, 485.0000000000000000, 0.000000000000000000 ) ) ;
#335 = CC_DESIGN_DATE_AND_TIME_ASSIGNMENT ( #155, #43, ( #150 ) ) ;
#336 = LINE ( 'NONE', #195, #101 ) ;
#337 = PERSON_AND_ORGANIZATION_ROLE ( 'design_supplier' ) ;
#338 = VECTOR ( 'NONE', #26, 1000.000000000000000 ) ;
#339 = CARTESIAN_POINT ( 'NONE',  ( -187.5000000000000000, 0.000000000000000000, -1.550000000000000044 ) ) ;
#340 = EDGE_CURVE ( 'NONE', #67, #137, #158, .T. ) ;
#341 = DIRECTION ( 'NONE',  ( 1.000000000000000000, 0.000000000000000000, 0.000000000000000000 ) ) ;
#342 = PERSON_AND_ORGANIZATION ( #92, #236 ) ;
#343 = CARTESIAN_POINT ( 'NONE',  ( -172.5000000000000284, 15.00000000000001421, 0.000000000000000000 ) ) ;
#344 = PERSON_AND_ORGANIZATION_ROLE ( 'creator' ) ;
#345 = CARTESIAN_POINT ( 'NONE',  ( -172.5000000000000284, 500.0000000000000000, -1.550000000000000044 ) ) ;
#346 = VECTOR ( 'NONE', #366, 1000.000000000000000 ) ;
#347 = ADVANCED_FACE ( 'NONE', ( #45 ), #333, .T. ) ;
#348 = VECTOR ( 'NONE', #307, 1000.000000000000000 ) ;
#349 = FACE_OUTER_BOUND ( 'NONE', #189, .T. ) ;
#350 = ORIENTED_EDGE ( 'NONE', *, *, #261, .T. ) ;
#351 = DIRECTION ( 'NONE',  ( 0.000000000000000000, 0.000000000000000000, 1.000000000000000000 ) ) ;
#352 = EDGE_CURVE ( 'NONE', #52, #56, #234, .T. ) ;
#353 = ORIENTED_EDGE ( 'NONE', *, *, #187, .T. ) ;
#354 = CARTESIAN_POINT ( 'NONE',  ( -172.5000000000000284, 485.0000000000000000, -1.550000000000000044 ) ) ;
#355 = ORIENTED_EDGE ( 'NONE', *, *, #311, .T. ) ;
#356 = LINE ( 'NONE', #300, #266 ) ;
#357 = ORIENTED_EDGE ( 'NONE', *, *, #330, .T. ) ;
#358 = DIRECTION ( 'NONE',  ( -0.000000000000000000, -0.000000000000000000, -1.000000000000000000 ) ) ;
#359 = ORIENTED_EDGE ( 'NONE', *, *, #153, .F. ) ;
#360 = APPROVAL_STATUS ( 'not_yet_approved' ) ;
#361 = LINE ( 'NONE', #305, #285 ) ;
#362 =( NAMED_UNIT ( * ) SI_UNIT ( $, .STERADIAN. ) SOLID_ANGLE_UNIT ( ) );
#363 = ORIENTED_EDGE ( 'NONE', *, *, #216, .T. ) ;
#364 = CARTESIAN_POINT ( 'NONE',  ( -172.5000000000000284, 485.0000000000000000, 0.000000000000000000 ) ) ;
#365 = PERSON_AND_ORGANIZATION_ROLE ( 'classification_officer' ) ;
#366 = DIRECTION ( 'NONE',  ( 0.000000000000000000, 0.000000000000000000, 1.000000000000000000 ) ) ;
#367 = AXIS2_PLACEMENT_3D ( 'NONE', #163, #192, #306 ) ;
#368 = DIRECTION ( 'NONE',  ( -0.000000000000000000, 0.000000000000000000, 1.000000000000000000 ) ) ;
#369 = CARTESIAN_POINT ( 'NONE',  ( -187.5000000000000000, 500.0000000000000000, -1.550000000000000044 ) ) ;
#370 = DIRECTION ( 'NONE',  ( 0.000000000000000000, -0.000000000000000000, 1.000000000000000000 ) ) ;
#371 = SHAPE_DEFINITION_REPRESENTATION ( #318, #31 ) ;
#372 = CARTESIAN_POINT ( 'NONE',  ( -187.5000000000000000, 485.0000000000000000, -1.550000000000000044 ) ) ;
#373 = CIRCLE ( 'NONE', #213, 15.00000000000001421 ) ;
#374 = LOCAL_TIME ( 16, 13, 30.00000000000000000, #21 ) ;
#375 = EDGE_CURVE ( 'NONE', #7, #271, #356, .T. ) ;
#376 = EDGE_CURVE ( 'NONE', #67, #173, #40, .T. ) ;
#377 = VERTEX_POINT ( 'NONE', #105 ) ;
ENDSEC;
END-ISO-10303-21;
