ISO-10303-21;
HEADER;
FILE_DESCRIPTION (( 'STEP AP203' ),
    '1' );
FILE_NAME ('3674-40-25_REV_.step',
    '2026-02-06T22:25:31',
    ( '' ),
    ( '' ),
    'SwSTEP 2.0',
    'SolidWorks 2025',
    '' );
FILE_SCHEMA (( 'CONFIG_CONTROL_DESIGN' ));
ENDSEC;

DATA;
#1 = LINE ( 'NONE', #192, #95 ) ;
#2 = CARTESIAN_POINT ( 'NONE',  ( -2.049999999999890576, 1.279755905108984152E-15, 10.44999999999999929 ) ) ;
#3 = CARTESIAN_POINT ( 'NONE',  ( -12.50000000000000178, 10.44999999999999929, 0.000000000000000000 ) ) ;
#4 = ORIENTED_EDGE ( 'NONE', *, *, #259, .T. ) ;
#5 = VERTEX_POINT ( 'NONE', #253 ) ;
#6 = VECTOR ( 'NONE', #223, 1000.000000000000000 ) ;
#7 = CC_DESIGN_PERSON_AND_ORGANIZATION_ASSIGNMENT ( #163, #201, ( #34 ) ) ;
#8 = AXIS2_PLACEMENT_3D ( 'NONE', #214, #237, #78 ) ;
#9 = ORIENTED_EDGE ( 'NONE', *, *, #122, .F. ) ;
#10 = CALENDAR_DATE ( 2026, 7, 2 ) ;
#11 = DIRECTION ( 'NONE',  ( 0.000000000000000000, 0.000000000000000000, 1.000000000000000000 ) ) ;
#12 = ORIENTED_EDGE ( 'NONE', *, *, #231, .T. ) ;
#13 = CARTESIAN_POINT ( 'NONE',  ( 11.30000000000025651, -13.34999999999999964, -13.34999999999999964 ) ) ;
#14 = CARTESIAN_POINT ( 'NONE',  ( 12.50000000000000178, 1.279755905108984152E-15, 10.44999999999999929 ) ) ;
#15 = ADVANCED_FACE ( 'NONE', ( #42 ), #293, .T. ) ;
#16 = APPROVAL_STATUS ( 'not_yet_approved' ) ;
#17 = ORIENTED_EDGE ( 'NONE', *, *, #122, .T. ) ;
#18 = ORIENTED_EDGE ( 'NONE', *, *, #86, .F. ) ;
#19 = EDGE_CURVE ( 'NONE', #187, #54, #263, .T. ) ;
#20 = FACE_OUTER_BOUND ( 'NONE', #188, .T. ) ;
#21 = LOCAL_TIME ( 9, 25, 31.00000000000000000, #83 ) ;
#22 = EDGE_CURVE ( 'NONE', #128, #68, #126, .T. ) ;
#23 = DIRECTION ( 'NONE',  ( -1.000000000000000000, 0.000000000000000000, 0.000000000000000000 ) ) ;
#24 = VECTOR ( 'NONE', #36, 1000.000000000000000 ) ;
#25 =( BOUNDED_CURVE ( )  B_SPLINE_CURVE ( 3, ( #49, #28, #125, #218 ),
 .UNSPECIFIED., .F., .F. ) 
 B_SPLINE_CURVE_WITH_KNOTS ( ( 4, 4 ),
 ( 1.570796326794896558, 3.141592653589793116 ),
 .UNSPECIFIED. ) 
 CURVE ( )  GEOMETRIC_REPRESENTATION_ITEM ( )  RATIONAL_B_SPLINE_CURVE ( ( 1.000000000000000000, 0.8047378541243649375, 0.8047378541243649375, 1.000000000000000000 ) ) 
 REPRESENTATION_ITEM ( '' )  );
#26 = CARTESIAN_POINT ( 'NONE',  ( -12.50000000000000178, 10.44999999999999929, 0.000000000000000000 ) ) ;
#27 = AXIS2_PLACEMENT_3D ( 'NONE', #292, #269, #181 ) ;
#28 = CARTESIAN_POINT ( 'NONE',  ( -8.171468273201112353, 6.121468273201156940, -10.44999999999999929 ) ) ;
#29 = DIRECTION ( 'NONE',  ( 1.000000000000000000, -0.000000000000000000, -0.000000000000000000 ) ) ;
#30 = EDGE_LOOP ( 'NONE', ( #295, #44, #209, #113 ) ) ;
#31 = COORDINATED_UNIVERSAL_TIME_OFFSET ( 10, 0, .AHEAD. ) ;
#32 = PERSON_AND_ORGANIZATION_ROLE ( 'creator' ) ;
#33 = ORIENTED_EDGE ( 'NONE', *, *, #19, .F. ) ;
#34 = PRODUCT_DEFINITION_FORMATION_WITH_SPECIFIED_SOURCE ( 'ANY', '', #115, .NOT_KNOWN. ) ;
#35 = APPLICATION_PROTOCOL_DEFINITION ( 'international standard', 'config_control_design', 1994, #46 ) ;
#36 = DIRECTION ( 'NONE',  ( 1.000000000000000000, -0.000000000000000000, -0.000000000000000000 ) ) ;
#37 = CARTESIAN_POINT ( 'NONE',  ( -12.50000000000000178, 1.279755905108984152E-15, 10.44999999999999929 ) ) ;
#38 = APPROVAL_ROLE ( '' ) ;
#39 = CARTESIAN_POINT ( 'NONE',  ( -12.50000000000000178, 0.000000000000000000, 0.000000000000000000 ) ) ;
#40 = APPROVAL_DATE_TIME ( #247, #119 ) ;
#41 = DIRECTION ( 'NONE',  ( 0.000000000000000000, 0.000000000000000000, -1.000000000000000000 ) ) ;
#42 = FACE_OUTER_BOUND ( 'NONE', #219, .T. ) ;
#43 = CARTESIAN_POINT ( 'NONE',  ( -12.50000000000000178, 10.44999999999999929, 0.000000000000000000 ) ) ;
#44 = ORIENTED_EDGE ( 'NONE', *, *, #19, .T. ) ;
#45 = ADVANCED_FACE ( 'NONE', ( #265 ), #249, .F. ) ;
#46 = APPLICATION_CONTEXT ( 'configuration controlled 3d designs of mechanical parts and assemblies' ) ;
#47 = CYLINDRICAL_SURFACE ( 'NONE', #215, 10.44999999999999929 ) ;
#48 = DIRECTION ( 'NONE',  ( 1.000000000000000000, -0.000000000000000000, -0.000000000000000000 ) ) ;
#49 = CARTESIAN_POINT ( 'NONE',  ( -2.049999999999888800, 0.000000000000000000, -10.44999999999999929 ) ) ;
#50 = PRODUCT_DEFINITION ( 'UNKNOWN', '', #34, #276 ) ;
#51 = MECHANICAL_CONTEXT ( 'NONE', #157, 'mechanical' ) ;
#52 = VERTEX_POINT ( 'NONE', #226 ) ;
#53 = CC_DESIGN_APPROVAL ( #119, ( #182 ) ) ;
#54 = VERTEX_POINT ( 'NONE', #14 ) ;
#55 = CARTESIAN_POINT ( 'NONE',  ( -6.191976000506912214, 4.141976000506978117, -13.34999999999999964 ) ) ;
#56 =( BOUNDED_CURVE ( )  B_SPLINE_CURVE ( 3, ( #175, #147, #216, #239 ),
 .UNSPECIFIED., .F., .F. ) 
 B_SPLINE_CURVE_WITH_KNOTS ( ( 4, 4 ),
 ( 4.712388980384689674, 7.853981633974482790 ),
 .UNSPECIFIED. ) 
 CURVE ( )  GEOMETRIC_REPRESENTATION_ITEM ( )  RATIONAL_B_SPLINE_CURVE ( ( 1.000000000000000000, 0.3333333333333333703, 0.3333333333333333703, 1.000000000000000000 ) ) 
 REPRESENTATION_ITEM ( '' )  );
#57 = APPROVAL_DATE_TIME ( #132, #289 ) ;
#58 = PERSON_AND_ORGANIZATION ( #248, #164 ) ;
#59 = AXIS2_PLACEMENT_3D ( 'NONE', #39, #137, #141 ) ;
#60 = VERTEX_POINT ( 'NONE', #230 ) ;
#61 = PERSON_AND_ORGANIZATION_ROLE ( 'design_owner' ) ;
#62 = ORIENTED_EDGE ( 'NONE', *, *, #120, .F. ) ;
#63 = APPROVAL_ROLE ( '' ) ;
#64 = EDGE_CURVE ( 'NONE', #187, #5, #101, .T. ) ;
#65 = DIRECTION ( 'NONE',  ( 0.000000000000000000, 0.000000000000000000, -1.000000000000000000 ) ) ;
#66 = ORIENTED_EDGE ( 'NONE', *, *, #242, .T. ) ;
#67 = PERSON_AND_ORGANIZATION_ROLE ( 'creator' ) ;
#68 = VERTEX_POINT ( 'NONE', #208 ) ;
#69 = CARTESIAN_POINT ( 'NONE',  ( -12.50000000000000178, 0.000000000000000000, 0.000000000000000000 ) ) ;
#70 = ADVANCED_FACE ( 'NONE', ( #117 ), #47, .F. ) ;
#71 = DIRECTION ( 'NONE',  ( 0.000000000000000000, 0.000000000000000000, 1.000000000000000000 ) ) ;
#72 =( BOUNDED_CURVE ( )  B_SPLINE_CURVE ( 3, ( #26, #130, #279, #2 ),
 .UNSPECIFIED., .F., .F. ) 
 B_SPLINE_CURVE_WITH_KNOTS ( ( 4, 4 ),
 ( 3.141592653589793116, 4.712388980384689674 ),
 .UNSPECIFIED. ) 
 CURVE ( )  GEOMETRIC_REPRESENTATION_ITEM ( )  RATIONAL_B_SPLINE_CURVE ( ( 1.000000000000000000, 0.8047378541243649375, 0.8047378541243649375, 1.000000000000000000 ) ) 
 REPRESENTATION_ITEM ( '' )  );
#73 = CIRCLE ( 'NONE', #124, 13.34999999999999964 ) ;
#74 = ADVANCED_FACE ( 'NONE', ( #168 ), #211, .T. ) ;
#75 = CC_DESIGN_APPROVAL ( #241, ( #34 ) ) ;
#76 = DIRECTION ( 'NONE',  ( 1.000000000000000000, 0.000000000000000000, 0.000000000000000000 ) ) ;
#77 = ORIENTED_EDGE ( 'NONE', *, *, #150, .T. ) ;
#78 = DIRECTION ( 'NONE',  ( 0.000000000000000000, 0.000000000000000000, 1.000000000000000000 ) ) ;
#79 = CARTESIAN_POINT ( 'NONE',  ( -12.50000000000000178, 10.44999999999999929, -8.307827634225446900 ) ) ;
#80 = ADVANCED_FACE ( 'NONE', ( #232, #20 ), #235, .F. ) ;
#81 = CALENDAR_DATE ( 2026, 7, 2 ) ;
#82 = LINE ( 'NONE', #245, #297 ) ;
#83 = COORDINATED_UNIVERSAL_TIME_OFFSET ( 10, 0, .AHEAD. ) ;
#84 = LINE ( 'NONE', #178, #24 ) ;
#85 = ORIENTED_EDGE ( 'NONE', *, *, #171, .F. ) ;
#86 = EDGE_CURVE ( 'NONE', #54, #210, #290, .T. ) ;
#87 = DIRECTION ( 'NONE',  ( 0.7071067811865436870, 0.7071067811865514585, 0.000000000000000000 ) ) ;
#88 = CARTESIAN_POINT ( 'NONE',  ( -6.191976000506915767, 4.141976000506981670, 13.34999999999999964 ) ) ;
#89 = APPROVAL_STATUS ( 'not_yet_approved' ) ;
#90 = DIRECTION ( 'NONE',  ( -1.000000000000000000, 0.000000000000000000, 0.000000000000000000 ) ) ;
#91 = CARTESIAN_POINT ( 'NONE',  ( -2.049999999999890576, 1.279755905108984152E-15, 10.44999999999999929 ) ) ;
#92 = CALENDAR_DATE ( 2026, 7, 2 ) ;
#93 = ORIENTED_EDGE ( 'NONE', *, *, #285, .F. ) ;
#94 = AXIS2_PLACEMENT_3D ( 'NONE', #69, #288, #179 ) ;
#95 = VECTOR ( 'NONE', #29, 1000.000000000000000 ) ;
#96 = VERTEX_POINT ( 'NONE', #191 ) ;
#97 = MANIFOLD_SOLID_BREP ( 'Cut-Extrude1', #143 ) ;
#98 = DIRECTION ( 'NONE',  ( -1.000000000000000000, 0.000000000000000000, 0.000000000000000000 ) ) ;
#99 = CC_DESIGN_PERSON_AND_ORGANIZATION_ASSIGNMENT ( #244, #158, ( #182 ) ) ;
#100 = LOCAL_TIME ( 9, 25, 31.00000000000000000, #227 ) ;
#101 =( BOUNDED_CURVE ( )  B_SPLINE_CURVE ( 3, ( #91, #185, #267, #139 ),
 .UNSPECIFIED., .F., .F. ) 
 B_SPLINE_CURVE_WITH_KNOTS ( ( 4, 4 ),
 ( 4.712388980384689674, 7.853981633974482790 ),
 .UNSPECIFIED. ) 
 CURVE ( )  GEOMETRIC_REPRESENTATION_ITEM ( )  RATIONAL_B_SPLINE_CURVE ( ( 1.000000000000000000, 0.3333333333333333703, 0.3333333333333333703, 1.000000000000000000 ) ) 
 REPRESENTATION_ITEM ( '' )  );
#102 = DIRECTION ( 'NONE',  ( 0.000000000000000000, 0.000000000000000000, 1.000000000000000000 ) ) ;
#103 = CIRCLE ( 'NONE', #8, 10.44999999999999929 ) ;
#104 = DATE_AND_TIME ( #221, #199 ) ;
#105 = DATE_TIME_ROLE ( 'classification_date' ) ;
#106 = LINE ( 'NONE', #43, #146 ) ;
#107 = ORIENTED_EDGE ( 'NONE', *, *, #22, .F. ) ;
#108 = UNCERTAINTY_MEASURE_WITH_UNIT (LENGTH_MEASURE( 1.000000000000000082E-05 ), #127, 'distance_accuracy_value', 'NONE');
#109 = APPROVAL_ROLE ( '' ) ;
#110 = CARTESIAN_POINT ( 'NONE',  ( -2.049999999999890576, 1.279755905108984152E-15, 10.44999999999999929 ) ) ;
#111 = ORIENTED_EDGE ( 'NONE', *, *, #285, .T. ) ;
#112 = DIRECTION ( 'NONE',  ( -0.7071067811865513475, 0.7071067811865435759, 0.000000000000000000 ) ) ;
#113 = ORIENTED_EDGE ( 'NONE', *, *, #259, .F. ) ;
#114 = PERSON_AND_ORGANIZATION ( #248, #164 ) ;
#115 = PRODUCT ( '3674-40-25_REV_', '3674-40-25_REV_', '', ( #51 ) ) ;
#116 = CARTESIAN_POINT ( 'NONE',  ( 12.50000000000000178, 0.000000000000000000, 0.000000000000000000 ) ) ;
#117 = FACE_OUTER_BOUND ( 'NONE', #30, .T. ) ;
#118 =( GEOMETRIC_REPRESENTATION_CONTEXT ( 3 ) GLOBAL_UNCERTAINTY_ASSIGNED_CONTEXT ( ( #108 ) ) GLOBAL_UNIT_ASSIGNED_CONTEXT ( ( #127, #260, #212 ) ) REPRESENTATION_CONTEXT ( 'NONE', 'WORKASPACE' ) );
#119 = APPROVAL ( #89, 'UNSPECIFIED' ) ;
#120 = EDGE_CURVE ( 'NONE', #128, #60, #220, .T. ) ;
#121 = CARTESIAN_POINT ( 'NONE',  ( 12.50000000000000178, 0.000000000000000000, 0.000000000000000000 ) ) ;
#122 = EDGE_CURVE ( 'NONE', #52, #96, #206, .T. ) ;
#123 = CARTESIAN_POINT ( 'NONE',  ( -12.50000000000000178, 0.000000000000000000, 0.000000000000000000 ) ) ;
#124 = AXIS2_PLACEMENT_3D ( 'NONE', #116, #90, #11 ) ;
#125 = CARTESIAN_POINT ( 'NONE',  ( -12.50000000000000000, 10.44999999999999929, -6.121468273201157828 ) ) ;
#126 =( BOUNDED_CURVE ( )  B_SPLINE_CURVE ( 3, ( #205, #228, #88, #183 ),
 .UNSPECIFIED., .F., .F. ) 
 B_SPLINE_CURVE_WITH_KNOTS ( ( 4, 4 ),
 ( 3.813281922676176272, 4.712388980384689674 ),
 .UNSPECIFIED. ) 
 CURVE ( )  GEOMETRIC_REPRESENTATION_ITEM ( )  RATIONAL_B_SPLINE_CURVE ( ( 1.000000000000000000, 0.9337608081070802868, 0.9337608081070802868, 1.000000000000000000 ) ) 
 REPRESENTATION_ITEM ( '' )  );
#127 =( LENGTH_UNIT ( ) NAMED_UNIT ( * ) SI_UNIT ( .MILLI., .METRE. ) );
#128 = VERTEX_POINT ( 'NONE', #151 ) ;
#129 = AXIS2_PLACEMENT_3D ( 'NONE', #299, #23, #71 ) ;
#130 = CARTESIAN_POINT ( 'NONE',  ( -12.50000000000000000, 10.44999999999999929, 6.121468273201156940 ) ) ;
#131 = ORIENTED_EDGE ( 'NONE', *, *, #64, .T. ) ;
#132 = DATE_AND_TIME ( #92, #100 ) ;
#133 = EDGE_CURVE ( 'NONE', #96, #52, #73, .T. ) ;
#134 = ORIENTED_EDGE ( 'NONE', *, *, #133, .T. ) ;
#135 = ORIENTED_EDGE ( 'NONE', *, *, #133, .F. ) ;
#136 = APPROVAL_STATUS ( 'not_yet_approved' ) ;
#137 = DIRECTION ( 'NONE',  ( 1.000000000000000000, -0.000000000000000000, -0.000000000000000000 ) ) ;
#138 =( BOUNDED_CURVE ( )  B_SPLINE_CURVE ( 3, ( #172, #55, #169, #79 ),
 .UNSPECIFIED., .F., .F. ) 
 B_SPLINE_CURVE_WITH_KNOTS ( ( 4, 4 ),
 ( 1.570796326794896558, 2.469903384503409960 ),
 .UNSPECIFIED. ) 
 CURVE ( )  GEOMETRIC_REPRESENTATION_ITEM ( )  RATIONAL_B_SPLINE_CURVE ( ( 1.000000000000000000, 0.9337608081070802868, 0.9337608081070802868, 1.000000000000000000 ) ) 
 REPRESENTATION_ITEM ( '' )  );
#139 = CARTESIAN_POINT ( 'NONE',  ( -2.049999999999888800, 0.000000000000000000, -10.44999999999999929 ) ) ;
#140 = LINE ( 'NONE', #224, #148 ) ;
#141 = DIRECTION ( 'NONE',  ( 0.000000000000000000, 0.000000000000000000, -1.000000000000000000 ) ) ;
#142 = LOCAL_TIME ( 9, 25, 31.00000000000000000, #291 ) ;
#143 = CLOSED_SHELL ( 'NONE', ( #70, #225, #74, #45, #15, #80, #213 ) ) ;
#144 = EDGE_LOOP ( 'NONE', ( #66, #234 ) ) ;
#145 = CARTESIAN_POINT ( 'NONE',  ( -12.50000000000000178, 0.000000000000000000, 0.000000000000000000 ) ) ;
#146 = VECTOR ( 'NONE', #65, 1000.000000000000000 ) ;
#147 = CARTESIAN_POINT ( 'NONE',  ( 24.65000000000039293, -26.69999999999999218, 13.35000000000000497 ) ) ;
#148 = VECTOR ( 'NONE', #284, 1000.000000000000000 ) ;
#149 = ORIENTED_EDGE ( 'NONE', *, *, #150, .F. ) ;
#150 = EDGE_CURVE ( 'NONE', #286, #52, #82, .T. ) ;
#151 = CARTESIAN_POINT ( 'NONE',  ( -12.50000000000000178, 10.44999999999999929, 8.307827634225448676 ) ) ;
#152 = APPROVAL_PERSON_ORGANIZATION ( #294, #289, #38 ) ;
#153 = CARTESIAN_POINT ( 'NONE',  ( 12.50000000000000178, 0.000000000000000000, 0.000000000000000000 ) ) ;
#154 = APPROVAL_PERSON_ORGANIZATION ( #180, #241, #63 ) ;
#155 = ADVANCED_BREP_SHAPE_REPRESENTATION ( '3674-40-25_REV_', ( #97, #254 ), #118 ) ;
#156 = ORIENTED_EDGE ( 'NONE', *, *, #174, .F. ) ;
#157 = APPLICATION_CONTEXT ( 'configuration controlled 3d designs of mechanical parts and assemblies' ) ;
#158 = PERSON_AND_ORGANIZATION_ROLE ( 'classification_officer' ) ;
#159 = ORIENTED_EDGE ( 'NONE', *, *, #275, .T. ) ;
#160 = DATE_AND_TIME ( #10, #272 ) ;
#161 = CARTESIAN_POINT ( 'NONE',  ( -12.50000000000000178, 0.000000000000000000, 0.000000000000000000 ) ) ;
#162 = ORIENTED_EDGE ( 'NONE', *, *, #282, .F. ) ;
#163 = PERSON_AND_ORGANIZATION ( #248, #164 ) ;
#164 = ORGANIZATION ( 'UNSPECIFIED', 'UNSPECIFIED', '' ) ;
#165 = EDGE_LOOP ( 'NONE', ( #238, #273, #134, #149, #159, #62 ) ) ;
#166 = AXIS2_PLACEMENT_3D ( 'NONE', #121, #98, #189 ) ;
#167 = PRODUCT_DEFINITION_SHAPE ( 'NONE', 'NONE',  #50 ) ;
#168 = FACE_OUTER_BOUND ( 'NONE', #222, .T. ) ;
#169 = CARTESIAN_POINT ( 'NONE',  ( -9.922410286343756880, 7.872410286343783703, -11.55004854847997287 ) ) ;
#170 = CC_DESIGN_DATE_AND_TIME_ASSIGNMENT ( #177, #105, ( #182 ) ) ;
#171 = EDGE_CURVE ( 'NONE', #256, #60, #106, .T. ) ;
#172 = CARTESIAN_POINT ( 'NONE',  ( -2.049999999999888800, 0.000000000000000000, -13.34999999999999964 ) ) ;
#173 = ORIENTED_EDGE ( 'NONE', *, *, #282, .T. ) ;
#174 = EDGE_CURVE ( 'NONE', #128, #256, #140, .T. ) ;
#175 = CARTESIAN_POINT ( 'NONE',  ( -2.049999999999890576, 1.634903476861716437E-15, 13.34999999999999964 ) ) ;
#176 = EDGE_CURVE ( 'NONE', #68, #96, #84, .T. ) ;
#177 = DATE_AND_TIME ( #81, #21 ) ;
#178 = CARTESIAN_POINT ( 'NONE',  ( -12.50000000000000178, 1.634903476861716437E-15, 13.34999999999999964 ) ) ;
#179 = DIRECTION ( 'NONE',  ( 0.000000000000000000, 0.000000000000000000, 1.000000000000000000 ) ) ;
#180 = PERSON_AND_ORGANIZATION ( #248, #164 ) ;
#181 = DIRECTION ( 'NONE',  ( 0.000000000000000000, 0.000000000000000000, 1.000000000000000000 ) ) ;
#182 = SECURITY_CLASSIFICATION ( '', '', #283 ) ;
#183 = CARTESIAN_POINT ( 'NONE',  ( -2.049999999999890576, 1.634903476861716437E-15, 13.34999999999999964 ) ) ;
#184 = CARTESIAN_POINT ( 'NONE',  ( 12.50000000000000178, 0.000000000000000000, -10.44999999999999929 ) ) ;
#185 = CARTESIAN_POINT ( 'NONE',  ( 18.85000000000033182, -20.89999999999999147, 10.45000000000000284 ) ) ;
#186 = PERSON_AND_ORGANIZATION ( #248, #164 ) ;
#187 = VERTEX_POINT ( 'NONE', #110 ) ;
#188 = EDGE_LOOP ( 'NONE', ( #9, #135 ) ) ;
#189 = DIRECTION ( 'NONE',  ( 0.000000000000000000, 0.000000000000000000, 1.000000000000000000 ) ) ;
#190 = CC_DESIGN_PERSON_AND_ORGANIZATION_ASSIGNMENT ( #186, #32, ( #50 ) ) ;
#191 = CARTESIAN_POINT ( 'NONE',  ( 12.50000000000000178, 1.634903476861716437E-15, 13.34999999999999964 ) ) ;
#192 = CARTESIAN_POINT ( 'NONE',  ( -12.50000000000000178, 0.000000000000000000, -10.44999999999999929 ) ) ;
#193 = CARTESIAN_POINT ( 'NONE',  ( -2.049999999999888800, 0.000000000000000000, -13.34999999999999964 ) ) ;
#194 = APPLICATION_PROTOCOL_DEFINITION ( 'international standard', 'config_control_design', 1994, #157 ) ;
#195 = CARTESIAN_POINT ( 'NONE',  ( 0.000000000000000000, 0.000000000000000000, 0.000000000000000000 ) ) ;
#196 = PRODUCT_RELATED_PRODUCT_CATEGORY ( 'detail', '', ( #115 ) ) ;
#197 = ORIENTED_EDGE ( 'NONE', *, *, #171, .T. ) ;
#198 = AXIS2_PLACEMENT_3D ( 'NONE', #13, #87, #112 ) ;
#199 = LOCAL_TIME ( 9, 25, 31.00000000000000000, #200 ) ;
#200 = COORDINATED_UNIVERSAL_TIME_OFFSET ( 10, 0, .AHEAD. ) ;
#201 = PERSON_AND_ORGANIZATION_ROLE ( 'design_supplier' ) ;
#202 = DIRECTION ( 'NONE',  ( 1.000000000000000000, -0.000000000000000000, -0.000000000000000000 ) ) ;
#203 = ORIENTED_EDGE ( 'NONE', *, *, #231, .F. ) ;
#204 = FACE_OUTER_BOUND ( 'NONE', #270, .T. ) ;
#205 = CARTESIAN_POINT ( 'NONE',  ( -12.50000000000000178, 10.44999999999999929, 8.307827634225448676 ) ) ;
#206 = CIRCLE ( 'NONE', #277, 13.34999999999999964 ) ;
#207 = FACE_OUTER_BOUND ( 'NONE', #165, .T. ) ;
#208 = CARTESIAN_POINT ( 'NONE',  ( -2.049999999999890576, 1.634903476861716437E-15, 13.34999999999999964 ) ) ;
#209 = ORIENTED_EDGE ( 'NONE', *, *, #242, .F. ) ;
#210 = VERTEX_POINT ( 'NONE', #184 ) ;
#211 = CYLINDRICAL_SURFACE ( 'NONE', #257, 13.34999999999999964 ) ;
#212 =( NAMED_UNIT ( * ) SI_UNIT ( $, .STERADIAN. ) SOLID_ANGLE_UNIT ( ) );
#213 = ADVANCED_FACE ( 'NONE', ( #204 ), #287, .F. ) ;
#214 = CARTESIAN_POINT ( 'NONE',  ( 12.50000000000000178, 0.000000000000000000, 0.000000000000000000 ) ) ;
#215 = AXIS2_PLACEMENT_3D ( 'NONE', #123, #280, #278 ) ;
#216 = CARTESIAN_POINT ( 'NONE',  ( 24.65000000000040359, -26.69999999999999929, -13.34999999999999964 ) ) ;
#217 = ORIENTED_EDGE ( 'NONE', *, *, #120, .T. ) ;
#218 = CARTESIAN_POINT ( 'NONE',  ( -12.50000000000000178, 10.44999999999999929, 0.000000000000000000 ) ) ;
#219 = EDGE_LOOP ( 'NONE', ( #156, #217, #85 ) ) ;
#220 = CIRCLE ( 'NONE', #27, 13.34999999999999964 ) ;
#221 = CALENDAR_DATE ( 2026, 7, 2 ) ;
#222 = EDGE_LOOP ( 'NONE', ( #258, #111, #77, #17 ) ) ;
#223 = DIRECTION ( 'NONE',  ( 1.000000000000000000, -0.000000000000000000, -0.000000000000000000 ) ) ;
#224 = CARTESIAN_POINT ( 'NONE',  ( -12.50000000000000178, 10.44999999999999929, 0.000000000000000000 ) ) ;
#225 = ADVANCED_FACE ( 'NONE', ( #207 ), #266, .T. ) ;
#226 = CARTESIAN_POINT ( 'NONE',  ( 12.50000000000000178, 0.000000000000000000, -13.34999999999999964 ) ) ;
#227 = COORDINATED_UNIVERSAL_TIME_OFFSET ( 10, 0, .AHEAD. ) ;
#228 = CARTESIAN_POINT ( 'NONE',  ( -9.922410286343760433, 7.872410286343787256, 11.55004854847996931 ) ) ;
#229 = DIRECTION ( 'NONE',  ( 0.000000000000000000, 0.000000000000000000, 1.000000000000000000 ) ) ;
#230 = CARTESIAN_POINT ( 'NONE',  ( -12.50000000000000178, 10.44999999999999929, -8.307827634225446900 ) ) ;
#231 = EDGE_CURVE ( 'NONE', #256, #187, #72, .T. ) ;
#232 = FACE_BOUND ( 'NONE', #144, .T. ) ;
#233 = DIRECTION ( 'NONE',  ( 0.000000000000000000, 0.000000000000000000, -1.000000000000000000 ) ) ;
#234 = ORIENTED_EDGE ( 'NONE', *, *, #86, .T. ) ;
#235 = PLANE ( 'NONE',  #129 ) ;
#236 = CC_DESIGN_SECURITY_CLASSIFICATION ( #182, ( #34 ) ) ;
#237 = DIRECTION ( 'NONE',  ( -1.000000000000000000, 0.000000000000000000, 0.000000000000000000 ) ) ;
#238 = ORIENTED_EDGE ( 'NONE', *, *, #22, .T. ) ;
#239 = CARTESIAN_POINT ( 'NONE',  ( -2.049999999999888800, 0.000000000000000000, -13.34999999999999964 ) ) ;
#240 = ORIENTED_EDGE ( 'NONE', *, *, #275, .F. ) ;
#241 = APPROVAL ( #16, 'UNSPECIFIED' ) ;
#242 = EDGE_CURVE ( 'NONE', #210, #54, #103, .T. ) ;
#243 = CC_DESIGN_APPROVAL ( #289, ( #50 ) ) ;
#244 = PERSON_AND_ORGANIZATION ( #248, #164 ) ;
#245 = CARTESIAN_POINT ( 'NONE',  ( -12.50000000000000178, 0.000000000000000000, -13.34999999999999964 ) ) ;
#246 = ORIENTED_EDGE ( 'NONE', *, *, #174, .T. ) ;
#247 = DATE_AND_TIME ( #261, #142 ) ;
#248 = PERSON ( 'UNSPECIFIED', 'UNSPECIFIED', 'UNSPECIFIED', ('UNSPECIFIED'), ('UNSPECIFIED'), ('UNSPECIFIED') ) ;
#249 = CYLINDRICAL_SURFACE ( 'NONE', #59, 10.44999999999999929 ) ;
#250 = SHAPE_DEFINITION_REPRESENTATION ( #167, #155 ) ;
#251 = CC_DESIGN_DATE_AND_TIME_ASSIGNMENT ( #104, #281, ( #50 ) ) ;
#252 = DIRECTION ( 'NONE',  ( 1.000000000000000000, -0.000000000000000000, -0.000000000000000000 ) ) ;
#253 = CARTESIAN_POINT ( 'NONE',  ( -2.049999999999888800, 0.000000000000000000, -10.44999999999999929 ) ) ;
#254 = AXIS2_PLACEMENT_3D ( 'NONE', #195, #102, #76 ) ;
#255 = DIRECTION ( 'NONE',  ( -1.000000000000000000, 0.000000000000000000, 0.000000000000000000 ) ) ;
#256 = VERTEX_POINT ( 'NONE', #3 ) ;
#257 = AXIS2_PLACEMENT_3D ( 'NONE', #145, #48, #233 ) ;
#258 = ORIENTED_EDGE ( 'NONE', *, *, #176, .F. ) ;
#259 = EDGE_CURVE ( 'NONE', #5, #210, #1, .T. ) ;
#260 =( NAMED_UNIT ( * ) PLANE_ANGLE_UNIT ( ) SI_UNIT ( $, .RADIAN. ) );
#261 = CALENDAR_DATE ( 2026, 7, 2 ) ;
#262 = APPROVAL_DATE_TIME ( #160, #241 ) ;
#263 = LINE ( 'NONE', #37, #6 ) ;
#264 = APPROVAL_PERSON_ORGANIZATION ( #58, #119, #109 ) ;
#265 = FACE_OUTER_BOUND ( 'NONE', #296, .T. ) ;
#266 = CYLINDRICAL_SURFACE ( 'NONE', #271, 13.34999999999999964 ) ;
#267 = CARTESIAN_POINT ( 'NONE',  ( 18.85000000000033182, -20.89999999999999503, -10.44999999999999751 ) ) ;
#268 = PERSON_AND_ORGANIZATION ( #248, #164 ) ;
#269 = DIRECTION ( 'NONE',  ( -1.000000000000000000, 0.000000000000000000, 0.000000000000000000 ) ) ;
#270 = EDGE_LOOP ( 'NONE', ( #197, #240, #93, #107, #246, #12, #131, #173 ) ) ;
#271 = AXIS2_PLACEMENT_3D ( 'NONE', #161, #252, #41 ) ;
#272 = LOCAL_TIME ( 9, 25, 31.00000000000000000, #31 ) ;
#273 = ORIENTED_EDGE ( 'NONE', *, *, #176, .T. ) ;
#274 = CC_DESIGN_PERSON_AND_ORGANIZATION_ASSIGNMENT ( #268, #67, ( #34 ) ) ;
#275 = EDGE_CURVE ( 'NONE', #286, #60, #138, .T. ) ;
#276 = DESIGN_CONTEXT ( 'detailed design', #46, 'design' ) ;
#277 = AXIS2_PLACEMENT_3D ( 'NONE', #153, #255, #229 ) ;
#278 = DIRECTION ( 'NONE',  ( 0.000000000000000000, 0.000000000000000000, -1.000000000000000000 ) ) ;
#279 = CARTESIAN_POINT ( 'NONE',  ( -8.171468273201114130, 6.121468273201159604, 10.44999999999999751 ) ) ;
#280 = DIRECTION ( 'NONE',  ( 1.000000000000000000, -0.000000000000000000, -0.000000000000000000 ) ) ;
#281 = DATE_TIME_ROLE ( 'creation_date' ) ;
#282 = EDGE_CURVE ( 'NONE', #5, #256, #25, .T. ) ;
#283 = SECURITY_CLASSIFICATION_LEVEL ( 'unclassified' ) ;
#284 = DIRECTION ( 'NONE',  ( 0.000000000000000000, 0.000000000000000000, -1.000000000000000000 ) ) ;
#285 = EDGE_CURVE ( 'NONE', #68, #286, #56, .T. ) ;
#286 = VERTEX_POINT ( 'NONE', #193 ) ;
#287 = PLANE ( 'NONE',  #198 ) ;
#288 = DIRECTION ( 'NONE',  ( -1.000000000000000000, 0.000000000000000000, 0.000000000000000000 ) ) ;
#289 = APPROVAL ( #136, 'UNSPECIFIED' ) ;
#290 = CIRCLE ( 'NONE', #166, 10.44999999999999929 ) ;
#291 = COORDINATED_UNIVERSAL_TIME_OFFSET ( 10, 0, .AHEAD. ) ;
#292 = CARTESIAN_POINT ( 'NONE',  ( -12.50000000000000178, 0.000000000000000000, 0.000000000000000000 ) ) ;
#293 = PLANE ( 'NONE',  #94 ) ;
#294 = PERSON_AND_ORGANIZATION ( #248, #164 ) ;
#295 = ORIENTED_EDGE ( 'NONE', *, *, #64, .F. ) ;
#296 = EDGE_LOOP ( 'NONE', ( #33, #203, #162, #4, #18 ) ) ;
#297 = VECTOR ( 'NONE', #202, 1000.000000000000000 ) ;
#298 = CC_DESIGN_PERSON_AND_ORGANIZATION_ASSIGNMENT ( #114, #61, ( #115 ) ) ;
#299 = CARTESIAN_POINT ( 'NONE',  ( 12.50000000000000178, 0.000000000000000000, 0.000000000000000000 ) ) ;
ENDSEC;
END-ISO-10303-21;
