ISO-10303-21;
HEADER;
FILE_DESCRIPTION (( 'STEP AP203' ),
    '1' );
FILE_NAME ('3674-50-20_REV_.step',
    '2026-02-06T22:21:53',
    ( '' ),
    ( '' ),
    'SwSTEP 2.0',
    'SolidWorks 2025',
    '' );
FILE_SCHEMA (( 'CONFIG_CONTROL_DESIGN' ));
ENDSEC;

DATA;
#1 = CONICAL_SURFACE ( 'NONE', #201, 13.34999999999999964, 0.7853981633974473908 ) ;
#2 = DATE_AND_TIME ( #244, #210 ) ;
#3 = ORIENTED_EDGE ( 'NONE', *, *, #115, .F. ) ;
#4 = DATE_TIME_ROLE ( 'classification_date' ) ;
#5 = CARTESIAN_POINT ( 'NONE',  ( 80.48319327731093153, -20.89999999999999147, 10.44999999999999929 ) ) ;
#6 = PERSON_AND_ORGANIZATION ( #58, #310 ) ;
#7 = CARTESIAN_POINT ( 'NONE',  ( 116.7509373357274285, 7.872410286343787256, -11.55004854847997287 ) ) ;
#8 = DIRECTION ( 'NONE',  ( -0.7834099903662490316, -0.6215052590238908659, 0.000000000000000000 ) ) ;
#9 = EDGE_CURVE ( 'NONE', #107, #98, #127, .T. ) ;
#10 = CARTESIAN_POINT ( 'NONE',  ( 1.000000000000000888, 0.000000000000000000, 13.34999999999999964 ) ) ;
#11 = DIRECTION ( 'NONE',  ( 0.7071067811865482389, 8.659560562354927928E-17, 0.7071067811865469066 ) ) ;
#12 = DIRECTION ( 'NONE',  ( 0.000000000000000000, 0.000000000000000000, -1.000000000000000000 ) ) ;
#13 = CYLINDRICAL_SURFACE ( 'NONE', #103, 13.34999999999999964 ) ;
#14 = APPROVAL_PERSON_ORGANIZATION ( #324, #88, #270 ) ;
#15 = ADVANCED_FACE ( 'NONE', ( #226 ), #300, .F. ) ;
#16 = CARTESIAN_POINT ( 'NONE',  ( 106.8277310924369630, 0.000000000000000000, 10.44999999999999929 ) ) ;
#17 = CC_DESIGN_PERSON_AND_ORGANIZATION_ASSIGNMENT ( #195, #215, ( #185 ) ) ;
#18 = CARTESIAN_POINT ( 'NONE',  ( 1.000000000000000888, 0.000000000000000000, -13.34999999999999964 ) ) ;
#19 = ORIENTED_EDGE ( 'NONE', *, *, #216, .F. ) ;
#20 = EDGE_LOOP ( 'NONE', ( #211, #100, #213, #104 ) ) ;
#21 = ORIENTED_EDGE ( 'NONE', *, *, #133, .T. ) ;
#22 = SECURITY_CLASSIFICATION_LEVEL ( 'unclassified' ) ;
#23 = ORIENTED_EDGE ( 'NONE', *, *, #87, .F. ) ;
#24 = ORIENTED_EDGE ( 'NONE', *, *, #263, .T. ) ;
#25 = EDGE_CURVE ( 'NONE', #135, #335, #312, .T. ) ;
#26 = COORDINATED_UNIVERSAL_TIME_OFFSET ( 10, 0, .AHEAD. ) ;
#27 = CC_DESIGN_PERSON_AND_ORGANIZATION_ASSIGNMENT ( #140, #134, ( #169 ) ) ;
#28 = CARTESIAN_POINT ( 'NONE',  ( 120.0000000000000000, 0.000000000000000000, 0.000000000000000000 ) ) ;
#29 = PERSON_AND_ORGANIZATION_ROLE ( 'creator' ) ;
#30 = CARTESIAN_POINT ( 'NONE',  ( 106.8277310924369630, 0.000000000000000000, 13.34999999999999964 ) ) ;
#31 = DIRECTION ( 'NONE',  ( 1.000000000000000000, 0.000000000000000000, 0.000000000000000000 ) ) ;
#32 = AXIS2_PLACEMENT_3D ( 'NONE', #28, #224, #56 ) ;
#33 = CARTESIAN_POINT ( 'NONE',  ( 120.0000000000000000, 0.000000000000000000, 0.000000000000000000 ) ) ;
#34 = CARTESIAN_POINT ( 'NONE',  ( 120.0000000000000000, 10.44999999999999751, 0.000000000000000000 ) ) ;
#35 = FACE_BOUND ( 'NONE', #131, .T. ) ;
#36 = DIRECTION ( 'NONE',  ( 1.000000000000000000, -0.000000000000000000, -0.000000000000000000 ) ) ;
#37 = ADVANCED_FACE ( 'NONE', ( #330 ), #114, .F. ) ;
#38 = APPROVAL ( #317, 'UNSPECIFIED' ) ;
#39 = FACE_OUTER_BOUND ( 'NONE', #323, .T. ) ;
#40 = AXIS2_PLACEMENT_3D ( 'NONE', #162, #294, #141 ) ;
#41 = ORIENTED_EDGE ( 'NONE', *, *, #176, .F. ) ;
#42 = EDGE_LOOP ( 'NONE', ( #24, #214, #71, #156, #239, #220, #260, #161 ) ) ;
#43 = DIRECTION ( 'NONE',  ( -1.000000000000000000, -0.000000000000000000, -0.000000000000000000 ) ) ;
#44 = ORIENTED_EDGE ( 'NONE', *, *, #331, .T. ) ;
#45 = AXIS2_PLACEMENT_3D ( 'NONE', #307, #341, #94 ) ;
#46 = COORDINATED_UNIVERSAL_TIME_OFFSET ( 10, 0, .AHEAD. ) ;
#47 = ORIENTED_EDGE ( 'NONE', *, *, #176, .T. ) ;
#48 = SHAPE_DEFINITION_REPRESENTATION ( #128, #181 ) ;
#49 = ORIENTED_EDGE ( 'NONE', *, *, #340, .T. ) ;
#50 = EDGE_CURVE ( 'NONE', #97, #245, #143, .T. ) ;
#51 = APPROVAL_DATE_TIME ( #2, #38 ) ;
#52 = CARTESIAN_POINT ( 'NONE',  ( 120.0000000000000000, 10.44999999999999751, 0.000000000000000000 ) ) ;
#53 = VECTOR ( 'NONE', #208, 1000.000000000000000 ) ;
#54 = AXIS2_PLACEMENT_3D ( 'NONE', #62, #233, #258 ) ;
#55 = COORDINATED_UNIVERSAL_TIME_OFFSET ( 10, 0, .AHEAD. ) ;
#56 = DIRECTION ( 'NONE',  ( 0.000000000000000000, 0.000000000000000000, 1.000000000000000000 ) ) ;
#57 = CARTESIAN_POINT ( 'NONE',  ( 112.0487092443365214, 4.141976000506978117, 13.35000000000000142 ) ) ;
#58 = PERSON ( 'UNSPECIFIED', 'UNSPECIFIED', 'UNSPECIFIED', ('UNSPECIFIED'), ('UNSPECIFIED'), ('UNSPECIFIED') ) ;
#59 = AXIS2_PLACEMENT_3D ( 'NONE', #183, #230, #64 ) ;
#60 = VECTOR ( 'NONE', #43, 1000.000000000000000 ) ;
#61 = CARTESIAN_POINT ( 'NONE',  ( 106.8277310924369630, 1.279755905108984152E-15, -10.44999999999999929 ) ) ;
#62 = CARTESIAN_POINT ( 'NONE',  ( 0.000000000000000000, 0.000000000000000000, 0.000000000000000000 ) ) ;
#63 = EDGE_CURVE ( 'NONE', #293, #98, #149, .T. ) ;
#64 = DIRECTION ( 'NONE',  ( 0.000000000000000000, 0.000000000000000000, -1.000000000000000000 ) ) ;
#65 = DIRECTION ( 'NONE',  ( -1.000000000000000000, -0.000000000000000000, -0.000000000000000000 ) ) ;
#66 = AXIS2_PLACEMENT_3D ( 'NONE', #172, #112, #145 ) ;
#67 = EDGE_CURVE ( 'NONE', #335, #158, #72, .T. ) ;
#68 = DIRECTION ( 'NONE',  ( 0.000000000000000000, 0.000000000000000000, -1.000000000000000000 ) ) ;
#69 = ORIENTED_EDGE ( 'NONE', *, *, #216, .T. ) ;
#70 = LINE ( 'NONE', #311, #60 ) ;
#71 = ORIENTED_EDGE ( 'NONE', *, *, #133, .F. ) ;
#72 =( BOUNDED_CURVE ( )  B_SPLINE_CURVE ( 3, ( #297, #333, #252, #52 ),
 .UNSPECIFIED., .F., .T. ) 
 B_SPLINE_CURVE_WITH_KNOTS ( ( 4, 4 ),
 ( 1.570796326794896558, 3.141592653589793116 ),
 .UNSPECIFIED. ) 
 CURVE ( )  GEOMETRIC_REPRESENTATION_ITEM ( )  RATIONAL_B_SPLINE_CURVE ( ( 1.000000000000000000, 0.8047378541243649375, 0.8047378541243649375, 1.000000000000000000 ) ) 
 REPRESENTATION_ITEM ( '' )  );
#73 = DESIGN_CONTEXT ( 'detailed design', #164, 'design' ) ;
#74 = AXIS2_PLACEMENT_3D ( 'NONE', #306, #36, #12 ) ;
#75 = ORIENTED_EDGE ( 'NONE', *, *, #184, .F. ) ;
#76 = APPROVAL_STATUS ( 'not_yet_approved' ) ;
#77 = ORIENTED_EDGE ( 'NONE', *, *, #67, .F. ) ;
#78 = UNCERTAINTY_MEASURE_WITH_UNIT (LENGTH_MEASURE( 1.000000000000000082E-05 ), #314, 'distance_accuracy_value', 'NONE');
#79 = ORIENTED_EDGE ( 'NONE', *, *, #63, .T. ) ;
#80 = DIRECTION ( 'NONE',  ( 0.000000000000000000, 0.000000000000000000, -1.000000000000000000 ) ) ;
#81 = CONICAL_SURFACE ( 'NONE', #305, 13.34999999999999964, 0.7853981633974473908 ) ;
#82 = CARTESIAN_POINT ( 'NONE',  ( 73.17226890756303703, -26.69999999999999218, -13.35000000000001030 ) ) ;
#83 = CARTESIAN_POINT ( 'NONE',  ( 106.8277310924369630, 0.000000000000000000, 13.34999999999999964 ) ) ;
#84 = CARTESIAN_POINT ( 'NONE',  ( 120.0000000000000000, 10.44999999999999751, -6.121468273201156940 ) ) ;
#85 = LOCAL_TIME ( 9, 21, 53.00000000000000000, #26 ) ;
#86 = DIRECTION ( 'NONE',  ( 1.000000000000000000, -0.000000000000000000, -0.000000000000000000 ) ) ;
#87 = EDGE_CURVE ( 'NONE', #97, #265, #122, .T. ) ;
#88 = APPROVAL ( #322, 'UNSPECIFIED' ) ;
#89 = CARTESIAN_POINT ( 'NONE',  ( 0.000000000000000000, 1.573671136904348863E-15, 12.34999999999999964 ) ) ;
#90 = PLANE ( 'NONE',  #269 ) ;
#91 = CIRCLE ( 'NONE', #223, 10.44999999999999929 ) ;
#92 = CARTESIAN_POINT ( 'NONE',  ( 1.000000000000000888, 1.634903476861716437E-15, 13.34999999999999964 ) ) ;
#93 = CARTESIAN_POINT ( 'NONE',  ( 120.0000000000000000, 1.634903476861716437E-15, -13.34999999999999964 ) ) ;
#94 = DIRECTION ( 'NONE',  ( 0.000000000000000000, 0.000000000000000000, 1.000000000000000000 ) ) ;
#95 = AXIS2_PLACEMENT_3D ( 'NONE', #280, #250, #8 ) ;
#96 = APPLICATION_PROTOCOL_DEFINITION ( 'international standard', 'config_control_design', 1994, #217 ) ;
#97 = VERTEX_POINT ( 'NONE', #302 ) ;
#98 = VERTEX_POINT ( 'NONE', #10 ) ;
#99 = PERSON_AND_ORGANIZATION ( #58, #310 ) ;
#100 = ORIENTED_EDGE ( 'NONE', *, *, #206, .T. ) ;
#101 = APPROVAL_DATE_TIME ( #327, #118 ) ;
#102 = CC_DESIGN_DATE_AND_TIME_ASSIGNMENT ( #273, #247, ( #299 ) ) ;
#103 = AXIS2_PLACEMENT_3D ( 'NONE', #177, #65, #148 ) ;
#104 = ORIENTED_EDGE ( 'NONE', *, *, #331, .F. ) ;
#105 = APPROVAL_PERSON_ORGANIZATION ( #99, #118, #108 ) ;
#106 = PERSON_AND_ORGANIZATION ( #58, #310 ) ;
#107 = VERTEX_POINT ( 'NONE', #83 ) ;
#108 = APPROVAL_ROLE ( '' ) ;
#109 = CARTESIAN_POINT ( 'NONE',  ( 73.17226890756303703, -26.69999999999999929, 13.35000000000000142 ) ) ;
#110 = PRODUCT_RELATED_PRODUCT_CATEGORY ( 'detail', '', ( #185 ) ) ;
#111 = COORDINATED_UNIVERSAL_TIME_OFFSET ( 10, 0, .AHEAD. ) ;
#112 = DIRECTION ( 'NONE',  ( 1.000000000000000000, 0.000000000000000000, 0.000000000000000000 ) ) ;
#113 = SECURITY_CLASSIFICATION ( '', '', #22 ) ;
#114 = PLANE ( 'NONE',  #95 ) ;
#115 = EDGE_CURVE ( 'NONE', #135, #178, #251, .T. ) ;
#116 = CARTESIAN_POINT ( 'NONE',  ( 80.48319327731093153, -20.89999999999998792, -10.45000000000000462 ) ) ;
#117 = PLANE ( 'NONE',  #278 ) ;
#118 = APPROVAL ( #76, 'UNSPECIFIED' ) ;
#119 = VECTOR ( 'NONE', #11, 999.9999999999998863 ) ;
#120 = DIRECTION ( 'NONE',  ( 0.000000000000000000, 0.000000000000000000, -1.000000000000000000 ) ) ;
#121 = LINE ( 'NONE', #255, #319 ) ;
#122 = CIRCLE ( 'NONE', #66, 13.34999999999999964 ) ;
#123 = FACE_OUTER_BOUND ( 'NONE', #288, .T. ) ;
#124 =( BOUNDED_CURVE ( )  B_SPLINE_CURVE ( 3, ( #276, #82, #109, #301 ),
 .UNSPECIFIED., .F., .T. ) 
 B_SPLINE_CURVE_WITH_KNOTS ( ( 4, 4 ),
 ( 4.712388980384689674, 7.853981633974482790 ),
 .UNSPECIFIED. ) 
 CURVE ( )  GEOMETRIC_REPRESENTATION_ITEM ( )  RATIONAL_B_SPLINE_CURVE ( ( 1.000000000000000000, 0.3333333333333333703, 0.3333333333333333703, 1.000000000000000000 ) ) 
 REPRESENTATION_ITEM ( '' )  );
#125 = CARTESIAN_POINT ( 'NONE',  ( 1.000000000000000888, 0.000000000000000000, 0.000000000000000000 ) ) ;
#126 = DIRECTION ( 'NONE',  ( 1.000000000000000000, 0.000000000000000000, 0.000000000000000000 ) ) ;
#127 = LINE ( 'NONE', #227, #277 ) ;
#128 = PRODUCT_DEFINITION_SHAPE ( 'NONE', 'NONE',  #299 ) ;
#129 = FACE_OUTER_BOUND ( 'NONE', #20, .T. ) ;
#130 =( GEOMETRIC_REPRESENTATION_CONTEXT ( 3 ) GLOBAL_UNCERTAINTY_ASSIGNED_CONTEXT ( ( #78 ) ) GLOBAL_UNIT_ASSIGNED_CONTEXT ( ( #314, #236, #157 ) ) REPRESENTATION_CONTEXT ( 'NONE', 'WORKASPACE' ) );
#131 = EDGE_LOOP ( 'NONE', ( #166, #218 ) ) ;
#132 = ORIENTED_EDGE ( 'NONE', *, *, #50, .T. ) ;
#133 = EDGE_CURVE ( 'NONE', #245, #107, #124, .T. ) ;
#134 = PERSON_AND_ORGANIZATION_ROLE ( 'design_supplier' ) ;
#135 = VERTEX_POINT ( 'NONE', #61 ) ;
#136 = EDGE_LOOP ( 'NONE', ( #3, #192, #77, #49, #346 ) ) ;
#137 = APPROVAL_PERSON_ORGANIZATION ( #193, #38, #242 ) ;
#138 = COORDINATED_UNIVERSAL_TIME_OFFSET ( 10, 0, .AHEAD. ) ;
#139 = CARTESIAN_POINT ( 'NONE',  ( 106.8277310924369630, 1.279755905108984152E-15, -10.44999999999999929 ) ) ;
#140 = PERSON_AND_ORGANIZATION ( #58, #310 ) ;
#141 = DIRECTION ( 'NONE',  ( 1.000000000000000000, 0.000000000000000000, 0.000000000000000000 ) ) ;
#142 = CARTESIAN_POINT ( 'NONE',  ( 116.7509373357274285, 7.872410286343785479, 11.55004854847997464 ) ) ;
#143 =( BOUNDED_CURVE ( )  B_SPLINE_CURVE ( 3, ( #248, #7, #175, #173 ),
 .UNSPECIFIED., .F., .F. ) 
 B_SPLINE_CURVE_WITH_KNOTS ( ( 4, 4 ),
 ( 3.813281922676176272, 4.712388980384689674 ),
 .UNSPECIFIED. ) 
 CURVE ( )  GEOMETRIC_REPRESENTATION_ITEM ( )  RATIONAL_B_SPLINE_CURVE ( ( 1.000000000000000000, 0.9337608081070802868, 0.9337608081070802868, 1.000000000000000000 ) ) 
 REPRESENTATION_ITEM ( '' )  );
#144 = CC_DESIGN_SECURITY_CLASSIFICATION ( #113, ( #169 ) ) ;
#145 = DIRECTION ( 'NONE',  ( 0.000000000000000000, 0.000000000000000000, -1.000000000000000000 ) ) ;
#146 = EDGE_CURVE ( 'NONE', #107, #265, #165, .T. ) ;
#147 = CC_DESIGN_DATE_AND_TIME_ASSIGNMENT ( #246, #4, ( #113 ) ) ;
#148 = DIRECTION ( 'NONE',  ( 0.000000000000000000, 0.000000000000000000, 1.000000000000000000 ) ) ;
#149 = CIRCLE ( 'NONE', #231, 13.34999999999999964 ) ;
#150 = CARTESIAN_POINT ( 'NONE',  ( 0.000000000000000000, 0.000000000000000000, 0.000000000000000000 ) ) ;
#151 = CARTESIAN_POINT ( 'NONE',  ( 0.000000000000000000, 0.000000000000000000, -12.34999999999999964 ) ) ;
#152 = CARTESIAN_POINT ( 'NONE',  ( 0.000000000000000000, 1.279755905108984152E-15, -10.44999999999999929 ) ) ;
#153 = CYLINDRICAL_SURFACE ( 'NONE', #282, 13.34999999999999964 ) ;
#154 = EDGE_CURVE ( 'NONE', #158, #135, #200, .T. ) ;
#155 = DIRECTION ( 'NONE',  ( 0.000000000000000000, 0.000000000000000000, 1.000000000000000000 ) ) ;
#156 = ORIENTED_EDGE ( 'NONE', *, *, #50, .F. ) ;
#157 =( NAMED_UNIT ( * ) SI_UNIT ( $, .STERADIAN. ) SOLID_ANGLE_UNIT ( ) );
#158 = VERTEX_POINT ( 'NONE', #279 ) ;
#159 = CLOSED_SHELL ( 'NONE', ( #292, #197, #337, #15, #329, #174, #281, #316, #37 ) ) ;
#160 = FACE_OUTER_BOUND ( 'NONE', #315, .T. ) ;
#161 = ORIENTED_EDGE ( 'NONE', *, *, #67, .T. ) ;
#162 = CARTESIAN_POINT ( 'NONE',  ( 0.000000000000000000, 0.000000000000000000, 0.000000000000000000 ) ) ;
#163 = ORIENTED_EDGE ( 'NONE', *, *, #263, .F. ) ;
#164 = APPLICATION_CONTEXT ( 'configuration controlled 3d designs of mechanical parts and assemblies' ) ;
#165 =( BOUNDED_CURVE ( )  B_SPLINE_CURVE ( 3, ( #30, #57, #142, #221 ),
 .UNSPECIFIED., .F., .T. ) 
 B_SPLINE_CURVE_WITH_KNOTS ( ( 4, 4 ),
 ( 1.570796326794896558, 2.469903384503409960 ),
 .UNSPECIFIED. ) 
 CURVE ( )  GEOMETRIC_REPRESENTATION_ITEM ( )  RATIONAL_B_SPLINE_CURVE ( ( 1.000000000000000000, 0.9337608081070802868, 0.9337608081070802868, 1.000000000000000000 ) ) 
 REPRESENTATION_ITEM ( '' )  );
#166 = ORIENTED_EDGE ( 'NONE', *, *, #219, .T. ) ;
#167 = APPLICATION_PROTOCOL_DEFINITION ( 'international standard', 'config_control_design', 1994, #164 ) ;
#168 = CIRCLE ( 'NONE', #59, 10.44999999999999929 ) ;
#169 = PRODUCT_DEFINITION_FORMATION_WITH_SPECIFIED_SOURCE ( 'ANY', '', #185, .NOT_KNOWN. ) ;
#170 = CALENDAR_DATE ( 2026, 7, 2 ) ;
#171 = CARTESIAN_POINT ( 'NONE',  ( 1.000000000000000888, 0.000000000000000000, 0.000000000000000000 ) ) ;
#172 = CARTESIAN_POINT ( 'NONE',  ( 120.0000000000000000, 0.000000000000000000, 0.000000000000000000 ) ) ;
#173 = CARTESIAN_POINT ( 'NONE',  ( 106.8277310924369630, 1.634903476861716437E-15, -13.34999999999999964 ) ) ;
#174 = ADVANCED_FACE ( 'NONE', ( #123 ), #90, .T. ) ;
#175 = CARTESIAN_POINT ( 'NONE',  ( 112.0487092443365214, 4.141976000506981670, -13.35000000000000142 ) ) ;
#176 = EDGE_CURVE ( 'NONE', #98, #293, #289, .T. ) ;
#177 = CARTESIAN_POINT ( 'NONE',  ( 120.0000000000000000, 0.000000000000000000, 0.000000000000000000 ) ) ;
#178 = VERTEX_POINT ( 'NONE', #152 ) ;
#179 = LOCAL_TIME ( 9, 21, 53.00000000000000000, #55 ) ;
#180 = DIRECTION ( 'NONE',  ( 0.000000000000000000, -0.000000000000000000, 1.000000000000000000 ) ) ;
#181 = ADVANCED_BREP_SHAPE_REPRESENTATION ( '3674-50-20_REV_', ( #286, #40 ), #130 ) ;
#182 = CARTESIAN_POINT ( 'NONE',  ( 1.000000000000000888, 0.000000000000000000, 0.000000000000000000 ) ) ;
#183 = CARTESIAN_POINT ( 'NONE',  ( 0.000000000000000000, 0.000000000000000000, 0.000000000000000000 ) ) ;
#184 = EDGE_CURVE ( 'NONE', #97, #158, #121, .T. ) ;
#185 = PRODUCT ( '3674-50-20_REV_', '3674-50-20_REV_', '', ( #275 ) ) ;
#186 = DIRECTION ( 'NONE',  ( -1.000000000000000000, -0.000000000000000000, -0.000000000000000000 ) ) ;
#187 = EDGE_LOOP ( 'NONE', ( #69, #349 ) ) ;
#188 = DIRECTION ( 'NONE',  ( 1.000000000000000000, -0.000000000000000000, -0.000000000000000000 ) ) ;
#189 = EDGE_LOOP ( 'NONE', ( #132, #318, #79, #194, #344, #23 ) ) ;
#190 = VERTEX_POINT ( 'NONE', #89 ) ;
#191 = PERSON_AND_ORGANIZATION_ROLE ( 'creator' ) ;
#192 = ORIENTED_EDGE ( 'NONE', *, *, #154, .F. ) ;
#193 = PERSON_AND_ORGANIZATION ( #58, #310 ) ;
#194 = ORIENTED_EDGE ( 'NONE', *, *, #9, .F. ) ;
#195 = PERSON_AND_ORGANIZATION ( #58, #310 ) ;
#196 = AXIS2_PLACEMENT_3D ( 'NONE', #150, #308, #120 ) ;
#197 = ADVANCED_FACE ( 'NONE', ( #304 ), #13, .T. ) ;
#198 = CARTESIAN_POINT ( 'NONE',  ( 106.8277310924369630, 0.000000000000000000, 10.44999999999999929 ) ) ;
#199 = CARTESIAN_POINT ( 'NONE',  ( 114.5438675712619556, 6.121468273201157828, -10.44999999999999929 ) ) ;
#200 =( BOUNDED_CURVE ( )  B_SPLINE_CURVE ( 3, ( #332, #84, #199, #229 ),
 .UNSPECIFIED., .F., .T. ) 
 B_SPLINE_CURVE_WITH_KNOTS ( ( 4, 4 ),
 ( 3.141592653589793116, 4.712388980384689674 ),
 .UNSPECIFIED. ) 
 CURVE ( )  GEOMETRIC_REPRESENTATION_ITEM ( )  RATIONAL_B_SPLINE_CURVE ( ( 1.000000000000000000, 0.8047378541243649375, 0.8047378541243649375, 1.000000000000000000 ) ) 
 REPRESENTATION_ITEM ( '' )  );
#201 = AXIS2_PLACEMENT_3D ( 'NONE', #182, #188, #240 ) ;
#202 = CARTESIAN_POINT ( 'NONE',  ( 0.000000000000000000, 0.000000000000000000, 10.44999999999999929 ) ) ;
#203 = CARTESIAN_POINT ( 'NONE',  ( 120.0000000000000000, 10.44999999999999929, 8.307827634225448676 ) ) ;
#204 = VECTOR ( 'NONE', #238, 999.9999999999998863 ) ;
#205 = DIRECTION ( 'NONE',  ( 0.000000000000000000, -0.000000000000000000, 1.000000000000000000 ) ) ;
#206 = EDGE_CURVE ( 'NONE', #190, #98, #339, .T. ) ;
#207 = DIRECTION ( 'NONE',  ( 0.000000000000000000, 0.000000000000000000, -1.000000000000000000 ) ) ;
#208 = DIRECTION ( 'NONE',  ( -1.000000000000000000, -0.000000000000000000, -0.000000000000000000 ) ) ;
#209 = CC_DESIGN_PERSON_AND_ORGANIZATION_ASSIGNMENT ( #106, #264, ( #113 ) ) ;
#210 = LOCAL_TIME ( 9, 21, 53.00000000000000000, #46 ) ;
#211 = ORIENTED_EDGE ( 'NONE', *, *, #266, .F. ) ;
#212 = CARTESIAN_POINT ( 'NONE',  ( 1.000000000000000888, 1.634903476861716437E-15, -13.34999999999999964 ) ) ;
#213 = ORIENTED_EDGE ( 'NONE', *, *, #63, .F. ) ;
#214 = ORIENTED_EDGE ( 'NONE', *, *, #146, .F. ) ;
#215 = PERSON_AND_ORGANIZATION_ROLE ( 'design_owner' ) ;
#216 = EDGE_CURVE ( 'NONE', #295, #190, #309, .T. ) ;
#217 = APPLICATION_CONTEXT ( 'configuration controlled 3d designs of mechanical parts and assemblies' ) ;
#218 = ORIENTED_EDGE ( 'NONE', *, *, #256, .T. ) ;
#219 = EDGE_CURVE ( 'NONE', #262, #178, #168, .T. ) ;
#220 = ORIENTED_EDGE ( 'NONE', *, *, #154, .T. ) ;
#221 = CARTESIAN_POINT ( 'NONE',  ( 120.0000000000000000, 10.44999999999999929, 8.307827634225448676 ) ) ;
#222 = CALENDAR_DATE ( 2026, 7, 2 ) ;
#223 = AXIS2_PLACEMENT_3D ( 'NONE', #257, #342, #336 ) ;
#224 = DIRECTION ( 'NONE',  ( -1.000000000000000000, -0.000000000000000000, -0.000000000000000000 ) ) ;
#225 = CC_DESIGN_PERSON_AND_ORGANIZATION_ASSIGNMENT ( #6, #191, ( #299 ) ) ;
#226 = FACE_OUTER_BOUND ( 'NONE', #136, .T. ) ;
#227 = CARTESIAN_POINT ( 'NONE',  ( 120.0000000000000000, 0.000000000000000000, 13.34999999999999964 ) ) ;
#228 = LINE ( 'NONE', #93, #53 ) ;
#229 = CARTESIAN_POINT ( 'NONE',  ( 106.8277310924369630, 1.279755905108984152E-15, -10.44999999999999929 ) ) ;
#230 = DIRECTION ( 'NONE',  ( 1.000000000000000000, 0.000000000000000000, 0.000000000000000000 ) ) ;
#231 = AXIS2_PLACEMENT_3D ( 'NONE', #171, #86, #80 ) ;
#232 = EDGE_CURVE ( 'NONE', #245, #293, #228, .T. ) ;
#233 = DIRECTION ( 'NONE',  ( -1.000000000000000000, -0.000000000000000000, -0.000000000000000000 ) ) ;
#234 = CYLINDRICAL_SURFACE ( 'NONE', #45, 10.44999999999999929 ) ;
#235 = CARTESIAN_POINT ( 'NONE',  ( 106.8277310924369630, 1.634903476861716437E-15, -13.34999999999999964 ) ) ;
#236 =( NAMED_UNIT ( * ) PLANE_ANGLE_UNIT ( ) SI_UNIT ( $, .RADIAN. ) );
#237 = ORIENTED_EDGE ( 'NONE', *, *, #115, .T. ) ;
#238 = DIRECTION ( 'NONE',  ( 0.7071067811865482389, 0.000000000000000000, -0.7071067811865469066 ) ) ;
#239 = ORIENTED_EDGE ( 'NONE', *, *, #184, .T. ) ;
#240 = DIRECTION ( 'NONE',  ( 0.000000000000000000, 0.000000000000000000, -1.000000000000000000 ) ) ;
#241 = ORIENTED_EDGE ( 'NONE', *, *, #87, .T. ) ;
#242 = APPROVAL_ROLE ( '' ) ;
#243 = ORIENTED_EDGE ( 'NONE', *, *, #25, .F. ) ;
#244 = CALENDAR_DATE ( 2026, 7, 2 ) ;
#245 = VERTEX_POINT ( 'NONE', #235 ) ;
#246 = DATE_AND_TIME ( #170, #85 ) ;
#247 = DATE_TIME_ROLE ( 'creation_date' ) ;
#248 = CARTESIAN_POINT ( 'NONE',  ( 120.0000000000000000, 10.44999999999999929, -8.307827634225450453 ) ) ;
#249 = LOCAL_TIME ( 9, 21, 53.00000000000000000, #111 ) ;
#250 = DIRECTION ( 'NONE',  ( -0.6215052590238908659, 0.7834099903662490316, 0.000000000000000000 ) ) ;
#251 = LINE ( 'NONE', #328, #343 ) ;
#252 = CARTESIAN_POINT ( 'NONE',  ( 120.0000000000000000, 10.44999999999999751, 6.121468273201159604 ) ) ;
#253 = DIRECTION ( 'NONE',  ( 0.000000000000000000, 0.000000000000000000, -1.000000000000000000 ) ) ;
#254 = CC_DESIGN_APPROVAL ( #88, ( #299 ) ) ;
#255 = CARTESIAN_POINT ( 'NONE',  ( 120.0000000000000000, 10.44999999999999751, 0.000000000000000000 ) ) ;
#256 = EDGE_CURVE ( 'NONE', #178, #262, #91, .T. ) ;
#257 = CARTESIAN_POINT ( 'NONE',  ( 0.000000000000000000, 0.000000000000000000, 0.000000000000000000 ) ) ;
#258 = DIRECTION ( 'NONE',  ( 0.000000000000000000, 0.000000000000000000, -1.000000000000000000 ) ) ;
#259 = ORIENTED_EDGE ( 'NONE', *, *, #206, .F. ) ;
#260 = ORIENTED_EDGE ( 'NONE', *, *, #25, .T. ) ;
#261 = CC_DESIGN_APPROVAL ( #38, ( #169 ) ) ;
#262 = VERTEX_POINT ( 'NONE', #202 ) ;
#263 = EDGE_CURVE ( 'NONE', #158, #265, #334, .T. ) ;
#264 = PERSON_AND_ORGANIZATION_ROLE ( 'classification_officer' ) ;
#265 = VERTEX_POINT ( 'NONE', #203 ) ;
#266 = EDGE_CURVE ( 'NONE', #190, #295, #271, .T. ) ;
#267 = CC_DESIGN_PERSON_AND_ORGANIZATION_ASSIGNMENT ( #296, #29, ( #169 ) ) ;
#268 = ORIENTED_EDGE ( 'NONE', *, *, #340, .F. ) ;
#269 = AXIS2_PLACEMENT_3D ( 'NONE', #33, #126, #253 ) ;
#270 = APPROVAL_ROLE ( '' ) ;
#271 = CIRCLE ( 'NONE', #54, 12.34999999999999964 ) ;
#272 = DIRECTION ( 'NONE',  ( -1.000000000000000000, -0.000000000000000000, -0.000000000000000000 ) ) ;
#273 = DATE_AND_TIME ( #348, #179 ) ;
#274 = DIRECTION ( 'NONE',  ( -1.000000000000000000, -0.000000000000000000, -0.000000000000000000 ) ) ;
#275 = MECHANICAL_CONTEXT ( 'NONE', #217, 'mechanical' ) ;
#276 = CARTESIAN_POINT ( 'NONE',  ( 106.8277310924369630, 1.634903476861716437E-15, -13.34999999999999964 ) ) ;
#277 = VECTOR ( 'NONE', #272, 1000.000000000000000 ) ;
#278 = AXIS2_PLACEMENT_3D ( 'NONE', #325, #31, #68 ) ;
#279 = CARTESIAN_POINT ( 'NONE',  ( 120.0000000000000000, 10.44999999999999751, 0.000000000000000000 ) ) ;
#280 = CARTESIAN_POINT ( 'NONE',  ( 90.00000000000000000, -13.35000000000000497, -13.34999999999999964 ) ) ;
#281 = ADVANCED_FACE ( 'NONE', ( #283, #35 ), #117, .F. ) ;
#282 = AXIS2_PLACEMENT_3D ( 'NONE', #287, #186, #155 ) ;
#283 = FACE_OUTER_BOUND ( 'NONE', #187, .T. ) ;
#284 = FACE_OUTER_BOUND ( 'NONE', #285, .T. ) ;
#285 = EDGE_LOOP ( 'NONE', ( #243, #237, #347, #268 ) ) ;
#286 = MANIFOLD_SOLID_BREP ( 'Cut-Extrude1', #159 ) ;
#287 = CARTESIAN_POINT ( 'NONE',  ( 120.0000000000000000, 0.000000000000000000, 0.000000000000000000 ) ) ;
#288 = EDGE_LOOP ( 'NONE', ( #75, #241, #163 ) ) ;
#289 = CIRCLE ( 'NONE', #74, 13.34999999999999964 ) ;
#290 = CC_DESIGN_APPROVAL ( #118, ( #113 ) ) ;
#291 = APPROVAL_DATE_TIME ( #320, #88 ) ;
#292 = ADVANCED_FACE ( 'NONE', ( #129 ), #81, .T. ) ;
#293 = VERTEX_POINT ( 'NONE', #212 ) ;
#294 = DIRECTION ( 'NONE',  ( 0.000000000000000000, 0.000000000000000000, 1.000000000000000000 ) ) ;
#295 = VERTEX_POINT ( 'NONE', #151 ) ;
#296 = PERSON_AND_ORGANIZATION ( #58, #310 ) ;
#297 = CARTESIAN_POINT ( 'NONE',  ( 106.8277310924369630, 0.000000000000000000, 10.44999999999999929 ) ) ;
#298 = CALENDAR_DATE ( 2026, 7, 2 ) ;
#299 = PRODUCT_DEFINITION ( 'UNKNOWN', '', #169, #73 ) ;
#300 = CYLINDRICAL_SURFACE ( 'NONE', #32, 10.44999999999999929 ) ;
#301 = CARTESIAN_POINT ( 'NONE',  ( 106.8277310924369630, 0.000000000000000000, 13.34999999999999964 ) ) ;
#302 = CARTESIAN_POINT ( 'NONE',  ( 120.0000000000000000, 10.44999999999999929, -8.307827634225450453 ) ) ;
#303 = VECTOR ( 'NONE', #205, 1000.000000000000000 ) ;
#304 = FACE_OUTER_BOUND ( 'NONE', #189, .T. ) ;
#305 = AXIS2_PLACEMENT_3D ( 'NONE', #125, #338, #207 ) ;
#306 = CARTESIAN_POINT ( 'NONE',  ( 1.000000000000000888, 0.000000000000000000, 0.000000000000000000 ) ) ;
#307 = CARTESIAN_POINT ( 'NONE',  ( 120.0000000000000000, 0.000000000000000000, 0.000000000000000000 ) ) ;
#308 = DIRECTION ( 'NONE',  ( -1.000000000000000000, -0.000000000000000000, -0.000000000000000000 ) ) ;
#309 = CIRCLE ( 'NONE', #196, 12.34999999999999964 ) ;
#310 = ORGANIZATION ( 'UNSPECIFIED', 'UNSPECIFIED', '' ) ;
#311 = CARTESIAN_POINT ( 'NONE',  ( 120.0000000000000000, 0.000000000000000000, 10.44999999999999929 ) ) ;
#312 =( BOUNDED_CURVE ( )  B_SPLINE_CURVE ( 3, ( #139, #116, #5, #198 ),
 .UNSPECIFIED., .F., .F. ) 
 B_SPLINE_CURVE_WITH_KNOTS ( ( 4, 4 ),
 ( 4.712388980384689674, 7.853981633974482790 ),
 .UNSPECIFIED. ) 
 CURVE ( )  GEOMETRIC_REPRESENTATION_ITEM ( )  RATIONAL_B_SPLINE_CURVE ( ( 1.000000000000000000, 0.3333333333333333703, 0.3333333333333333703, 1.000000000000000000 ) ) 
 REPRESENTATION_ITEM ( '' )  );
#313 = ORIENTED_EDGE ( 'NONE', *, *, #9, .T. ) ;
#314 =( LENGTH_UNIT ( ) NAMED_UNIT ( * ) SI_UNIT ( .MILLI., .METRE. ) );
#315 = EDGE_LOOP ( 'NONE', ( #321, #21, #313, #47 ) ) ;
#316 = ADVANCED_FACE ( 'NONE', ( #39 ), #1, .T. ) ;
#317 = APPROVAL_STATUS ( 'not_yet_approved' ) ;
#318 = ORIENTED_EDGE ( 'NONE', *, *, #232, .T. ) ;
#319 = VECTOR ( 'NONE', #180, 1000.000000000000000 ) ;
#320 = DATE_AND_TIME ( #298, #326 ) ;
#321 = ORIENTED_EDGE ( 'NONE', *, *, #232, .F. ) ;
#322 = APPROVAL_STATUS ( 'not_yet_approved' ) ;
#323 = EDGE_LOOP ( 'NONE', ( #259, #19, #44, #41 ) ) ;
#324 = PERSON_AND_ORGANIZATION ( #58, #310 ) ;
#325 = CARTESIAN_POINT ( 'NONE',  ( 0.000000000000000000, 0.000000000000000000, 0.000000000000000000 ) ) ;
#326 = LOCAL_TIME ( 9, 21, 53.00000000000000000, #138 ) ;
#327 = DATE_AND_TIME ( #222, #249 ) ;
#328 = CARTESIAN_POINT ( 'NONE',  ( 120.0000000000000000, 1.279755905108984152E-15, -10.44999999999999929 ) ) ;
#329 = ADVANCED_FACE ( 'NONE', ( #160 ), #153, .T. ) ;
#330 = FACE_OUTER_BOUND ( 'NONE', #42, .T. ) ;
#331 = EDGE_CURVE ( 'NONE', #295, #293, #345, .T. ) ;
#332 = CARTESIAN_POINT ( 'NONE',  ( 120.0000000000000000, 10.44999999999999751, 0.000000000000000000 ) ) ;
#333 = CARTESIAN_POINT ( 'NONE',  ( 114.5438675712619556, 6.121468273201155164, 10.45000000000000107 ) ) ;
#334 = LINE ( 'NONE', #34, #303 ) ;
#335 = VERTEX_POINT ( 'NONE', #16 ) ;
#336 = DIRECTION ( 'NONE',  ( 0.000000000000000000, 0.000000000000000000, -1.000000000000000000 ) ) ;
#337 = ADVANCED_FACE ( 'NONE', ( #284 ), #234, .F. ) ;
#338 = DIRECTION ( 'NONE',  ( 1.000000000000000000, -0.000000000000000000, -0.000000000000000000 ) ) ;
#339 = LINE ( 'NONE', #92, #119 ) ;
#340 = EDGE_CURVE ( 'NONE', #335, #262, #70, .T. ) ;
#341 = DIRECTION ( 'NONE',  ( -1.000000000000000000, -0.000000000000000000, -0.000000000000000000 ) ) ;
#342 = DIRECTION ( 'NONE',  ( 1.000000000000000000, 0.000000000000000000, 0.000000000000000000 ) ) ;
#343 = VECTOR ( 'NONE', #274, 1000.000000000000000 ) ;
#344 = ORIENTED_EDGE ( 'NONE', *, *, #146, .T. ) ;
#345 = LINE ( 'NONE', #18, #204 ) ;
#346 = ORIENTED_EDGE ( 'NONE', *, *, #256, .F. ) ;
#347 = ORIENTED_EDGE ( 'NONE', *, *, #219, .F. ) ;
#348 = CALENDAR_DATE ( 2026, 7, 2 ) ;
#349 = ORIENTED_EDGE ( 'NONE', *, *, #266, .T. ) ;
ENDSEC;
END-ISO-10303-21;
