ISO-10303-21;
HEADER;
FILE_DESCRIPTION (( 'STEP AP203' ),
    '1' );
FILE_NAME ('3927-30-25_REV_.step',
    '2026-02-22T20:34:35',
    ( '' ),
    ( '' ),
    'SwSTEP 2.0',
    'SolidWorks 2025',
    '' );
FILE_SCHEMA (( 'CONFIG_CONTROL_DESIGN' ));
ENDSEC;

DATA;
#1 = DATE_TIME_ROLE ( 'classification_date' ) ;
#2 = VERTEX_POINT ( 'NONE', #187 ) ;
#3 = FACE_OUTER_BOUND ( 'NONE', #211, .T. ) ;
#4 = ADVANCED_FACE ( 'NONE', ( #294 ), #270, .F. ) ;
#5 = DIRECTION ( 'NONE',  ( 1.000000000000000000, 3.061616997868382648E-16, -0.000000000000000000 ) ) ;
#6 = AXIS2_PLACEMENT_3D ( 'NONE', #145, #172, #94 ) ;
#7 = CYLINDRICAL_SURFACE ( 'NONE', #68, 12.49000000000000021 ) ;
#8 = EDGE_CURVE ( 'NONE', #80, #190, #227, .T. ) ;
#9 = CARTESIAN_POINT ( 'NONE',  ( 28.49999999999999645, 8.050000000000009592, 0.000000000000000000 ) ) ;
#10 = LINE ( 'NONE', #119, #209 ) ;
#11 = CONICAL_SURFACE ( 'NONE', #6, 11.49000000000004285, 0.7853981633974466137 ) ;
#12 = DIRECTION ( 'NONE',  ( 3.061616997868382648E-16, -1.000000000000000000, 0.000000000000000000 ) ) ;
#13 = FACE_OUTER_BOUND ( 'NONE', #244, .T. ) ;
#14 = CC_DESIGN_PERSON_AND_ORGANIZATION_ASSIGNMENT ( #318, #246, ( #104 ) ) ;
#15 = CARTESIAN_POINT ( 'NONE',  ( 28.50000000000000000, 7.960204194457794096E-15, 0.000000000000000000 ) ) ;
#16 = LOCAL_TIME ( 7, 34, 35.00000000000000000, #271 ) ;
#17 = VECTOR ( 'NONE', #313, 1000.000000000000114 ) ;
#18 =( NAMED_UNIT ( * ) SI_UNIT ( $, .STERADIAN. ) SOLID_ANGLE_UNIT ( ) );
#19 = EDGE_CURVE ( 'NONE', #248, #158, #239, .T. ) ;
#20 = DIRECTION ( 'NONE',  ( -4.309871990004489305E-16, 1.000000000000000000, 0.000000000000000000 ) ) ;
#21 = EDGE_LOOP ( 'NONE', ( #106, #31, #76, #319 ) ) ;
#22 = ORIENTED_EDGE ( 'NONE', *, *, #229, .T. ) ;
#23 = AXIS2_PLACEMENT_3D ( 'NONE', #89, #274, #303 ) ;
#24 = COORDINATED_UNIVERSAL_TIME_OFFSET ( 10, 0, .AHEAD. ) ;
#25 = ORIENTED_EDGE ( 'NONE', *, *, #8, .T. ) ;
#26 = PERSON_AND_ORGANIZATION ( #276, #304 ) ;
#27 = EDGE_LOOP ( 'NONE', ( #183, #292 ) ) ;
#28 = PERSON_AND_ORGANIZATION ( #276, #304 ) ;
#29 = CARTESIAN_POINT ( 'NONE',  ( -28.50000000000000000, -6.858022075225178552E-15, 0.000000000000000000 ) ) ;
#30 = DATE_AND_TIME ( #186, #16 ) ;
#31 = ORIENTED_EDGE ( 'NONE', *, *, #295, .F. ) ;
#32 = DIRECTION ( 'NONE',  ( -1.000000000000000000, -3.061616997868390537E-16, -0.000000000000000000 ) ) ;
#33 = DIRECTION ( 'NONE',  ( 2.777779785391204392E-16, -1.000000000000000000, 0.000000000000000000 ) ) ;
#34 = DIRECTION ( 'NONE',  ( 2.777779785391204392E-16, -1.000000000000000000, 0.000000000000000000 ) ) ;
#35 = AXIS2_PLACEMENT_3D ( 'NONE', #37, #196, #331 ) ;
#36 = LOCAL_TIME ( 7, 34, 35.00000000000000000, #24 ) ;
#37 = CARTESIAN_POINT ( 'NONE',  ( 28.50000000000000000, 7.960204194457794096E-15, 0.000000000000000000 ) ) ;
#38 = CARTESIAN_POINT ( 'NONE',  ( -28.49999999999999645, -8.050000000000006040, 9.858406733136202303E-16 ) ) ;
#39 = CARTESIAN_POINT ( 'NONE',  ( 27.49999999999996803, -12.48999999999999311, 1.529583852135043752E-15 ) ) ;
#40 = AXIS2_PLACEMENT_3D ( 'NONE', #346, #189, #129 ) ;
#41 = DIRECTION ( 'NONE',  ( 1.000000000000000000, 3.061616997868382648E-16, 0.000000000000000000 ) ) ;
#42 = EDGE_CURVE ( 'NONE', #134, #140, #86, .T. ) ;
#43 = CARTESIAN_POINT ( 'NONE',  ( -28.50000000000000000, -9.491012693391988181E-15, 0.000000000000000000 ) ) ;
#44 = AXIS2_PLACEMENT_3D ( 'NONE', #43, #152, #12 ) ;
#45 = CARTESIAN_POINT ( 'NONE',  ( -28.50000000000000000, -6.858022075225178552E-15, 0.000000000000000000 ) ) ;
#46 = MECHANICAL_CONTEXT ( 'NONE', #77, 'mechanical' ) ;
#47 = EDGE_LOOP ( 'NONE', ( #290, #241, #192, #213 ) ) ;
#48 = MANIFOLD_SOLID_BREP ( 'Chamfer1', #73 ) ;
#49 = ORIENTED_EDGE ( 'NONE', *, *, #336, .T. ) ;
#50 = COORDINATED_UNIVERSAL_TIME_OFFSET ( 10, 0, .AHEAD. ) ;
#51 = APPROVAL_PERSON_ORGANIZATION ( #348, #90, #218 ) ;
#52 = ORIENTED_EDGE ( 'NONE', *, *, #71, .T. ) ;
#53 = ADVANCED_FACE ( 'NONE', ( #3, #197 ), #275, .F. ) ;
#54 = EDGE_LOOP ( 'NONE', ( #113, #163, #49, #103 ) ) ;
#55 = CALENDAR_DATE ( 2026, 23, 2 ) ;
#56 = VERTEX_POINT ( 'NONE', #249 ) ;
#57 = EDGE_CURVE ( 'NONE', #321, #128, #337, .T. ) ;
#58 = EDGE_LOOP ( 'NONE', ( #159, #215, #235, #160 ) ) ;
#59 = AXIS2_PLACEMENT_3D ( 'NONE', #61, #250, #167 ) ;
#60 = DIRECTION ( 'NONE',  ( -3.019536076547955595E-16, 1.000000000000000000, 0.000000000000000000 ) ) ;
#61 = CARTESIAN_POINT ( 'NONE',  ( 28.50000000000000000, 7.960204194457794096E-15, 0.000000000000000000 ) ) ;
#62 = CARTESIAN_POINT ( 'NONE',  ( -28.50000000000000000, -9.491012693391988181E-15, 0.000000000000000000 ) ) ;
#63 = CONICAL_SURFACE ( 'NONE', #88, 11.49000000000004285, 0.7853981633974466137 ) ;
#64 = SECURITY_CLASSIFICATION ( '', '', #210 ) ;
#65 = DIRECTION ( 'NONE',  ( -1.000000000000000000, -3.061616997868390537E-16, -0.000000000000000000 ) ) ;
#66 = FACE_OUTER_BOUND ( 'NONE', #54, .T. ) ;
#67 = CYLINDRICAL_SURFACE ( 'NONE', #124, 12.49000000000000021 ) ;
#68 = AXIS2_PLACEMENT_3D ( 'NONE', #147, #279, #141 ) ;
#69 = DIRECTION ( 'NONE',  ( 3.019536076547978274E-16, -1.000000000000000000, 0.000000000000000000 ) ) ;
#70 = CARTESIAN_POINT ( 'NONE',  ( -28.50000000000000355, 8.049999999999993605, 0.000000000000000000 ) ) ;
#71 = EDGE_CURVE ( 'NONE', #140, #134, #267, .T. ) ;
#72 = DIRECTION ( 'NONE',  ( -1.000000000000000000, -3.061616997868382648E-16, 0.000000000000000000 ) ) ;
#73 = CLOSED_SHELL ( 'NONE', ( #153, #131, #266, #143, #280, #317, #53, #4, #156, #84 ) ) ;
#74 = DATE_AND_TIME ( #323, #139 ) ;
#75 = COORDINATED_UNIVERSAL_TIME_OFFSET ( 10, 0, .AHEAD. ) ;
#76 = ORIENTED_EDGE ( 'NONE', *, *, #214, .T. ) ;
#77 = APPLICATION_CONTEXT ( 'configuration controlled 3d designs of mechanical parts and assemblies' ) ;
#78 = EDGE_CURVE ( 'NONE', #128, #80, #306, .T. ) ;
#79 = CALENDAR_DATE ( 2026, 23, 2 ) ;
#80 = VERTEX_POINT ( 'NONE', #117 ) ;
#81 = ORIENTED_EDGE ( 'NONE', *, *, #247, .F. ) ;
#82 = DATE_TIME_ROLE ( 'creation_date' ) ;
#83 = ORIENTED_EDGE ( 'NONE', *, *, #289, .F. ) ;
#84 = ADVANCED_FACE ( 'NONE', ( #224 ), #310, .T. ) ;
#85 = ORIENTED_EDGE ( 'NONE', *, *, #289, .T. ) ;
#86 = CIRCLE ( 'NONE', #328, 12.49000000000000021 ) ;
#87 = CARTESIAN_POINT ( 'NONE',  ( -28.49999999999999645, -8.050000000000006040, 9.858406733136192443E-16 ) ) ;
#88 = AXIS2_PLACEMENT_3D ( 'NONE', #62, #171, #60 ) ;
#89 = CARTESIAN_POINT ( 'NONE',  ( 28.50000000000000000, 1.059319481262460294E-14, 0.000000000000000000 ) ) ;
#90 = APPROVAL ( #236, 'UNSPECIFIED' ) ;
#91 = DIRECTION ( 'NONE',  ( 2.777779785391204392E-16, -1.000000000000000000, 0.000000000000000000 ) ) ;
#92 = CARTESIAN_POINT ( 'NONE',  ( 27.49999999999996447, 7.654042494670943604E-15, 0.000000000000000000 ) ) ;
#93 = AXIS2_PLACEMENT_3D ( 'NONE', #205, #283, #98 ) ;
#94 = DIRECTION ( 'NONE',  ( -3.019536076547955595E-16, 1.000000000000000000, 0.000000000000000000 ) ) ;
#95 = DIRECTION ( 'NONE',  ( 3.019536076547955595E-16, -1.000000000000000000, 0.000000000000000000 ) ) ;
#96 = AXIS2_PLACEMENT_3D ( 'NONE', #231, #281, #95 ) ;
#97 = FACE_OUTER_BOUND ( 'NONE', #136, .T. ) ;
#98 = DIRECTION ( 'NONE',  ( -4.309871990004489305E-16, 1.000000000000000000, 0.000000000000000000 ) ) ;
#99 = EDGE_CURVE ( 'NONE', #2, #326, #282, .T. ) ;
#100 = CARTESIAN_POINT ( 'NONE',  ( -28.50000000000000000, -6.858022075225178552E-15, 0.000000000000000000 ) ) ;
#101 = CIRCLE ( 'NONE', #251, 11.49000000000004285 ) ;
#102 = DATE_AND_TIME ( #110, #36 ) ;
#103 = ORIENTED_EDGE ( 'NONE', *, *, #71, .F. ) ;
#104 = PRODUCT_DEFINITION ( 'UNKNOWN', '', #185, #325 ) ;
#105 = APPROVAL_ROLE ( '' ) ;
#106 = ORIENTED_EDGE ( 'NONE', *, *, #193, .F. ) ;
#107 = PERSON_AND_ORGANIZATION_ROLE ( 'design_supplier' ) ;
#108 = EDGE_LOOP ( 'NONE', ( #322, #22 ) ) ;
#109 = APPROVAL_PERSON_ORGANIZATION ( #341, #242, #133 ) ;
#110 = CALENDAR_DATE ( 2026, 23, 2 ) ;
#111 = ORIENTED_EDGE ( 'NONE', *, *, #99, .T. ) ;
#112 = UNCERTAINTY_MEASURE_WITH_UNIT (LENGTH_MEASURE( 1.000000000000000082E-05 ), #126, 'distance_accuracy_value', 'NONE');
#113 = ORIENTED_EDGE ( 'NONE', *, *, #201, .F. ) ;
#114 = DIRECTION ( 'NONE',  ( 1.000000000000000000, 3.061616997868377718E-16, 0.000000000000000000 ) ) ;
#115 = DIRECTION ( 'NONE',  ( 1.000000000000000000, 3.061616997868377718E-16, 0.000000000000000000 ) ) ;
#116 = CC_DESIGN_PERSON_AND_ORGANIZATION_ASSIGNMENT ( #26, #107, ( #185 ) ) ;
#117 = CARTESIAN_POINT ( 'NONE',  ( 28.50000000000000355, -8.049999999999990052, 9.858406733136192443E-16 ) ) ;
#118 = FACE_OUTER_BOUND ( 'NONE', #58, .T. ) ;
#119 = CARTESIAN_POINT ( 'NONE',  ( -28.49999999999999645, -11.49000000000005173, 1.407119172220314126E-15 ) ) ;
#120 = EDGE_CURVE ( 'NONE', #158, #248, #121, .T. ) ;
#121 = CIRCLE ( 'NONE', #132, 12.49000000000000021 ) ;
#122 =( NAMED_UNIT ( * ) PLANE_ANGLE_UNIT ( ) SI_UNIT ( $, .RADIAN. ) );
#123 = DIRECTION ( 'NONE',  ( -4.309871990004489305E-16, 1.000000000000000000, 0.000000000000000000 ) ) ;
#124 = AXIS2_PLACEMENT_3D ( 'NONE', #314, #339, #148 ) ;
#125 = PRODUCT_RELATED_PRODUCT_CATEGORY ( 'detail', '', ( #320 ) ) ;
#126 =( LENGTH_UNIT ( ) NAMED_UNIT ( * ) SI_UNIT ( .MILLI., .METRE. ) );
#127 = LINE ( 'NONE', #260, #299 ) ;
#128 = VERTEX_POINT ( 'NONE', #38 ) ;
#129 = DIRECTION ( 'NONE',  ( 1.000000000000000000, 0.000000000000000000, 0.000000000000000000 ) ) ;
#130 = ORIENTED_EDGE ( 'NONE', *, *, #42, .T. ) ;
#131 = ADVANCED_FACE ( 'NONE', ( #168 ), #11, .T. ) ;
#132 = AXIS2_PLACEMENT_3D ( 'NONE', #92, #32, #327 ) ;
#133 = APPROVAL_ROLE ( '' ) ;
#134 = VERTEX_POINT ( 'NONE', #308 ) ;
#135 = APPROVAL_DATE_TIME ( #240, #242 ) ;
#136 = EDGE_LOOP ( 'NONE', ( #219, #221, #25, #181 ) ) ;
#137 = ORIENTED_EDGE ( 'NONE', *, *, #42, .F. ) ;
#138 = APPROVAL_DATE_TIME ( #102, #90 ) ;
#139 = LOCAL_TIME ( 7, 34, 35.00000000000000000, #75 ) ;
#140 = VERTEX_POINT ( 'NONE', #195 ) ;
#141 = DIRECTION ( 'NONE',  ( -2.777779785391204392E-16, 1.000000000000000000, 0.000000000000000000 ) ) ;
#142 = DIRECTION ( 'NONE',  ( -4.309871990004489305E-16, 1.000000000000000000, 0.000000000000000000 ) ) ;
#143 = ADVANCED_FACE ( 'NONE', ( #253 ), #7, .T. ) ;
#144 = AXIS2_PLACEMENT_3D ( 'NONE', #225, #65, #329 ) ;
#145 = CARTESIAN_POINT ( 'NONE',  ( -28.50000000000000000, -9.491012693391988181E-15, 0.000000000000000000 ) ) ;
#146 = CARTESIAN_POINT ( 'NONE',  ( 27.49999999999996447, 7.654042494670943604E-15, 0.000000000000000000 ) ) ;
#147 = CARTESIAN_POINT ( 'NONE',  ( -28.50000000000000000, -9.491012693391988181E-15, 0.000000000000000000 ) ) ;
#148 = DIRECTION ( 'NONE',  ( -2.777779785391204392E-16, 1.000000000000000000, 0.000000000000000000 ) ) ;
#149 = CONICAL_SURFACE ( 'NONE', #316, 12.49000000000000021, 0.7853981633974528309 ) ;
#150 = CARTESIAN_POINT ( 'NONE',  ( -28.50000000000000355, 11.49000000000003574, 0.000000000000000000 ) ) ;
#151 = ORIENTED_EDGE ( 'NONE', *, *, #336, .F. ) ;
#152 = DIRECTION ( 'NONE',  ( -1.000000000000000000, -3.061616997868382648E-16, 0.000000000000000000 ) ) ;
#153 = ADVANCED_FACE ( 'NONE', ( #118 ), #149, .T. ) ;
#154 = AXIS2_PLACEMENT_3D ( 'NONE', #45, #204, #20 ) ;
#155 = DIRECTION ( 'NONE',  ( 1.000000000000000000, 3.061616997868382648E-16, -0.000000000000000000 ) ) ;
#156 = ADVANCED_FACE ( 'NONE', ( #66 ), #63, .T. ) ;
#157 = DATE_AND_TIME ( #79, #217 ) ;
#158 = VERTEX_POINT ( 'NONE', #255 ) ;
#159 = ORIENTED_EDGE ( 'NONE', *, *, #99, .F. ) ;
#160 = ORIENTED_EDGE ( 'NONE', *, *, #214, .F. ) ;
#161 = APPROVAL ( #182, 'UNSPECIFIED' ) ;
#162 = PERSON_AND_ORGANIZATION_ROLE ( 'creator' ) ;
#163 = ORIENTED_EDGE ( 'NONE', *, *, #233, .F. ) ;
#164 = VECTOR ( 'NONE', #5, 1000.000000000000000 ) ;
#165 = ORIENTED_EDGE ( 'NONE', *, *, #307, .F. ) ;
#166 = CC_DESIGN_PERSON_AND_ORGANIZATION_ASSIGNMENT ( #288, #179, ( #320 ) ) ;
#167 = DIRECTION ( 'NONE',  ( 3.061616997868382648E-16, -1.000000000000000000, 0.000000000000000000 ) ) ;
#168 = FACE_OUTER_BOUND ( 'NONE', #208, .T. ) ;
#169 = CC_DESIGN_APPROVAL ( #90, ( #104 ) ) ;
#170 = AXIS2_PLACEMENT_3D ( 'NONE', #334, #114, #34 ) ;
#171 = DIRECTION ( 'NONE',  ( 1.000000000000000000, 3.061616997868377718E-16, 0.000000000000000000 ) ) ;
#172 = DIRECTION ( 'NONE',  ( 1.000000000000000000, 3.061616997868377718E-16, 0.000000000000000000 ) ) ;
#173 = CARTESIAN_POINT ( 'NONE',  ( 27.49999999999996803, -12.48999999999999311, 0.000000000000000000 ) ) ;
#174 = FACE_OUTER_BOUND ( 'NONE', #324, .T. ) ;
#175 = AXIS2_PLACEMENT_3D ( 'NONE', #29, #245, #349 ) ;
#176 = DIRECTION ( 'NONE',  ( 1.000000000000000000, 3.061616997868382648E-16, -0.000000000000000000 ) ) ;
#177 = CC_DESIGN_PERSON_AND_ORGANIZATION_ASSIGNMENT ( #28, #162, ( #185 ) ) ;
#178 = CARTESIAN_POINT ( 'NONE',  ( -28.50000000000000355, 12.48999999999999133, 0.000000000000000000 ) ) ;
#179 = PERSON_AND_ORGANIZATION_ROLE ( 'design_owner' ) ;
#180 = PERSON_AND_ORGANIZATION ( #276, #304 ) ;
#181 = ORIENTED_EDGE ( 'NONE', *, *, #285, .F. ) ;
#182 = APPROVAL_STATUS ( 'not_yet_approved' ) ;
#183 = ORIENTED_EDGE ( 'NONE', *, *, #206, .F. ) ;
#184 = AXIS2_PLACEMENT_3D ( 'NONE', #222, #278, #33 ) ;
#185 = PRODUCT_DEFINITION_FORMATION_WITH_SPECIFIED_SOURCE ( 'ANY', '', #320, .NOT_KNOWN. ) ;
#186 = CALENDAR_DATE ( 2026, 23, 2 ) ;
#187 = CARTESIAN_POINT ( 'NONE',  ( 28.49999999999999645, 11.48999999999996469, 1.468351512177673811E-15 ) ) ;
#188 = CC_DESIGN_DATE_AND_TIME_ASSIGNMENT ( #30, #1, ( #64 ) ) ;
#189 = DIRECTION ( 'NONE',  ( 0.000000000000000000, 0.000000000000000000, 1.000000000000000000 ) ) ;
#190 = VERTEX_POINT ( 'NONE', #9 ) ;
#191 = APPLICATION_CONTEXT ( 'configuration controlled 3d designs of mechanical parts and assemblies' ) ;
#192 = ORIENTED_EDGE ( 'NONE', *, *, #285, .T. ) ;
#193 = EDGE_CURVE ( 'NONE', #2, #158, #273, .T. ) ;
#194 = VECTOR ( 'NONE', #155, 1000.000000000000000 ) ;
#195 = CARTESIAN_POINT ( 'NONE',  ( -27.50000000000003908, -12.49000000000000909, 1.529583852135044738E-15 ) ) ;
#196 = DIRECTION ( 'NONE',  ( 1.000000000000000000, 3.061616997868382648E-16, -0.000000000000000000 ) ) ;
#197 = FACE_BOUND ( 'NONE', #27, .T. ) ;
#198 = AXIS2_PLACEMENT_3D ( 'NONE', #15, #176, #69 ) ;
#199 = CARTESIAN_POINT ( 'NONE',  ( -28.50000000000000000, -6.858022075225178552E-15, 0.000000000000000000 ) ) ;
#200 = DIRECTION ( 'NONE',  ( -1.000000000000000000, -3.061616997868390537E-16, -0.000000000000000000 ) ) ;
#201 = EDGE_CURVE ( 'NONE', #56, #140, #10, .T. ) ;
#202 = DIRECTION ( 'NONE',  ( 1.000000000000000000, 3.061616997868382648E-16, -0.000000000000000000 ) ) ;
#203 = AXIS2_PLACEMENT_3D ( 'NONE', #100, #41, #123 ) ;
#204 = DIRECTION ( 'NONE',  ( 1.000000000000000000, 3.061616997868382648E-16, -0.000000000000000000 ) ) ;
#205 = CARTESIAN_POINT ( 'NONE',  ( 28.50000000000000000, 1.059319481262460294E-14, 0.000000000000000000 ) ) ;
#206 = EDGE_CURVE ( 'NONE', #190, #80, #262, .T. ) ;
#207 = LINE ( 'NONE', #173, #17 ) ;
#208 = EDGE_LOOP ( 'NONE', ( #83, #298, #137, #151 ) ) ;
#209 = VECTOR ( 'NONE', #228, 1000.000000000000114 ) ;
#210 = SECURITY_CLASSIFICATION_LEVEL ( 'unclassified' ) ;
#211 = EDGE_LOOP ( 'NONE', ( #343, #111 ) ) ;
#212 = APPROVAL_DATE_TIME ( #157, #161 ) ;
#213 = ORIENTED_EDGE ( 'NONE', *, *, #206, .T. ) ;
#214 = EDGE_CURVE ( 'NONE', #326, #248, #207, .T. ) ;
#215 = ORIENTED_EDGE ( 'NONE', *, *, #193, .T. ) ;
#216 = CIRCLE ( 'NONE', #203, 8.050000000000000711 ) ;
#217 = LOCAL_TIME ( 7, 34, 35.00000000000000000, #50 ) ;
#218 = APPROVAL_ROLE ( '' ) ;
#219 = ORIENTED_EDGE ( 'NONE', *, *, #229, .F. ) ;
#220 = APPLICATION_PROTOCOL_DEFINITION ( 'international standard', 'config_control_design', 1994, #77 ) ;
#221 = ORIENTED_EDGE ( 'NONE', *, *, #78, .T. ) ;
#222 = CARTESIAN_POINT ( 'NONE',  ( 27.49999999999996447, 7.654042494670943604E-15, 0.000000000000000000 ) ) ;
#223 = APPROVAL_PERSON_ORGANIZATION ( #344, #161, #105 ) ;
#224 = FACE_OUTER_BOUND ( 'NONE', #21, .T. ) ;
#225 = CARTESIAN_POINT ( 'NONE',  ( 27.49999999999996447, 7.654042494670943604E-15, 0.000000000000000000 ) ) ;
#226 = CARTESIAN_POINT ( 'NONE',  ( 27.49999999999996092, 12.49000000000000554, 1.529583852135044146E-15 ) ) ;
#227 = CIRCLE ( 'NONE', #23, 8.050000000000000711 ) ;
#228 = DIRECTION ( 'NONE',  ( 0.7071067811865489050, -0.7071067811865461294, 8.659560562354916834E-17 ) ) ;
#229 = EDGE_CURVE ( 'NONE', #128, #321, #216, .T. ) ;
#230 = CARTESIAN_POINT ( 'NONE',  ( -28.50000000000000000, -9.491012693391988181E-15, 0.000000000000000000 ) ) ;
#231 = CARTESIAN_POINT ( 'NONE',  ( -28.50000000000000000, -9.491012693391988181E-15, 0.000000000000000000 ) ) ;
#232 = VECTOR ( 'NONE', #202, 1000.000000000000000 ) ;
#233 = EDGE_CURVE ( 'NONE', #297, #56, #257, .T. ) ;
#234 = DIRECTION ( 'NONE',  ( 3.019536076547955595E-16, -1.000000000000000000, 0.000000000000000000 ) ) ;
#235 = ORIENTED_EDGE ( 'NONE', *, *, #19, .F. ) ;
#236 = APPROVAL_STATUS ( 'not_yet_approved' ) ;
#237 = PRODUCT_DEFINITION_SHAPE ( 'NONE', 'NONE',  #104 ) ;
#238 = EDGE_LOOP ( 'NONE', ( #130, #345, #272, #165 ) ) ;
#239 = CIRCLE ( 'NONE', #184, 12.49000000000000021 ) ;
#240 = DATE_AND_TIME ( #55, #252 ) ;
#241 = ORIENTED_EDGE ( 'NONE', *, *, #57, .F. ) ;
#242 = APPROVAL ( #296, 'UNSPECIFIED' ) ;
#243 = PERSON_AND_ORGANIZATION_ROLE ( 'classification_officer' ) ;
#244 = EDGE_LOOP ( 'NONE', ( #81, #52, #269, #265 ) ) ;
#245 = DIRECTION ( 'NONE',  ( 1.000000000000000000, 3.061616997868382648E-16, -0.000000000000000000 ) ) ;
#246 = PERSON_AND_ORGANIZATION_ROLE ( 'creator' ) ;
#247 = EDGE_CURVE ( 'NONE', #140, #248, #315, .T. ) ;
#248 = VERTEX_POINT ( 'NONE', #39 ) ;
#249 = CARTESIAN_POINT ( 'NONE',  ( -28.49999999999999645, -11.49000000000005173, 1.468351512177679136E-15 ) ) ;
#250 = DIRECTION ( 'NONE',  ( -1.000000000000000000, -3.061616997868382648E-16, 0.000000000000000000 ) ) ;
#251 = AXIS2_PLACEMENT_3D ( 'NONE', #230, #72, #234 ) ;
#252 = LOCAL_TIME ( 7, 34, 35.00000000000000000, #268 ) ;
#253 = FACE_OUTER_BOUND ( 'NONE', #238, .T. ) ;
#254 = CC_DESIGN_PERSON_AND_ORGANIZATION_ASSIGNMENT ( #180, #243, ( #64 ) ) ;
#255 = CARTESIAN_POINT ( 'NONE',  ( 27.49999999999996092, 12.49000000000000554, 0.000000000000000000 ) ) ;
#256 = DIRECTION ( 'NONE',  ( -0.7071067811865445751, 0.7071067811865504593, 8.659560562354969836E-17 ) ) ;
#257 = CIRCLE ( 'NONE', #96, 11.49000000000004285 ) ;
#258 = PLANE ( 'NONE',  #44 ) ;
#259 = DIRECTION ( 'NONE',  ( 0.7071067811865485719, 0.7071067811865465735, 0.000000000000000000 ) ) ;
#260 = CARTESIAN_POINT ( 'NONE',  ( -28.50000000000000355, 11.49000000000003574, 0.000000000000000000 ) ) ;
#261 = DIRECTION ( 'NONE',  ( 1.000000000000000000, 3.061616997868382648E-16, -0.000000000000000000 ) ) ;
#262 = CIRCLE ( 'NONE', #93, 8.050000000000000711 ) ;
#263 = CARTESIAN_POINT ( 'NONE',  ( 28.50000000000000355, -11.48999999999994870, 0.000000000000000000 ) ) ;
#264 = APPLICATION_PROTOCOL_DEFINITION ( 'international standard', 'config_control_design', 1994, #191 ) ;
#265 = ORIENTED_EDGE ( 'NONE', *, *, #120, .T. ) ;
#266 = ADVANCED_FACE ( 'NONE', ( #97 ), #309, .F. ) ;
#267 = CIRCLE ( 'NONE', #170, 12.49000000000000021 ) ;
#268 = COORDINATED_UNIVERSAL_TIME_OFFSET ( 10, 0, .AHEAD. ) ;
#269 = ORIENTED_EDGE ( 'NONE', *, *, #307, .T. ) ;
#270 = CYLINDRICAL_SURFACE ( 'NONE', #175, 8.050000000000000711 ) ;
#271 = COORDINATED_UNIVERSAL_TIME_OFFSET ( 10, 0, .AHEAD. ) ;
#272 = ORIENTED_EDGE ( 'NONE', *, *, #19, .T. ) ;
#273 = LINE ( 'NONE', #226, #342 ) ;
#274 = DIRECTION ( 'NONE',  ( 1.000000000000000000, 3.061616997868382648E-16, 0.000000000000000000 ) ) ;
#275 = PLANE ( 'NONE',  #59 ) ;
#276 = PERSON ( 'UNSPECIFIED', 'UNSPECIFIED', 'UNSPECIFIED', ('UNSPECIFIED'), ('UNSPECIFIED'), ('UNSPECIFIED') ) ;
#277 = AXIS2_PLACEMENT_3D ( 'NONE', #199, #332, #142 ) ;
#278 = DIRECTION ( 'NONE',  ( -1.000000000000000000, -3.061616997868390537E-16, -0.000000000000000000 ) ) ;
#279 = DIRECTION ( 'NONE',  ( 1.000000000000000000, 3.061616997868382648E-16, -0.000000000000000000 ) ) ;
#280 = ADVANCED_FACE ( 'NONE', ( #13 ), #67, .T. ) ;
#281 = DIRECTION ( 'NONE',  ( -1.000000000000000000, -3.061616997868382648E-16, 0.000000000000000000 ) ) ;
#282 = CIRCLE ( 'NONE', #35, 11.48999999999995758 ) ;
#283 = DIRECTION ( 'NONE',  ( 1.000000000000000000, 3.061616997868382648E-16, 0.000000000000000000 ) ) ;
#284 = FACE_BOUND ( 'NONE', #108, .T. ) ;
#285 = EDGE_CURVE ( 'NONE', #321, #190, #287, .T. ) ;
#286 = CC_DESIGN_SECURITY_CLASSIFICATION ( #64, ( #185 ) ) ;
#287 = LINE ( 'NONE', #312, #293 ) ;
#288 = PERSON_AND_ORGANIZATION ( #276, #304 ) ;
#289 = EDGE_CURVE ( 'NONE', #56, #297, #101, .T. ) ;
#290 = ORIENTED_EDGE ( 'NONE', *, *, #78, .F. ) ;
#291 = SHAPE_DEFINITION_REPRESENTATION ( #237, #330 ) ;
#292 = ORIENTED_EDGE ( 'NONE', *, *, #8, .F. ) ;
#293 = VECTOR ( 'NONE', #261, 1000.000000000000000 ) ;
#294 = FACE_OUTER_BOUND ( 'NONE', #47, .T. ) ;
#295 = EDGE_CURVE ( 'NONE', #326, #2, #305, .T. ) ;
#296 = APPROVAL_STATUS ( 'not_yet_approved' ) ;
#297 = VERTEX_POINT ( 'NONE', #150 ) ;
#298 = ORIENTED_EDGE ( 'NONE', *, *, #201, .T. ) ;
#299 = VECTOR ( 'NONE', #259, 1000.000000000000000 ) ;
#300 = CARTESIAN_POINT ( 'NONE',  ( -27.50000000000004263, -9.184850993605162933E-15, 0.000000000000000000 ) ) ;
#301 = CC_DESIGN_DATE_AND_TIME_ASSIGNMENT ( #74, #82, ( #104 ) ) ;
#302 = DIRECTION ( 'NONE',  ( 2.777779785391204392E-16, -1.000000000000000000, 0.000000000000000000 ) ) ;
#303 = DIRECTION ( 'NONE',  ( -4.309871990004489305E-16, 1.000000000000000000, 0.000000000000000000 ) ) ;
#304 = ORGANIZATION ( 'UNSPECIFIED', 'UNSPECIFIED', '' ) ;
#305 = CIRCLE ( 'NONE', #198, 11.48999999999995758 ) ;
#306 = LINE ( 'NONE', #87, #164 ) ;
#307 = EDGE_CURVE ( 'NONE', #134, #158, #335, .T. ) ;
#308 = CARTESIAN_POINT ( 'NONE',  ( -27.50000000000004619, 12.48999999999999133, 0.000000000000000000 ) ) ;
#309 = CYLINDRICAL_SURFACE ( 'NONE', #154, 8.050000000000000711 ) ;
#310 = CONICAL_SURFACE ( 'NONE', #144, 12.49000000000000021, 0.7853981633974528309 ) ;
#311 = CC_DESIGN_APPROVAL ( #242, ( #185 ) ) ;
#312 = CARTESIAN_POINT ( 'NONE',  ( -28.50000000000000355, 8.049999999999993605, 0.000000000000000000 ) ) ;
#313 = DIRECTION ( 'NONE',  ( -0.7071067811865441310, -0.7071067811865507924, 0.000000000000000000 ) ) ;
#314 = CARTESIAN_POINT ( 'NONE',  ( -28.50000000000000000, -9.491012693391988181E-15, 0.000000000000000000 ) ) ;
#315 = LINE ( 'NONE', #340, #232 ) ;
#316 = AXIS2_PLACEMENT_3D ( 'NONE', #146, #200, #91 ) ;
#317 = ADVANCED_FACE ( 'NONE', ( #174, #284 ), #258, .T. ) ;
#318 = PERSON_AND_ORGANIZATION ( #276, #304 ) ;
#319 = ORIENTED_EDGE ( 'NONE', *, *, #120, .F. ) ;
#320 = PRODUCT ( '3927-30-25_REV_', '3927-30-25_REV_', '', ( #46 ) ) ;
#321 = VERTEX_POINT ( 'NONE', #70 ) ;
#322 = ORIENTED_EDGE ( 'NONE', *, *, #57, .T. ) ;
#323 = CALENDAR_DATE ( 2026, 23, 2 ) ;
#324 = EDGE_LOOP ( 'NONE', ( #347, #85 ) ) ;
#325 = DESIGN_CONTEXT ( 'detailed design', #191, 'design' ) ;
#326 = VERTEX_POINT ( 'NONE', #263 ) ;
#327 = DIRECTION ( 'NONE',  ( 2.777779785391204392E-16, -1.000000000000000000, 0.000000000000000000 ) ) ;
#328 = AXIS2_PLACEMENT_3D ( 'NONE', #300, #115, #302 ) ;
#329 = DIRECTION ( 'NONE',  ( 2.777779785391204392E-16, -1.000000000000000000, 0.000000000000000000 ) ) ;
#330 = ADVANCED_BREP_SHAPE_REPRESENTATION ( '3927-30-25_REV_', ( #48, #40 ), #333 ) ;
#331 = DIRECTION ( 'NONE',  ( 3.019536076547978274E-16, -1.000000000000000000, 0.000000000000000000 ) ) ;
#332 = DIRECTION ( 'NONE',  ( 1.000000000000000000, 3.061616997868382648E-16, 0.000000000000000000 ) ) ;
#333 =( GEOMETRIC_REPRESENTATION_CONTEXT ( 3 ) GLOBAL_UNCERTAINTY_ASSIGNED_CONTEXT ( ( #112 ) ) GLOBAL_UNIT_ASSIGNED_CONTEXT ( ( #126, #122, #18 ) ) REPRESENTATION_CONTEXT ( 'NONE', 'WORKASPACE' ) );
#334 = CARTESIAN_POINT ( 'NONE',  ( -27.50000000000004263, -9.184850993605162933E-15, 0.000000000000000000 ) ) ;
#335 = LINE ( 'NONE', #178, #194 ) ;
#336 = EDGE_CURVE ( 'NONE', #297, #134, #127, .T. ) ;
#337 = CIRCLE ( 'NONE', #277, 8.050000000000000711 ) ;
#338 = CC_DESIGN_APPROVAL ( #161, ( #64 ) ) ;
#339 = DIRECTION ( 'NONE',  ( 1.000000000000000000, 3.061616997868382648E-16, -0.000000000000000000 ) ) ;
#340 = CARTESIAN_POINT ( 'NONE',  ( -28.49999999999999645, -12.49000000000000732, 1.529583852135043752E-15 ) ) ;
#341 = PERSON_AND_ORGANIZATION ( #276, #304 ) ;
#342 = VECTOR ( 'NONE', #256, 1000.000000000000114 ) ;
#343 = ORIENTED_EDGE ( 'NONE', *, *, #295, .T. ) ;
#344 = PERSON_AND_ORGANIZATION ( #276, #304 ) ;
#345 = ORIENTED_EDGE ( 'NONE', *, *, #247, .T. ) ;
#346 = CARTESIAN_POINT ( 'NONE',  ( 0.000000000000000000, 0.000000000000000000, 0.000000000000000000 ) ) ;
#347 = ORIENTED_EDGE ( 'NONE', *, *, #233, .T. ) ;
#348 = PERSON_AND_ORGANIZATION ( #276, #304 ) ;
#349 = DIRECTION ( 'NONE',  ( -4.309871990004489305E-16, 1.000000000000000000, 0.000000000000000000 ) ) ;
ENDSEC;
END-ISO-10303-21;
