ISO-10303-21;
HEADER;
FILE_DESCRIPTION (( 'STEP AP203' ),
    '1' );
FILE_NAME ('3927-40-15_REV_.step',
    '2026-02-22T20:37:15',
    ( '' ),
    ( '' ),
    'SwSTEP 2.0',
    'SolidWorks 2025',
    '' );
FILE_SCHEMA (( 'CONFIG_CONTROL_DESIGN' ));
ENDSEC;

DATA;
#1 = DIRECTION ( 'NONE',  ( 1.000000000000000000, -8.881784197001211894E-16, 0.000000000000000000 ) ) ;
#2 = CIRCLE ( 'NONE', #345, 3.000000000000016431 ) ;
#3 = EDGE_CURVE ( 'NONE', #115, #301, #197, .T. ) ;
#4 = CARTESIAN_POINT ( 'NONE',  ( 0.000000000000000000, 0.000000000000000000, 0.000000000000000000 ) ) ;
#5 = ORIENTED_EDGE ( 'NONE', *, *, #253, .T. ) ;
#6 = CARTESIAN_POINT ( 'NONE',  ( 0.000000000000000000, -3.469446951953614189E-15, -4.999999999999997335 ) ) ;
#7 = DIRECTION ( 'NONE',  ( 3.451266460341922270E-31, 2.588449845256441483E-31, 1.000000000000000000 ) ) ;
#8 = VECTOR ( 'NONE', #288, 1000.000000000000000 ) ;
#9 = CC_DESIGN_APPROVAL ( #21, ( #138 ) ) ;
#10 = DIRECTION ( 'NONE',  ( 0.2857142857142848102, -0.9583148474999101385, -2.711709361697223264E-31 ) ) ;
#11 = ORIENTED_EDGE ( 'NONE', *, *, #356, .T. ) ;
#12 = DIRECTION ( 'NONE',  ( 3.451266460341922270E-31, 2.588449845256441483E-31, 1.000000000000000000 ) ) ;
#13 = ORIENTED_EDGE ( 'NONE', *, *, #185, .T. ) ;
#14 = VERTEX_POINT ( 'NONE', #255 ) ;
#15 = AXIS2_PLACEMENT_3D ( 'NONE', #4, #199, #167 ) ;
#16 = ORIENTED_EDGE ( 'NONE', *, *, #34, .F. ) ;
#17 = DIRECTION ( 'NONE',  ( 0.000000000000000000, 0.000000000000000000, 1.000000000000000000 ) ) ;
#18 = ORIENTED_EDGE ( 'NONE', *, *, #368, .T. ) ;
#19 = PERSON_AND_ORGANIZATION ( #153, #104 ) ;
#20 = DIRECTION ( 'NONE',  ( 1.000000000000000000, -8.881784197001216825E-16, 3.081487911019565104E-31 ) ) ;
#21 = APPROVAL ( #382, 'UNSPECIFIED' ) ;
#22 = CARTESIAN_POINT ( 'NONE',  ( 0.000000000000000000, 0.000000000000000000, 0.000000000000000000 ) ) ;
#23 = SHAPE_DEFINITION_REPRESENTATION ( #228, #316 ) ;
#24 = FACE_OUTER_BOUND ( 'NONE', #408, .T. ) ;
#25 = APPLICATION_CONTEXT ( 'configuration controlled 3d designs of mechanical parts and assemblies' ) ;
#26 = CARTESIAN_POINT ( 'NONE',  ( 35.00000000000007105, -4.857225732735059864E-14, -4.999999999999976907 ) ) ;
#27 = AXIS2_PLACEMENT_3D ( 'NONE', #22, #262, #20 ) ;
#28 = PERSON_AND_ORGANIZATION_ROLE ( 'design_supplier' ) ;
#29 = LOCAL_TIME ( 7, 37, 15.00000000000000000, #407 ) ;
#30 = CARTESIAN_POINT ( 'NONE',  ( 5.000000000000101252, 16.77050983124843953, -5.000000000000004441 ) ) ;
#31 = CARTESIAN_POINT ( 'NONE',  ( 35.00000000000007105, -4.857225732735059864E-14, -4.999999999999976907 ) ) ;
#32 = ADVANCED_FACE ( 'NONE', ( #358 ), #157, .T. ) ;
#33 = CARTESIAN_POINT ( 'NONE',  ( 8.000000000000031974, -7.105427357601001859E-15, 2.465190328815661892E-30 ) ) ;
#34 = EDGE_CURVE ( 'NONE', #424, #143, #184, .T. ) ;
#35 = ORIENTED_EDGE ( 'NONE', *, *, #187, .T. ) ;
#36 = CIRCLE ( 'NONE', #15, 8.000000000000031974 ) ;
#37 = FACE_OUTER_BOUND ( 'NONE', #175, .T. ) ;
#38 = DIRECTION ( 'NONE',  ( 0.9583148474999101385, 0.2857142857142847547, 3.748822636749744078E-31 ) ) ;
#39 = EDGE_LOOP ( 'NONE', ( #140, #54, #41, #180 ) ) ;
#40 = DIRECTION ( 'NONE',  ( 3.451266460341922270E-31, 2.588449845256441483E-31, 1.000000000000000000 ) ) ;
#41 = ORIENTED_EDGE ( 'NONE', *, *, #70, .T. ) ;
#42 = CARTESIAN_POINT ( 'NONE',  ( 37.14285714285729512, 7.187361356249234667, -4.999999999999928058 ) ) ;
#43 = AXIS2_PLACEMENT_3D ( 'NONE', #67, #324, #329 ) ;
#44 = ORIENTED_EDGE ( 'NONE', *, *, #323, .F. ) ;
#45 = APPROVAL_PERSON_ORGANIZATION ( #151, #230, #404 ) ;
#46 = APPLICATION_PROTOCOL_DEFINITION ( 'international standard', 'config_control_design', 1994, #421 ) ;
#47 = ORIENTED_EDGE ( 'NONE', *, *, #350, .T. ) ;
#48 = CARTESIAN_POINT ( 'NONE',  ( 35.00000000000007105, -4.857225732735059864E-14, -4.999999999999976907 ) ) ;
#49 = EDGE_CURVE ( 'NONE', #203, #374, #386, .T. ) ;
#50 = ORIENTED_EDGE ( 'NONE', *, *, #266, .T. ) ;
#51 = CARTESIAN_POINT ( 'NONE',  ( 42.50000000000007105, -5.523359547510150002E-14, 2.775557561562884725E-14 ) ) ;
#52 = ORIENTED_EDGE ( 'NONE', *, *, #381, .F. ) ;
#53 = CC_DESIGN_PERSON_AND_ORGANIZATION_ASSIGNMENT ( #259, #28, ( #205 ) ) ;
#54 = ORIENTED_EDGE ( 'NONE', *, *, #145, .F. ) ;
#55 = EDGE_CURVE ( 'NONE', #212, #147, #272, .T. ) ;
#56 = CALENDAR_DATE ( 2026, 23, 2 ) ;
#57 = ORIENTED_EDGE ( 'NONE', *, *, #323, .T. ) ;
#58 = COORDINATED_UNIVERSAL_TIME_OFFSET ( 10, 0, .AHEAD. ) ;
#59 = DIRECTION ( 'NONE',  ( -0.9583148474999098054, 0.2857142857142860315, -3.389636702121520213E-31 ) ) ;
#60 = CLOSED_SHELL ( 'NONE', ( #209, #369, #142, #200, #32, #261, #411, #124, #80, #127, #68 ) ) ;
#61 = FACE_BOUND ( 'NONE', #281, .T. ) ;
#62 = DATE_AND_TIME ( #56, #179 ) ;
#63 = FACE_OUTER_BOUND ( 'NONE', #150, .T. ) ;
#64 = COORDINATED_UNIVERSAL_TIME_OFFSET ( 10, 0, .AHEAD. ) ;
#65 = DIRECTION ( 'NONE',  ( 3.451266460341922270E-31, 2.588449845256441483E-31, 1.000000000000000000 ) ) ;
#66 = CC_DESIGN_SECURITY_CLASSIFICATION ( #138, ( #205 ) ) ;
#67 = CARTESIAN_POINT ( 'NONE',  ( 35.00000000000007105, -4.510281037539698445E-14, 2.775557561562891351E-14 ) ) ;
#68 = ADVANCED_FACE ( 'NONE', ( #24 ), #95, .F. ) ;
#69 = DIRECTION ( 'NONE',  ( 3.451266460341922270E-31, 2.588449845256441483E-31, 1.000000000000000000 ) ) ;
#70 = EDGE_CURVE ( 'NONE', #400, #339, #125, .T. ) ;
#71 = CARTESIAN_POINT ( 'NONE',  ( 37.14285714285729512, 7.187361356249231115, 7.632783294297951215E-14 ) ) ;
#72 = AXIS2_PLACEMENT_3D ( 'NONE', #128, #387, #196 ) ;
#73 = DIRECTION ( 'NONE',  ( 3.451266460341922270E-31, 2.588449845256441483E-31, 1.000000000000000000 ) ) ;
#74 = AXIS2_PLACEMENT_3D ( 'NONE', #309, #10, #85 ) ;
#75 = ORIENTED_EDGE ( 'NONE', *, *, #393, .F. ) ;
#76 = CARTESIAN_POINT ( 'NONE',  ( 35.00000000000007105, -4.510281037539698445E-14, 2.775557561562891351E-14 ) ) ;
#77 = LINE ( 'NONE', #213, #219 ) ;
#78 = AXIS2_PLACEMENT_3D ( 'NONE', #231, #297, #360 ) ;
#79 = ORIENTED_EDGE ( 'NONE', *, *, #49, .F. ) ;
#80 = ADVANCED_FACE ( 'NONE', ( #61, #419, #285 ), #192, .T. ) ;
#81 = DIRECTION ( 'NONE',  ( 3.451266460341922270E-31, 2.588449845256441483E-31, 1.000000000000000000 ) ) ;
#82 = VERTEX_POINT ( 'NONE', #410 ) ;
#83 = CARTESIAN_POINT ( 'NONE',  ( 37.14285714285735196, -7.187361356249414968, 2.775557561562891351E-14 ) ) ;
#84 = ORIENTED_EDGE ( 'NONE', *, *, #185, .F. ) ;
#85 = DIRECTION ( 'NONE',  ( 0.9583148474999101385, 0.2857142857142848102, 2.762746505223481949E-31 ) ) ;
#86 = ORIENTED_EDGE ( 'NONE', *, *, #303, .F. ) ;
#87 = AXIS2_PLACEMENT_3D ( 'NONE', #26, #164, #380 ) ;
#88 = CC_DESIGN_APPROVAL ( #230, ( #182 ) ) ;
#89 = APPROVAL_DATE_TIME ( #161, #234 ) ;
#90 = ORIENTED_EDGE ( 'NONE', *, *, #305, .T. ) ;
#91 = APPROVAL_ROLE ( '' ) ;
#92 = DIRECTION ( 'NONE',  ( 1.000000000000000000, -8.881784197001215839E-16, 0.000000000000000000 ) ) ;
#93 = CARTESIAN_POINT ( 'NONE',  ( 35.00000000000007105, -4.857225732735059864E-14, -4.999999999999976907 ) ) ;
#94 = AXIS2_PLACEMENT_3D ( 'NONE', #267, #73, #298 ) ;
#95 = CYLINDRICAL_SURFACE ( 'NONE', #218, 3.000000000000016431 ) ;
#96 = CC_DESIGN_PERSON_AND_ORGANIZATION_ASSIGNMENT ( #351, #313, ( #138 ) ) ;
#97 = DIRECTION ( 'NONE',  ( 1.000000000000000000, -8.881784197001216825E-16, 0.000000000000000000 ) ) ;
#98 = LINE ( 'NONE', #226, #8 ) ;
#99 = CIRCLE ( 'NONE', #94, 7.500000000000027534 ) ;
#100 = LINE ( 'NONE', #107, #126 ) ;
#101 = CARTESIAN_POINT ( 'NONE',  ( 37.14285714285735196, -7.187361356249418520, -4.999999999999976907 ) ) ;
#102 = DIRECTION ( 'NONE',  ( 3.451266460341922270E-31, 2.588449845256441483E-31, 1.000000000000000000 ) ) ;
#103 = VECTOR ( 'NONE', #353, 1000.000000000000000 ) ;
#104 = ORGANIZATION ( 'UNSPECIFIED', 'UNSPECIFIED', '' ) ;
#105 = CARTESIAN_POINT ( 'NONE',  ( -8.000000000000031974, 4.615697844965275955E-15, -4.999999999999997335 ) ) ;
#106 = VERTEX_POINT ( 'NONE', #154 ) ;
#107 = CARTESIAN_POINT ( 'NONE',  ( 5.000000000000101252, 16.77050983124843953, -5.000000000000004441 ) ) ;
#108 =( NAMED_UNIT ( * ) SI_UNIT ( $, .STERADIAN. ) SOLID_ANGLE_UNIT ( ) );
#109 = EDGE_LOOP ( 'NONE', ( #276, #11 ) ) ;
#110 = EDGE_CURVE ( 'NONE', #168, #14, #121, .T. ) ;
#111 = CARTESIAN_POINT ( 'NONE',  ( 0.000000000000000000, -3.469446951953614189E-15, -4.999999999999997335 ) ) ;
#112 = AXIS2_PLACEMENT_3D ( 'NONE', #392, #7, #206 ) ;
#113 = ORIENTED_EDGE ( 'NONE', *, *, #266, .F. ) ;
#114 = PERSON_AND_ORGANIZATION ( #153, #104 ) ;
#115 = VERTEX_POINT ( 'NONE', #188 ) ;
#116 = CARTESIAN_POINT ( 'NONE',  ( 8.000000000000031974, -1.057487430955461605E-14, -4.999999999999997335 ) ) ;
#117 = ORIENTED_EDGE ( 'NONE', *, *, #3, .T. ) ;
#118 = CALENDAR_DATE ( 2026, 23, 2 ) ;
#119 = ORIENTED_EDGE ( 'NONE', *, *, #158, .F. ) ;
#120 = AXIS2_PLACEMENT_3D ( 'NONE', #314, #227, #315 ) ;
#121 = LINE ( 'NONE', #123, #416 ) ;
#122 = CC_DESIGN_PERSON_AND_ORGANIZATION_ASSIGNMENT ( #19, #286, ( #205 ) ) ;
#123 = CARTESIAN_POINT ( 'NONE',  ( 5.000000000000101252, 16.77050983124844308, 2.081668171172168513E-14 ) ) ;
#124 = ADVANCED_FACE ( 'NONE', ( #383, #256, #354 ), #388, .F. ) ;
#125 = LINE ( 'NONE', #349, #103 ) ;
#126 = VECTOR ( 'NONE', #390, 1000.000000000000114 ) ;
#127 = ADVANCED_FACE ( 'NONE', ( #159 ), #291, .F. ) ;
#128 = CARTESIAN_POINT ( 'NONE',  ( 35.00000000000007105, -4.857225732735059864E-14, -4.999999999999976907 ) ) ;
#129 = EDGE_CURVE ( 'NONE', #115, #406, #98, .T. ) ;
#130 = DIRECTION ( 'NONE',  ( 3.451266460341922270E-31, 2.588449845256441483E-31, 1.000000000000000000 ) ) ;
#131 = FACE_OUTER_BOUND ( 'NONE', #251, .T. ) ;
#132 = ORIENTED_EDGE ( 'NONE', *, *, #110, .T. ) ;
#133 = DIRECTION ( 'NONE',  ( 1.000000000000000000, -8.881784197001211894E-16, 0.000000000000000000 ) ) ;
#134 = ORIENTED_EDGE ( 'NONE', *, *, #55, .T. ) ;
#135 = DIRECTION ( 'NONE',  ( 3.451266460341922270E-31, 2.588449845256441483E-31, 1.000000000000000000 ) ) ;
#136 = DIRECTION ( 'NONE',  ( 3.451266460341922270E-31, 2.588449845256441483E-31, 1.000000000000000000 ) ) ;
#137 = AXIS2_PLACEMENT_3D ( 'NONE', #318, #355, #97 ) ;
#138 = SECURITY_CLASSIFICATION ( '', '', #186 ) ;
#139 = DIRECTION ( 'NONE',  ( 1.000000000000000000, -8.881784197001215839E-16, 0.000000000000000000 ) ) ;
#140 = ORIENTED_EDGE ( 'NONE', *, *, #337, .F. ) ;
#141 = CARTESIAN_POINT ( 'NONE',  ( 38.00000000000009237, -5.123679258645097434E-14, -4.999999999999976907 ) ) ;
#142 = ADVANCED_FACE ( 'NONE', ( #63 ), #194, .T. ) ;
#143 = VERTEX_POINT ( 'NONE', #260 ) ;
#144 = ORIENTED_EDGE ( 'NONE', *, *, #187, .F. ) ;
#145 = EDGE_CURVE ( 'NONE', #400, #310, #357, .T. ) ;
#146 =( LENGTH_UNIT ( ) NAMED_UNIT ( * ) SI_UNIT ( .MILLI., .METRE. ) );
#147 = VERTEX_POINT ( 'NONE', #422 ) ;
#148 = LOCAL_TIME ( 7, 37, 15.00000000000000000, #64 ) ;
#149 = DIRECTION ( 'NONE',  ( 1.000000000000000000, -8.881784197001211894E-16, 0.000000000000000000 ) ) ;
#150 = EDGE_LOOP ( 'NONE', ( #176, #307, #113, #346 ) ) ;
#151 = PERSON_AND_ORGANIZATION ( #153, #104 ) ;
#152 = ORIENTED_EDGE ( 'NONE', *, *, #158, .T. ) ;
#153 = PERSON ( 'UNSPECIFIED', 'UNSPECIFIED', 'UNSPECIFIED', ('UNSPECIFIED'), ('UNSPECIFIED'), ('UNSPECIFIED') ) ;
#154 = CARTESIAN_POINT ( 'NONE',  ( -8.000000000000000000, 4.615697844965258600E-15, 2.761013168273537115E-30 ) ) ;
#155 = AXIS2_PLACEMENT_3D ( 'NONE', #423, #135, #133 ) ;
#156 = CALENDAR_DATE ( 2026, 23, 2 ) ;
#157 = PLANE ( 'NONE',  #396 ) ;
#158 = EDGE_CURVE ( 'NONE', #106, #339, #36, .T. ) ;
#159 = FACE_OUTER_BOUND ( 'NONE', #39, .T. ) ;
#160 = PRODUCT ( '3927-40-15_REV_', '3927-40-15_REV_', '', ( #217 ) ) ;
#161 = DATE_AND_TIME ( #193, #148 ) ;
#162 = DIRECTION ( 'NONE',  ( -0.9583148474999096944, 0.2857142857142860870, -3.389636702121520650E-31 ) ) ;
#163 = PERSON_AND_ORGANIZATION_ROLE ( 'creator' ) ;
#164 = DIRECTION ( 'NONE',  ( 3.451266460341922270E-31, 2.588449845256441483E-31, 1.000000000000000000 ) ) ;
#165 = DIRECTION ( 'NONE',  ( 1.000000000000000000, -8.881784197001211894E-16, 0.000000000000000000 ) ) ;
#166 = LINE ( 'NONE', #295, #359 ) ;
#167 = DIRECTION ( 'NONE',  ( 1.000000000000000000, -8.881784197001216825E-16, 3.081487911019565104E-31 ) ) ;
#168 = VERTEX_POINT ( 'NONE', #71 ) ;
#169 = CARTESIAN_POINT ( 'NONE',  ( 5.000000000000101252, 16.77050983124843953, -5.000000000000004441 ) ) ;
#170 = ORIENTED_EDGE ( 'NONE', *, *, #412, .F. ) ;
#171 = DIRECTION ( 'NONE',  ( 1.000000000000000000, -8.881784197001219783E-16, 0.000000000000000000 ) ) ;
#172 = LINE ( 'NONE', #42, #378 ) ;
#173 = ORIENTED_EDGE ( 'NONE', *, *, #335, .T. ) ;
#174 = DATE_AND_TIME ( #118, #29 ) ;
#175 = EDGE_LOOP ( 'NONE', ( #401, #181, #35, #16 ) ) ;
#176 = ORIENTED_EDGE ( 'NONE', *, *, #412, .T. ) ;
#177 = DIRECTION ( 'NONE',  ( 1.000000000000000000, -8.881784197001216825E-16, 0.000000000000000000 ) ) ;
#178 = AXIS2_PLACEMENT_3D ( 'NONE', #239, #363, #235 ) ;
#179 = LOCAL_TIME ( 7, 37, 15.00000000000000000, #58 ) ;
#180 = ORIENTED_EDGE ( 'NONE', *, *, #264, .T. ) ;
#181 = ORIENTED_EDGE ( 'NONE', *, *, #381, .T. ) ;
#182 = PRODUCT_DEFINITION ( 'UNKNOWN', '', #205, #375 ) ;
#183 = APPROVAL_STATUS ( 'not_yet_approved' ) ;
#184 = LINE ( 'NONE', #287, #385 ) ;
#185 = EDGE_CURVE ( 'NONE', #14, #203, #204, .T. ) ;
#186 = SECURITY_CLASSIFICATION_LEVEL ( 'unclassified' ) ;
#187 = EDGE_CURVE ( 'NONE', #344, #143, #352, .T. ) ;
#188 = CARTESIAN_POINT ( 'NONE',  ( 42.50000000000007105, -5.523359547510151264E-14, -4.999999999999976907 ) ) ;
#189 = AXIS2_PLACEMENT_3D ( 'NONE', #31, #274, #165 ) ;
#190 = VECTOR ( 'NONE', #12, 1000.000000000000000 ) ;
#191 = CC_DESIGN_PERSON_AND_ORGANIZATION_ASSIGNMENT ( #114, #163, ( #182 ) ) ;
#192 = PLANE ( 'NONE',  #27 ) ;
#193 = CALENDAR_DATE ( 2026, 23, 2 ) ;
#194 = CYLINDRICAL_SURFACE ( 'NONE', #72, 7.500000000000027534 ) ;
#195 = COORDINATED_UNIVERSAL_TIME_OFFSET ( 10, 0, .AHEAD. ) ;
#196 = DIRECTION ( 'NONE',  ( 1.000000000000000000, -8.881784197001219783E-16, 0.000000000000000000 ) ) ;
#197 = CIRCLE ( 'NONE', #87, 7.500000000000027534 ) ;
#198 = LOCAL_TIME ( 7, 37, 15.00000000000000000, #292 ) ;
#199 = DIRECTION ( 'NONE',  ( 3.451266460341922270E-31, 2.588449845256441483E-31, 1.000000000000000000 ) ) ;
#200 = ADVANCED_FACE ( 'NONE', ( #131 ), #294, .T. ) ;
#201 = CYLINDRICAL_SURFACE ( 'NONE', #189, 3.000000000000016431 ) ;
#202 = CARTESIAN_POINT ( 'NONE',  ( 35.00000000000007105, -4.857225732735059864E-14, -4.999999999999976907 ) ) ;
#203 = VERTEX_POINT ( 'NONE', #398 ) ;
#204 = CIRCLE ( 'NONE', #112, 17.50000000000007105 ) ;
#205 = PRODUCT_DEFINITION_FORMATION_WITH_SPECIFIED_SOURCE ( 'ANY', '', #160, .NOT_KNOWN. ) ;
#206 = DIRECTION ( 'NONE',  ( 1.000000000000000000, -8.881784197001215839E-16, 3.081487911019565104E-31 ) ) ;
#207 = EDGE_LOOP ( 'NONE', ( #311, #117, #18, #367 ) ) ;
#208 = FACE_OUTER_BOUND ( 'NONE', #207, .T. ) ;
#209 = ADVANCED_FACE ( 'NONE', ( #37 ), #201, .F. ) ;
#210 = FACE_OUTER_BOUND ( 'NONE', #278, .T. ) ;
#211 = APPLICATION_PROTOCOL_DEFINITION ( 'international standard', 'config_control_design', 1994, #25 ) ;
#212 = VERTEX_POINT ( 'NONE', #169 ) ;
#213 = CARTESIAN_POINT ( 'NONE',  ( 5.000000000000129674, -16.77050983124860650, -4.999999999999962697 ) ) ;
#214 = ORIENTED_EDGE ( 'NONE', *, *, #55, .F. ) ;
#215 = DIRECTION ( 'NONE',  ( 3.451266460341922270E-31, 2.588449845256441483E-31, 1.000000000000000000 ) ) ;
#216 = ORIENTED_EDGE ( 'NONE', *, *, #110, .F. ) ;
#217 = MECHANICAL_CONTEXT ( 'NONE', #25, 'mechanical' ) ;
#218 = AXIS2_PLACEMENT_3D ( 'NONE', #93, #229, #223 ) ;
#219 = VECTOR ( 'NONE', #215, 1000.000000000000000 ) ;
#220 = ORIENTED_EDGE ( 'NONE', *, *, #34, .T. ) ;
#221 = PERSON_AND_ORGANIZATION ( #153, #104 ) ;
#222 = ORIENTED_EDGE ( 'NONE', *, *, #337, .T. ) ;
#223 = DIRECTION ( 'NONE',  ( 1.000000000000000000, -8.881784197001211894E-16, 0.000000000000000000 ) ) ;
#224 = CARTESIAN_POINT ( 'NONE',  ( 5.000000000000004441, -16.77050983124852124, 3.469446951953614189E-14 ) ) ;
#225 = CIRCLE ( 'NONE', #178, 8.000000000000031974 ) ;
#226 = CARTESIAN_POINT ( 'NONE',  ( 42.50000000000009948, -5.523359547510153789E-14, -4.999999999999976907 ) ) ;
#227 = DIRECTION ( 'NONE',  ( -3.081487911019562914E-31, 2.588449845256447176E-31, 1.000000000000000000 ) ) ;
#228 = PRODUCT_DEFINITION_SHAPE ( 'NONE', 'NONE',  #182 ) ;
#229 = DIRECTION ( 'NONE',  ( 3.451266460341922270E-31, 2.588449845256441483E-31, 1.000000000000000000 ) ) ;
#230 = APPROVAL ( #283, 'UNSPECIFIED' ) ;
#231 = CARTESIAN_POINT ( 'NONE',  ( 35.00000000000007105, -4.510281037539698445E-14, 2.775557561562891351E-14 ) ) ;
#232 = EDGE_CURVE ( 'NONE', #147, #82, #331, .T. ) ;
#233 = CARTESIAN_POINT ( 'NONE',  ( 32.00000000000007105, -4.554032802850601750E-14, 2.775557561562891351E-14 ) ) ;
#234 = APPROVAL ( #183, 'UNSPECIFIED' ) ;
#235 = DIRECTION ( 'NONE',  ( 1.000000000000000000, -8.881784197001216825E-16, 3.081487911019565104E-31 ) ) ;
#236 = CIRCLE ( 'NONE', #43, 7.500000000000027534 ) ;
#237 = AXIS2_PLACEMENT_3D ( 'NONE', #48, #343, #240 ) ;
#238 = CARTESIAN_POINT ( 'NONE',  ( 0.000000000000000000, -3.469446951953614189E-15, -4.999999999999997335 ) ) ;
#239 = CARTESIAN_POINT ( 'NONE',  ( 0.000000000000000000, 0.000000000000000000, 0.000000000000000000 ) ) ;
#240 = DIRECTION ( 'NONE',  ( 1.000000000000000000, -8.881784197001219783E-16, 0.000000000000000000 ) ) ;
#241 = EDGE_LOOP ( 'NONE', ( #214, #246, #405, #170, #304 ) ) ;
#242 = AXIS2_PLACEMENT_3D ( 'NONE', #111, #371, #177 ) ;
#243 = PERSON_AND_ORGANIZATION ( #153, #104 ) ;
#244 = EDGE_LOOP ( 'NONE', ( #13, #372, #50, #90, #132 ) ) ;
#245 = APPROVAL_DATE_TIME ( #174, #230 ) ;
#246 = ORIENTED_EDGE ( 'NONE', *, *, #253, .F. ) ;
#247 = DIRECTION ( 'NONE',  ( 1.000000000000000000, 0.000000000000000000, 0.000000000000000000 ) ) ;
#248 = ORIENTED_EDGE ( 'NONE', *, *, #264, .F. ) ;
#249 = APPROVAL_DATE_TIME ( #289, #21 ) ;
#250 = CIRCLE ( 'NONE', #237, 7.500000000000027534 ) ;
#251 = EDGE_LOOP ( 'NONE', ( #84, #377, #134, #379 ) ) ;
#252 = DIRECTION ( 'NONE',  ( 0.2857142857142861425, 0.9583148474999098054, 3.204747427460355643E-31 ) ) ;
#253 = EDGE_CURVE ( 'NONE', #301, #212, #100, .T. ) ;
#254 = APPROVAL_ROLE ( '' ) ;
#255 = CARTESIAN_POINT ( 'NONE',  ( 5.000000000000101252, 16.77050983124844308, 2.081668171172168513E-14 ) ) ;
#256 = FACE_BOUND ( 'NONE', #332, .T. ) ;
#257 = AXIS2_PLACEMENT_3D ( 'NONE', #76, #69, #1 ) ;
#258 = AXIS2_PLACEMENT_3D ( 'NONE', #6, #366, #394 ) ;
#259 = PERSON_AND_ORGANIZATION ( #153, #104 ) ;
#260 = CARTESIAN_POINT ( 'NONE',  ( 38.00000000000009237, -4.776734563449736015E-14, 2.775557561562891351E-14 ) ) ;
#261 = ADVANCED_FACE ( 'NONE', ( #208 ), #263, .T. ) ;
#262 = DIRECTION ( 'NONE',  ( -3.081487911019562914E-31, 2.588449845256447176E-31, 1.000000000000000000 ) ) ;
#263 = CYLINDRICAL_SURFACE ( 'NONE', #364, 7.500000000000027534 ) ;
#264 = EDGE_CURVE ( 'NONE', #339, #106, #225, .T. ) ;
#265 = VECTOR ( 'NONE', #414, 1000.000000000000114 ) ;
#266 = EDGE_CURVE ( 'NONE', #374, #406, #236, .T. ) ;
#267 = CARTESIAN_POINT ( 'NONE',  ( 35.00000000000007105, -4.510281037539698445E-14, 2.775557561562891351E-14 ) ) ;
#268 = ORIENTED_EDGE ( 'NONE', *, *, #70, .F. ) ;
#269 = CARTESIAN_POINT ( 'NONE',  ( -8.000000000000000000, 4.615697844965246767E-15, -4.999999999999997335 ) ) ;
#270 = EDGE_LOOP ( 'NONE', ( #248, #119 ) ) ;
#271 = DIRECTION ( 'NONE',  ( 3.451266460341922270E-31, 2.588449845256441483E-31, 1.000000000000000000 ) ) ;
#272 = CIRCLE ( 'NONE', #320, 17.50000000000007105 ) ;
#273 = VECTOR ( 'NONE', #327, 1000.000000000000000 ) ;
#274 = DIRECTION ( 'NONE',  ( 3.451266460341922270E-31, 2.588449845256441483E-31, 1.000000000000000000 ) ) ;
#275 = CARTESIAN_POINT ( 'NONE',  ( 32.00000000000005684, -4.554032802850601750E-14, -4.999999999999976907 ) ) ;
#276 = ORIENTED_EDGE ( 'NONE', *, *, #279, .T. ) ;
#277 = CARTESIAN_POINT ( 'NONE',  ( 0.000000000000000000, 0.000000000000000000, 0.000000000000000000 ) ) ;
#278 = EDGE_LOOP ( 'NONE', ( #79, #75, #342, #173 ) ) ;
#279 = EDGE_CURVE ( 'NONE', #424, #370, #290, .T. ) ;
#280 = LOCAL_TIME ( 7, 37, 15.00000000000000000, #195 ) ;
#281 = EDGE_LOOP ( 'NONE', ( #86, #144 ) ) ;
#282 = EDGE_LOOP ( 'NONE', ( #44, #222, #152, #268 ) ) ;
#283 = APPROVAL_STATUS ( 'not_yet_approved' ) ;
#284 = ORIENTED_EDGE ( 'NONE', *, *, #303, .T. ) ;
#285 = FACE_OUTER_BOUND ( 'NONE', #244, .T. ) ;
#286 = PERSON_AND_ORGANIZATION_ROLE ( 'creator' ) ;
#287 = CARTESIAN_POINT ( 'NONE',  ( 38.00000000000009237, -5.123679258645097434E-14, -4.999999999999976907 ) ) ;
#288 = DIRECTION ( 'NONE',  ( 3.451266460341922270E-31, 2.588449845256441483E-31, 1.000000000000000000 ) ) ;
#289 = DATE_AND_TIME ( #420, #198 ) ;
#290 = CIRCLE ( 'NONE', #155, 3.000000000000016431 ) ;
#291 = CYLINDRICAL_SURFACE ( 'NONE', #137, 8.000000000000031974 ) ;
#292 = COORDINATED_UNIVERSAL_TIME_OFFSET ( 10, 0, .AHEAD. ) ;
#293 = CARTESIAN_POINT ( 'NONE',  ( 0.000000000000000000, -3.469446951953614189E-15, -4.999999999999997335 ) ) ;
#294 = CYLINDRICAL_SURFACE ( 'NONE', #402, 17.50000000000007105 ) ;
#295 = CARTESIAN_POINT ( 'NONE',  ( 5.000000000000101252, 16.77050983124843953, -5.000000000000004441 ) ) ;
#296 = CARTESIAN_POINT ( 'NONE',  ( 37.14285714285729512, 7.187361356249234667, -4.999999999999928058 ) ) ;
#297 = DIRECTION ( 'NONE',  ( 3.451266460341922270E-31, 2.588449845256441483E-31, 1.000000000000000000 ) ) ;
#298 = DIRECTION ( 'NONE',  ( 1.000000000000000000, -8.881784197001219783E-16, 0.000000000000000000 ) ) ;
#299 = CC_DESIGN_DATE_AND_TIME_ASSIGNMENT ( #413, #319, ( #138 ) ) ;
#300 = PLANE ( 'NONE',  #74 ) ;
#301 = VERTEX_POINT ( 'NONE', #296 ) ;
#302 = CYLINDRICAL_SURFACE ( 'NONE', #242, 8.000000000000031974 ) ;
#303 = EDGE_CURVE ( 'NONE', #143, #344, #389, .T. ) ;
#304 = ORIENTED_EDGE ( 'NONE', *, *, #232, .F. ) ;
#305 = EDGE_CURVE ( 'NONE', #406, #168, #99, .T. ) ;
#306 = PERSON_AND_ORGANIZATION_ROLE ( 'design_owner' ) ;
#307 = ORIENTED_EDGE ( 'NONE', *, *, #129, .T. ) ;
#308 = VECTOR ( 'NONE', #38, 1000.000000000000114 ) ;
#309 = CARTESIAN_POINT ( 'NONE',  ( 5.000000000000129674, -16.77050983124860650, -4.999999999999962697 ) ) ;
#310 = VERTEX_POINT ( 'NONE', #269 ) ;
#311 = ORIENTED_EDGE ( 'NONE', *, *, #129, .F. ) ;
#312 = DIRECTION ( 'NONE',  ( 3.451266460341922270E-31, 2.588449845256441483E-31, 1.000000000000000000 ) ) ;
#313 = PERSON_AND_ORGANIZATION_ROLE ( 'classification_officer' ) ;
#314 = CARTESIAN_POINT ( 'NONE',  ( 0.000000000000000000, -3.469446951953614189E-15, -4.999999999999997335 ) ) ;
#315 = DIRECTION ( 'NONE',  ( 1.000000000000000000, -8.881784197001216825E-16, 3.081487911019565104E-31 ) ) ;
#316 = ADVANCED_BREP_SHAPE_REPRESENTATION ( '3927-40-15_REV_', ( #338, #403 ), #397 ) ;
#317 = UNCERTAINTY_MEASURE_WITH_UNIT (LENGTH_MEASURE( 1.000000000000000082E-05 ), #146, 'distance_accuracy_value', 'NONE');
#318 = CARTESIAN_POINT ( 'NONE',  ( 0.000000000000000000, -3.469446951953614189E-15, -4.999999999999997335 ) ) ;
#319 = DATE_TIME_ROLE ( 'classification_date' ) ;
#320 = AXIS2_PLACEMENT_3D ( 'NONE', #415, #130, #92 ) ;
#321 = DIRECTION ( 'NONE',  ( 1.000000000000000000, -8.881784197001216825E-16, 0.000000000000000000 ) ) ;
#322 = CC_DESIGN_APPROVAL ( #234, ( #205 ) ) ;
#323 = EDGE_CURVE ( 'NONE', #310, #400, #418, .T. ) ;
#324 = DIRECTION ( 'NONE',  ( 3.451266460341922270E-31, 2.588449845256441483E-31, 1.000000000000000000 ) ) ;
#325 = LINE ( 'NONE', #101, #391 ) ;
#326 = ORIENTED_EDGE ( 'NONE', *, *, #145, .T. ) ;
#327 = DIRECTION ( 'NONE',  ( 3.451266460341922270E-31, 2.588449845256441483E-31, 1.000000000000000000 ) ) ;
#328 = AXIS2_PLACEMENT_3D ( 'NONE', #293, #65, #321 ) ;
#329 = DIRECTION ( 'NONE',  ( 1.000000000000000000, -8.881784197001219783E-16, 0.000000000000000000 ) ) ;
#330 = EDGE_LOOP ( 'NONE', ( #216, #362, #5, #47 ) ) ;
#331 = LINE ( 'NONE', #361, #308 ) ;
#332 = EDGE_LOOP ( 'NONE', ( #326, #57 ) ) ;
#333 = CARTESIAN_POINT ( 'NONE',  ( 32.00000000000007105, -4.554032802850603012E-14, -4.999999999999976907 ) ) ;
#334 = APPROVAL_PERSON_ORGANIZATION ( #409, #21, #91 ) ;
#335 = EDGE_CURVE ( 'NONE', #82, #374, #325, .T. ) ;
#336 = FACE_OUTER_BOUND ( 'NONE', #282, .T. ) ;
#337 = EDGE_CURVE ( 'NONE', #310, #106, #395, .T. ) ;
#338 = MANIFOLD_SOLID_BREP ( 'Cut-Extrude1', #60 ) ;
#339 = VERTEX_POINT ( 'NONE', #33 ) ;
#340 = CC_DESIGN_PERSON_AND_ORGANIZATION_ASSIGNMENT ( #243, #306, ( #160 ) ) ;
#341 = DIRECTION ( 'NONE',  ( 3.451266460341922270E-31, 2.588449845256441483E-31, 1.000000000000000000 ) ) ;
#342 = ORIENTED_EDGE ( 'NONE', *, *, #232, .T. ) ;
#343 = DIRECTION ( 'NONE',  ( 3.451266460341922270E-31, 2.588449845256441483E-31, 1.000000000000000000 ) ) ;
#344 = VERTEX_POINT ( 'NONE', #233 ) ;
#345 = AXIS2_PLACEMENT_3D ( 'NONE', #373, #81, #149 ) ;
#346 = ORIENTED_EDGE ( 'NONE', *, *, #335, .F. ) ;
#347 = ORIENTED_EDGE ( 'NONE', *, *, #279, .F. ) ;
#348 = PRODUCT_RELATED_PRODUCT_CATEGORY ( 'detail', '', ( #160 ) ) ;
#349 = CARTESIAN_POINT ( 'NONE',  ( 8.000000000000031974, -1.057487430955461605E-14, -4.999999999999997335 ) ) ;
#350 = EDGE_CURVE ( 'NONE', #212, #14, #166, .T. ) ;
#351 = PERSON_AND_ORGANIZATION ( #153, #104 ) ;
#352 = CIRCLE ( 'NONE', #257, 3.000000000000016431 ) ;
#353 = DIRECTION ( 'NONE',  ( 3.451266460341922270E-31, 2.588449845256441483E-31, 1.000000000000000000 ) ) ;
#354 = FACE_OUTER_BOUND ( 'NONE', #241, .T. ) ;
#355 = DIRECTION ( 'NONE',  ( 3.451266460341922270E-31, 2.588449845256441483E-31, 1.000000000000000000 ) ) ;
#356 = EDGE_CURVE ( 'NONE', #370, #424, #2, .T. ) ;
#357 = CIRCLE ( 'NONE', #328, 8.000000000000031974 ) ;
#358 = FACE_OUTER_BOUND ( 'NONE', #330, .T. ) ;
#359 = VECTOR ( 'NONE', #102, 1000.000000000000000 ) ;
#360 = DIRECTION ( 'NONE',  ( 1.000000000000000000, -8.881784197001211894E-16, 0.000000000000000000 ) ) ;
#361 = CARTESIAN_POINT ( 'NONE',  ( 5.000000000000129674, -16.77050983124860650, -4.999999999999962697 ) ) ;
#362 = ORIENTED_EDGE ( 'NONE', *, *, #368, .F. ) ;
#363 = DIRECTION ( 'NONE',  ( 3.451266460341922270E-31, 2.588449845256441483E-31, 1.000000000000000000 ) ) ;
#364 = AXIS2_PLACEMENT_3D ( 'NONE', #202, #40, #171 ) ;
#365 = APPROVAL_PERSON_ORGANIZATION ( #221, #234, #254 ) ;
#366 = DIRECTION ( 'NONE',  ( 3.451266460341922270E-31, 2.588449845256441483E-31, 1.000000000000000000 ) ) ;
#367 = ORIENTED_EDGE ( 'NONE', *, *, #305, .F. ) ;
#368 = EDGE_CURVE ( 'NONE', #301, #168, #172, .T. ) ;
#369 = ADVANCED_FACE ( 'NONE', ( #336 ), #302, .F. ) ;
#370 = VERTEX_POINT ( 'NONE', #333 ) ;
#371 = DIRECTION ( 'NONE',  ( 3.451266460341922270E-31, 2.588449845256441483E-31, 1.000000000000000000 ) ) ;
#372 = ORIENTED_EDGE ( 'NONE', *, *, #49, .T. ) ;
#373 = CARTESIAN_POINT ( 'NONE',  ( 35.00000000000007105, -4.857225732735059864E-14, -4.999999999999976907 ) ) ;
#374 = VERTEX_POINT ( 'NONE', #83 ) ;
#375 = DESIGN_CONTEXT ( 'detailed design', #421, 'design' ) ;
#376 = LINE ( 'NONE', #275, #190 ) ;
#377 = ORIENTED_EDGE ( 'NONE', *, *, #350, .F. ) ;
#378 = VECTOR ( 'NONE', #341, 1000.000000000000000 ) ;
#379 = ORIENTED_EDGE ( 'NONE', *, *, #393, .T. ) ;
#380 = DIRECTION ( 'NONE',  ( 1.000000000000000000, -8.881784197001219783E-16, 0.000000000000000000 ) ) ;
#381 = EDGE_CURVE ( 'NONE', #370, #344, #376, .T. ) ;
#382 = APPROVAL_STATUS ( 'not_yet_approved' ) ;
#383 = FACE_BOUND ( 'NONE', #109, .T. ) ;
#384 = CC_DESIGN_DATE_AND_TIME_ASSIGNMENT ( #62, #417, ( #182 ) ) ;
#385 = VECTOR ( 'NONE', #312, 1000.000000000000000 ) ;
#386 = LINE ( 'NONE', #224, #265 ) ;
#387 = DIRECTION ( 'NONE',  ( 3.451266460341922270E-31, 2.588449845256441483E-31, 1.000000000000000000 ) ) ;
#388 = PLANE ( 'NONE',  #120 ) ;
#389 = CIRCLE ( 'NONE', #78, 3.000000000000016431 ) ;
#390 = DIRECTION ( 'NONE',  ( -0.9583148474999098054, 0.2857142857142860315, -3.389636702121520213E-31 ) ) ;
#391 = VECTOR ( 'NONE', #271, 1000.000000000000000 ) ;
#392 = CARTESIAN_POINT ( 'NONE',  ( 0.000000000000000000, 0.000000000000000000, 0.000000000000000000 ) ) ;
#393 = EDGE_CURVE ( 'NONE', #147, #203, #77, .T. ) ;
#394 = DIRECTION ( 'NONE',  ( 1.000000000000000000, -8.881784197001216825E-16, 0.000000000000000000 ) ) ;
#395 = LINE ( 'NONE', #105, #273 ) ;
#396 = AXIS2_PLACEMENT_3D ( 'NONE', #30, #252, #162 ) ;
#397 =( GEOMETRIC_REPRESENTATION_CONTEXT ( 3 ) GLOBAL_UNCERTAINTY_ASSIGNED_CONTEXT ( ( #317 ) ) GLOBAL_UNIT_ASSIGNED_CONTEXT ( ( #146, #399, #108 ) ) REPRESENTATION_CONTEXT ( 'NONE', 'WORKASPACE' ) );
#398 = CARTESIAN_POINT ( 'NONE',  ( 5.000000000000004441, -16.77050983124852124, 3.469446951953614189E-14 ) ) ;
#399 =( NAMED_UNIT ( * ) PLANE_ANGLE_UNIT ( ) SI_UNIT ( $, .RADIAN. ) );
#400 = VERTEX_POINT ( 'NONE', #116 ) ;
#401 = ORIENTED_EDGE ( 'NONE', *, *, #356, .F. ) ;
#402 = AXIS2_PLACEMENT_3D ( 'NONE', #238, #136, #139 ) ;
#403 = AXIS2_PLACEMENT_3D ( 'NONE', #277, #17, #247 ) ;
#404 = APPROVAL_ROLE ( '' ) ;
#405 = ORIENTED_EDGE ( 'NONE', *, *, #3, .F. ) ;
#406 = VERTEX_POINT ( 'NONE', #51 ) ;
#407 = COORDINATED_UNIVERSAL_TIME_OFFSET ( 10, 0, .AHEAD. ) ;
#408 = EDGE_LOOP ( 'NONE', ( #52, #347, #220, #284 ) ) ;
#409 = PERSON_AND_ORGANIZATION ( #153, #104 ) ;
#410 = CARTESIAN_POINT ( 'NONE',  ( 37.14285714285735196, -7.187361356249418520, -4.999999999999976907 ) ) ;
#411 = ADVANCED_FACE ( 'NONE', ( #210 ), #300, .T. ) ;
#412 = EDGE_CURVE ( 'NONE', #82, #115, #250, .T. ) ;
#413 = DATE_AND_TIME ( #156, #280 ) ;
#414 = DIRECTION ( 'NONE',  ( 0.9583148474999101385, 0.2857142857142847547, 3.748822636749744078E-31 ) ) ;
#415 = CARTESIAN_POINT ( 'NONE',  ( 0.000000000000000000, -3.469446951953614189E-15, -4.999999999999997335 ) ) ;
#416 = VECTOR ( 'NONE', #59, 1000.000000000000114 ) ;
#417 = DATE_TIME_ROLE ( 'creation_date' ) ;
#418 = CIRCLE ( 'NONE', #258, 8.000000000000031974 ) ;
#419 = FACE_BOUND ( 'NONE', #270, .T. ) ;
#420 = CALENDAR_DATE ( 2026, 23, 2 ) ;
#421 = APPLICATION_CONTEXT ( 'configuration controlled 3d designs of mechanical parts and assemblies' ) ;
#422 = CARTESIAN_POINT ( 'NONE',  ( 5.000000000000129674, -16.77050983124860650, -4.999999999999962697 ) ) ;
#423 = CARTESIAN_POINT ( 'NONE',  ( 35.00000000000007105, -4.857225732735059864E-14, -4.999999999999976907 ) ) ;
#424 = VERTEX_POINT ( 'NONE', #141 ) ;
ENDSEC;
END-ISO-10303-21;
