ISO-10303-21;
HEADER;
FILE_DESCRIPTION (( 'STEP AP203' ),
    '1' );
FILE_NAME ('3927-40-30_REV_.step',
    '2026-02-22T20:42:15',
    ( '' ),
    ( '' ),
    'SwSTEP 2.0',
    'SolidWorks 2025',
    '' );
FILE_SCHEMA (( 'CONFIG_CONTROL_DESIGN' ));
ENDSEC;

DATA;
#1 = COORDINATED_UNIVERSAL_TIME_OFFSET ( 10, 0, .AHEAD. ) ;
#2 = VECTOR ( 'NONE', #175, 1000.000000000000000 ) ;
#3 = PERSON_AND_ORGANIZATION_ROLE ( 'design_owner' ) ;
#4 = DIRECTION ( 'NONE',  ( 1.000000000000000000, 0.000000000000000000, 0.000000000000000000 ) ) ;
#5 = ORIENTED_EDGE ( 'NONE', *, *, #195, .F. ) ;
#6 = DIRECTION ( 'NONE',  ( -1.000000000000000000, -0.000000000000000000, -0.000000000000000000 ) ) ;
#7 = CARTESIAN_POINT ( 'NONE',  ( -74.00000000000000000, -38.00000000000000000, 0.000000000000000000 ) ) ;
#8 = DIRECTION ( 'NONE',  ( 1.000000000000000000, 0.000000000000000000, 0.000000000000000000 ) ) ;
#9 = CARTESIAN_POINT ( 'NONE',  ( 74.00000000000000000, -38.00000000000000000, 10.00000000000000000 ) ) ;
#10 = VECTOR ( 'NONE', #84, 1000.000000000000000 ) ;
#11 = LINE ( 'NONE', #218, #22 ) ;
#12 = FACE_OUTER_BOUND ( 'NONE', #74, .T. ) ;
#13 = PERSON_AND_ORGANIZATION ( #192, #85 ) ;
#14 = DIRECTION ( 'NONE',  ( 1.000000000000000000, 0.000000000000000000, 0.000000000000000000 ) ) ;
#15 = DATE_AND_TIME ( #133, #154 ) ;
#16 = EDGE_LOOP ( 'NONE', ( #59, #215, #132, #62 ) ) ;
#17 = VECTOR ( 'NONE', #6, 1000.000000000000000 ) ;
#18 = APPROVAL_ROLE ( '' ) ;
#19 = ORIENTED_EDGE ( 'NONE', *, *, #20, .F. ) ;
#20 = EDGE_CURVE ( 'NONE', #137, #78, #117, .T. ) ;
#21 = ORIENTED_EDGE ( 'NONE', *, *, #138, .T. ) ;
#22 = VECTOR ( 'NONE', #216, 1000.000000000000000 ) ;
#23 = ORIENTED_EDGE ( 'NONE', *, *, #20, .T. ) ;
#24 = LINE ( 'NONE', #180, #135 ) ;
#25 = CARTESIAN_POINT ( 'NONE',  ( 74.00000000000000000, -38.00000000000000000, 0.000000000000000000 ) ) ;
#26 = ADVANCED_FACE ( 'NONE', ( #194 ), #174, .F. ) ;
#27 = DIRECTION ( 'NONE',  ( 0.000000000000000000, 0.000000000000000000, -1.000000000000000000 ) ) ;
#28 = AXIS2_PLACEMENT_3D ( 'NONE', #70, #100, #47 ) ;
#29 = DIRECTION ( 'NONE',  ( -1.000000000000000000, 0.000000000000000000, -0.000000000000000000 ) ) ;
#30 = CARTESIAN_POINT ( 'NONE',  ( -74.00000000000000000, 38.00000000000000000, 10.00000000000000000 ) ) ;
#31 = PERSON_AND_ORGANIZATION_ROLE ( 'classification_officer' ) ;
#32 = VECTOR ( 'NONE', #160, 1000.000000000000000 ) ;
#33 =( NAMED_UNIT ( * ) SI_UNIT ( $, .STERADIAN. ) SOLID_ANGLE_UNIT ( ) );
#34 = MANIFOLD_SOLID_BREP ( 'Boss-Extrude1', #235 ) ;
#35 = APPROVAL ( #73, 'UNSPECIFIED' ) ;
#36 = DIRECTION ( 'NONE',  ( 0.000000000000000000, -0.000000000000000000, 1.000000000000000000 ) ) ;
#37 = APPROVAL_DATE_TIME ( #15, #200 ) ;
#38 = ORIENTED_EDGE ( 'NONE', *, *, #171, .T. ) ;
#39 = DIRECTION ( 'NONE',  ( 0.000000000000000000, 0.000000000000000000, 1.000000000000000000 ) ) ;
#40 = DIRECTION ( 'NONE',  ( 0.000000000000000000, 0.000000000000000000, -1.000000000000000000 ) ) ;
#41 = ORIENTED_EDGE ( 'NONE', *, *, #152, .T. ) ;
#42 = AXIS2_PLACEMENT_3D ( 'NONE', #217, #144, #198 ) ;
#43 = VERTEX_POINT ( 'NONE', #109 ) ;
#44 = CC_DESIGN_APPROVAL ( #88, ( #71 ) ) ;
#45 = PRODUCT_DEFINITION_FORMATION_WITH_SPECIFIED_SOURCE ( 'ANY', '', #153, .NOT_KNOWN. ) ;
#46 = DIRECTION ( 'NONE',  ( -0.000000000000000000, -0.000000000000000000, -1.000000000000000000 ) ) ;
#47 = DIRECTION ( 'NONE',  ( -1.000000000000000000, 0.000000000000000000, -0.000000000000000000 ) ) ;
#48 = DIRECTION ( 'NONE',  ( 0.000000000000000000, -0.000000000000000000, -1.000000000000000000 ) ) ;
#49 = CC_DESIGN_PERSON_AND_ORGANIZATION_ASSIGNMENT ( #202, #31, ( #71 ) ) ;
#50 = CARTESIAN_POINT ( 'NONE',  ( -74.00000000000000000, 38.00000000000000000, 10.00000000000000000 ) ) ;
#51 = LINE ( 'NONE', #25, #77 ) ;
#52 = PERSON_AND_ORGANIZATION_ROLE ( 'design_supplier' ) ;
#53 = DATE_AND_TIME ( #206, #98 ) ;
#54 =( GEOMETRIC_REPRESENTATION_CONTEXT ( 3 ) GLOBAL_UNCERTAINTY_ASSIGNED_CONTEXT ( ( #142 ) ) GLOBAL_UNIT_ASSIGNED_CONTEXT ( ( #161, #236, #33 ) ) REPRESENTATION_CONTEXT ( 'NONE', 'WORKASPACE' ) );
#55 = COORDINATED_UNIVERSAL_TIME_OFFSET ( 10, 0, .AHEAD. ) ;
#56 = ADVANCED_FACE ( 'NONE', ( #187 ), #210, .F. ) ;
#57 = VERTEX_POINT ( 'NONE', #158 ) ;
#58 = APPROVAL_STATUS ( 'not_yet_approved' ) ;
#59 = ORIENTED_EDGE ( 'NONE', *, *, #195, .T. ) ;
#60 = APPROVAL_DATE_TIME ( #108, #35 ) ;
#61 = ORIENTED_EDGE ( 'NONE', *, *, #212, .T. ) ;
#62 = ORIENTED_EDGE ( 'NONE', *, *, #127, .T. ) ;
#63 = ADVANCED_BREP_SHAPE_REPRESENTATION ( '3927-40-30_REV_', ( #34, #213 ), #54 ) ;
#64 = PRODUCT_DEFINITION_SHAPE ( 'NONE', 'NONE',  #123 ) ;
#65 = ORIENTED_EDGE ( 'NONE', *, *, #107, .T. ) ;
#66 = LINE ( 'NONE', #50, #10 ) ;
#67 = LINE ( 'NONE', #30, #129 ) ;
#68 = DIRECTION ( 'NONE',  ( 1.000000000000000000, 0.000000000000000000, 0.000000000000000000 ) ) ;
#69 = CARTESIAN_POINT ( 'NONE',  ( -74.00000000000000000, -38.00000000000000000, 0.000000000000000000 ) ) ;
#70 = CARTESIAN_POINT ( 'NONE',  ( 0.000000000000000000, 0.000000000000000000, 0.000000000000000000 ) ) ;
#71 = SECURITY_CLASSIFICATION ( '', '', #128 ) ;
#72 = CARTESIAN_POINT ( 'NONE',  ( -74.00000000000000000, -38.00000000000000000, 10.00000000000000000 ) ) ;
#73 = APPROVAL_STATUS ( 'not_yet_approved' ) ;
#74 = EDGE_LOOP ( 'NONE', ( #172, #61, #38, #41 ) ) ;
#75 = APPLICATION_CONTEXT ( 'configuration controlled 3d designs of mechanical parts and assemblies' ) ;
#76 = VERTEX_POINT ( 'NONE', #119 ) ;
#77 = VECTOR ( 'NONE', #83, 1000.000000000000000 ) ;
#78 = VERTEX_POINT ( 'NONE', #105 ) ;
#79 = EDGE_CURVE ( 'NONE', #170, #137, #230, .T. ) ;
#80 = ORIENTED_EDGE ( 'NONE', *, *, #127, .F. ) ;
#81 = CARTESIAN_POINT ( 'NONE',  ( 74.00000000000000000, 38.00000000000000000, 0.000000000000000000 ) ) ;
#82 = FACE_OUTER_BOUND ( 'NONE', #16, .T. ) ;
#83 = DIRECTION ( 'NONE',  ( 0.000000000000000000, 1.000000000000000000, 0.000000000000000000 ) ) ;
#84 = DIRECTION ( 'NONE',  ( -0.000000000000000000, -0.000000000000000000, -1.000000000000000000 ) ) ;
#85 = ORGANIZATION ( 'UNSPECIFIED', 'UNSPECIFIED', '' ) ;
#86 = APPROVAL_DATE_TIME ( #183, #88 ) ;
#87 = APPROVAL_ROLE ( '' ) ;
#88 = APPROVAL ( #134, 'UNSPECIFIED' ) ;
#89 = CALENDAR_DATE ( 2026, 23, 2 ) ;
#90 = AXIS2_PLACEMENT_3D ( 'NONE', #143, #197, #48 ) ;
#91 = APPLICATION_CONTEXT ( 'configuration controlled 3d designs of mechanical parts and assemblies' ) ;
#92 = CARTESIAN_POINT ( 'NONE',  ( -74.00000000000000000, -38.00000000000000000, 10.00000000000000000 ) ) ;
#93 = PERSON_AND_ORGANIZATION ( #192, #85 ) ;
#94 = ORIENTED_EDGE ( 'NONE', *, *, #237, .F. ) ;
#95 = ADVANCED_FACE ( 'NONE', ( #233 ), #162, .F. ) ;
#96 = APPROVAL_PERSON_ORGANIZATION ( #93, #88, #87 ) ;
#97 = ORIENTED_EDGE ( 'NONE', *, *, #237, .T. ) ;
#98 = LOCAL_TIME ( 7, 42, 14.00000000000000000, #110 ) ;
#99 = EDGE_LOOP ( 'NONE', ( #23, #190, #225, #229 ) ) ;
#100 = DIRECTION ( 'NONE',  ( 0.000000000000000000, 0.000000000000000000, -1.000000000000000000 ) ) ;
#101 = LOCAL_TIME ( 7, 42, 14.00000000000000000, #1 ) ;
#102 = LINE ( 'NONE', #147, #168 ) ;
#103 = CC_DESIGN_DATE_AND_TIME_ASSIGNMENT ( #181, #184, ( #123 ) ) ;
#104 = PLANE ( 'NONE',  #28 ) ;
#105 = CARTESIAN_POINT ( 'NONE',  ( -74.00000000000000000, 38.00000000000000000, 0.000000000000000000 ) ) ;
#106 = DATE_TIME_ROLE ( 'classification_date' ) ;
#107 = EDGE_CURVE ( 'NONE', #78, #76, #179, .T. ) ;
#108 = DATE_AND_TIME ( #89, #208 ) ;
#109 = CARTESIAN_POINT ( 'NONE',  ( 74.00000000000000000, -38.00000000000000000, 0.000000000000000000 ) ) ;
#110 = COORDINATED_UNIVERSAL_TIME_OFFSET ( 10, 0, .AHEAD. ) ;
#111 = CC_DESIGN_SECURITY_CLASSIFICATION ( #71, ( #45 ) ) ;
#112 = EDGE_LOOP ( 'NONE', ( #65, #136, #114, #21 ) ) ;
#113 = EDGE_LOOP ( 'NONE', ( #5, #94, #156, #19 ) ) ;
#114 = ORIENTED_EDGE ( 'NONE', *, *, #171, .F. ) ;
#115 = VECTOR ( 'NONE', #46, 1000.000000000000000 ) ;
#116 = CC_DESIGN_DATE_AND_TIME_ASSIGNMENT ( #53, #106, ( #71 ) ) ;
#117 = LINE ( 'NONE', #205, #17 ) ;
#118 = AXIS2_PLACEMENT_3D ( 'NONE', #72, #150, #36 ) ;
#119 = CARTESIAN_POINT ( 'NONE',  ( -74.00000000000000000, -38.00000000000000000, 0.000000000000000000 ) ) ;
#120 = CARTESIAN_POINT ( 'NONE',  ( 74.00000000000000000, 38.00000000000000000, 10.00000000000000000 ) ) ;
#121 = ADVANCED_FACE ( 'NONE', ( #145 ), #104, .T. ) ;
#122 = DIRECTION ( 'NONE',  ( -0.000000000000000000, -0.000000000000000000, -1.000000000000000000 ) ) ;
#123 = PRODUCT_DEFINITION ( 'UNKNOWN', '', #45, #125 ) ;
#124 = DIRECTION ( 'NONE',  ( -1.000000000000000000, -0.000000000000000000, -0.000000000000000000 ) ) ;
#125 = DESIGN_CONTEXT ( 'detailed design', #75, 'design' ) ;
#126 = CARTESIAN_POINT ( 'NONE',  ( 74.00000000000000000, -38.00000000000000000, 10.00000000000000000 ) ) ;
#127 = EDGE_CURVE ( 'NONE', #191, #43, #234, .T. ) ;
#128 = SECURITY_CLASSIFICATION_LEVEL ( 'unclassified' ) ;
#129 = VECTOR ( 'NONE', #124, 1000.000000000000000 ) ;
#130 = COORDINATED_UNIVERSAL_TIME_OFFSET ( 10, 0, .AHEAD. ) ;
#131 = PERSON_AND_ORGANIZATION_ROLE ( 'creator' ) ;
#132 = ORIENTED_EDGE ( 'NONE', *, *, #222, .F. ) ;
#133 = CALENDAR_DATE ( 2026, 23, 2 ) ;
#134 = APPROVAL_STATUS ( 'not_yet_approved' ) ;
#135 = VECTOR ( 'NONE', #8, 1000.000000000000000 ) ;
#136 = ORIENTED_EDGE ( 'NONE', *, *, #185, .F. ) ;
#137 = VERTEX_POINT ( 'NONE', #81 ) ;
#138 = EDGE_CURVE ( 'NONE', #211, #78, #66, .T. ) ;
#139 = ORIENTED_EDGE ( 'NONE', *, *, #152, .F. ) ;
#140 = CC_DESIGN_PERSON_AND_ORGANIZATION_ASSIGNMENT ( #13, #223, ( #45 ) ) ;
#141 = PLANE ( 'NONE',  #42 ) ;
#142 = UNCERTAINTY_MEASURE_WITH_UNIT (LENGTH_MEASURE( 1.000000000000000082E-05 ), #161, 'distance_accuracy_value', 'NONE');
#143 = CARTESIAN_POINT ( 'NONE',  ( -74.00000000000000000, 38.00000000000000000, 10.00000000000000000 ) ) ;
#144 = DIRECTION ( 'NONE',  ( -1.000000000000000000, 0.000000000000000000, 0.000000000000000000 ) ) ;
#145 = FACE_OUTER_BOUND ( 'NONE', #113, .T. ) ;
#146 = APPROVAL_PERSON_ORGANIZATION ( #224, #35, #18 ) ;
#147 = CARTESIAN_POINT ( 'NONE',  ( -74.00000000000000000, -38.00000000000000000, 10.00000000000000000 ) ) ;
#148 = CALENDAR_DATE ( 2026, 23, 2 ) ;
#149 = AXIS2_PLACEMENT_3D ( 'NONE', #231, #27, #29 ) ;
#150 = DIRECTION ( 'NONE',  ( 0.000000000000000000, 1.000000000000000000, 0.000000000000000000 ) ) ;
#151 = PERSON_AND_ORGANIZATION ( #192, #85 ) ;
#152 = EDGE_CURVE ( 'NONE', #57, #191, #24, .T. ) ;
#153 = PRODUCT ( '3927-40-30_REV_', '3927-40-30_REV_', '', ( #189 ) ) ;
#154 = LOCAL_TIME ( 7, 42, 14.00000000000000000, #186 ) ;
#155 = AXIS2_PLACEMENT_3D ( 'NONE', #92, #4, #40 ) ;
#156 = ORIENTED_EDGE ( 'NONE', *, *, #107, .F. ) ;
#157 = ADVANCED_FACE ( 'NONE', ( #12 ), #201, .F. ) ;
#158 = CARTESIAN_POINT ( 'NONE',  ( -74.00000000000000000, -38.00000000000000000, 10.00000000000000000 ) ) ;
#159 = CARTESIAN_POINT ( 'NONE',  ( -74.00000000000000000, 38.00000000000000000, 10.00000000000000000 ) ) ;
#160 = DIRECTION ( 'NONE',  ( 0.000000000000000000, 1.000000000000000000, 0.000000000000000000 ) ) ;
#161 =( LENGTH_UNIT ( ) NAMED_UNIT ( * ) SI_UNIT ( .MILLI., .METRE. ) );
#162 = PLANE ( 'NONE',  #90 ) ;
#163 = VECTOR ( 'NONE', #122, 1000.000000000000000 ) ;
#164 = CARTESIAN_POINT ( 'NONE',  ( 0.000000000000000000, 0.000000000000000000, 0.000000000000000000 ) ) ;
#165 = SHAPE_DEFINITION_REPRESENTATION ( #64, #63 ) ;
#166 = ADVANCED_FACE ( 'NONE', ( #82 ), #141, .F. ) ;
#167 = PERSON_AND_ORGANIZATION ( #192, #85 ) ;
#168 = VECTOR ( 'NONE', #220, 1000.000000000000000 ) ;
#169 = APPLICATION_PROTOCOL_DEFINITION ( 'international standard', 'config_control_design', 1994, #75 ) ;
#170 = VERTEX_POINT ( 'NONE', #176 ) ;
#171 = EDGE_CURVE ( 'NONE', #211, #57, #102, .T. ) ;
#172 = ORIENTED_EDGE ( 'NONE', *, *, #222, .T. ) ;
#173 = CC_DESIGN_APPROVAL ( #35, ( #123 ) ) ;
#174 = PLANE ( 'NONE',  #118 ) ;
#175 = DIRECTION ( 'NONE',  ( -0.000000000000000000, -1.000000000000000000, -0.000000000000000000 ) ) ;
#176 = CARTESIAN_POINT ( 'NONE',  ( 74.00000000000000000, 38.00000000000000000, 10.00000000000000000 ) ) ;
#177 = VECTOR ( 'NONE', #68, 1000.000000000000000 ) ;
#178 = PRODUCT_RELATED_PRODUCT_CATEGORY ( 'detail', '', ( #153 ) ) ;
#179 = LINE ( 'NONE', #7, #2 ) ;
#180 = CARTESIAN_POINT ( 'NONE',  ( -74.00000000000000000, -38.00000000000000000, 10.00000000000000000 ) ) ;
#181 = DATE_AND_TIME ( #148, #101 ) ;
#182 = CC_DESIGN_PERSON_AND_ORGANIZATION_ASSIGNMENT ( #167, #52, ( #45 ) ) ;
#183 = DATE_AND_TIME ( #209, #228 ) ;
#184 = DATE_TIME_ROLE ( 'creation_date' ) ;
#185 = EDGE_CURVE ( 'NONE', #57, #76, #11, .T. ) ;
#186 = COORDINATED_UNIVERSAL_TIME_OFFSET ( 10, 0, .AHEAD. ) ;
#187 = FACE_OUTER_BOUND ( 'NONE', #112, .T. ) ;
#188 = CC_DESIGN_APPROVAL ( #200, ( #45 ) ) ;
#189 = MECHANICAL_CONTEXT ( 'NONE', #91, 'mechanical' ) ;
#190 = ORIENTED_EDGE ( 'NONE', *, *, #138, .F. ) ;
#191 = VERTEX_POINT ( 'NONE', #9 ) ;
#192 = PERSON ( 'UNSPECIFIED', 'UNSPECIFIED', 'UNSPECIFIED', ('UNSPECIFIED'), ('UNSPECIFIED'), ('UNSPECIFIED') ) ;
#193 = CC_DESIGN_PERSON_AND_ORGANIZATION_ASSIGNMENT ( #221, #131, ( #123 ) ) ;
#194 = FACE_OUTER_BOUND ( 'NONE', #227, .T. ) ;
#195 = EDGE_CURVE ( 'NONE', #43, #137, #51, .T. ) ;
#196 = CARTESIAN_POINT ( 'NONE',  ( 74.00000000000000000, -38.00000000000000000, 10.00000000000000000 ) ) ;
#197 = DIRECTION ( 'NONE',  ( 0.000000000000000000, -1.000000000000000000, 0.000000000000000000 ) ) ;
#198 = DIRECTION ( 'NONE',  ( 0.000000000000000000, 0.000000000000000000, 1.000000000000000000 ) ) ;
#199 = LINE ( 'NONE', #126, #32 ) ;
#200 = APPROVAL ( #58, 'UNSPECIFIED' ) ;
#201 = PLANE ( 'NONE',  #149 ) ;
#202 = PERSON_AND_ORGANIZATION ( #192, #85 ) ;
#203 = APPLICATION_PROTOCOL_DEFINITION ( 'international standard', 'config_control_design', 1994, #91 ) ;
#204 = APPROVAL_ROLE ( '' ) ;
#205 = CARTESIAN_POINT ( 'NONE',  ( -74.00000000000000000, 38.00000000000000000, 0.000000000000000000 ) ) ;
#206 = CALENDAR_DATE ( 2026, 23, 2 ) ;
#207 = ORIENTED_EDGE ( 'NONE', *, *, #185, .T. ) ;
#208 = LOCAL_TIME ( 7, 42, 14.00000000000000000, #55 ) ;
#209 = CALENDAR_DATE ( 2026, 23, 2 ) ;
#210 = PLANE ( 'NONE',  #155 ) ;
#211 = VERTEX_POINT ( 'NONE', #159 ) ;
#212 = EDGE_CURVE ( 'NONE', #170, #211, #67, .T. ) ;
#213 = AXIS2_PLACEMENT_3D ( 'NONE', #164, #39, #14 ) ;
#214 = CC_DESIGN_PERSON_AND_ORGANIZATION_ASSIGNMENT ( #226, #3, ( #153 ) ) ;
#215 = ORIENTED_EDGE ( 'NONE', *, *, #79, .F. ) ;
#216 = DIRECTION ( 'NONE',  ( -0.000000000000000000, -0.000000000000000000, -1.000000000000000000 ) ) ;
#217 = CARTESIAN_POINT ( 'NONE',  ( 74.00000000000000000, -38.00000000000000000, 10.00000000000000000 ) ) ;
#218 = CARTESIAN_POINT ( 'NONE',  ( -74.00000000000000000, -38.00000000000000000, 10.00000000000000000 ) ) ;
#219 = APPROVAL_PERSON_ORGANIZATION ( #151, #200, #204 ) ;
#220 = DIRECTION ( 'NONE',  ( -0.000000000000000000, -1.000000000000000000, -0.000000000000000000 ) ) ;
#221 = PERSON_AND_ORGANIZATION ( #192, #85 ) ;
#222 = EDGE_CURVE ( 'NONE', #191, #170, #199, .T. ) ;
#223 = PERSON_AND_ORGANIZATION_ROLE ( 'creator' ) ;
#224 = PERSON_AND_ORGANIZATION ( #192, #85 ) ;
#225 = ORIENTED_EDGE ( 'NONE', *, *, #212, .F. ) ;
#226 = PERSON_AND_ORGANIZATION ( #192, #85 ) ;
#227 = EDGE_LOOP ( 'NONE', ( #97, #80, #139, #207 ) ) ;
#228 = LOCAL_TIME ( 7, 42, 14.00000000000000000, #130 ) ;
#229 = ORIENTED_EDGE ( 'NONE', *, *, #79, .T. ) ;
#230 = LINE ( 'NONE', #120, #163 ) ;
#231 = CARTESIAN_POINT ( 'NONE',  ( 0.000000000000000000, 0.000000000000000000, 10.00000000000000000 ) ) ;
#232 = LINE ( 'NONE', #69, #177 ) ;
#233 = FACE_OUTER_BOUND ( 'NONE', #99, .T. ) ;
#234 = LINE ( 'NONE', #196, #115 ) ;
#235 = CLOSED_SHELL ( 'NONE', ( #166, #95, #56, #26, #157, #121 ) ) ;
#236 =( NAMED_UNIT ( * ) PLANE_ANGLE_UNIT ( ) SI_UNIT ( $, .RADIAN. ) );
#237 = EDGE_CURVE ( 'NONE', #76, #43, #232, .T. ) ;
ENDSEC;
END-ISO-10303-21;
