ISO-10303-21;
HEADER;
FILE_DESCRIPTION (( 'STEP AP203' ),
    '1' );
FILE_NAME ('3927-50-10_REV_.step',
    '2026-02-22T20:39:44',
    ( '' ),
    ( '' ),
    'SwSTEP 2.0',
    'SolidWorks 2025',
    '' );
FILE_SCHEMA (( 'CONFIG_CONTROL_DESIGN' ));
ENDSEC;

DATA;
#1 = CARTESIAN_POINT ( 'NONE',  ( -32.50000000000000000, -9.980871413050928774E-15, 0.000000000000000000 ) ) ;
#2 = ORIENTED_EDGE ( 'NONE', *, *, #155, .T. ) ;
#3 = ADVANCED_FACE ( 'NONE', ( #180 ), #61, .F. ) ;
#4 = DIRECTION ( 'NONE',  ( -5.555559570782408784E-16, 1.000000000000000000, 0.000000000000000000 ) ) ;
#5 =( NAMED_UNIT ( * ) PLANE_ANGLE_UNIT ( ) SI_UNIT ( $, .RADIAN. ) );
#6 = ORIENTED_EDGE ( 'NONE', *, *, #137, .F. ) ;
#7 = AXIS2_PLACEMENT_3D ( 'NONE', #192, #309, #74 ) ;
#8 = DIRECTION ( 'NONE',  ( 1.000000000000000000, 0.000000000000000000, 0.000000000000000000 ) ) ;
#9 = ORIENTED_EDGE ( 'NONE', *, *, #92, .T. ) ;
#10 = COORDINATED_UNIVERSAL_TIME_OFFSET ( 10, 0, .AHEAD. ) ;
#11 = ORIENTED_EDGE ( 'NONE', *, *, #54, .F. ) ;
#12 = CALENDAR_DATE ( 2026, 23, 2 ) ;
#13 = DIRECTION ( 'NONE',  ( 5.555559570782408784E-16, -1.000000000000000000, 0.000000000000000000 ) ) ;
#14 = DIRECTION ( 'NONE',  ( 5.555559570782408784E-16, -1.000000000000000000, 0.000000000000000000 ) ) ;
#15 = DIRECTION ( 'NONE',  ( 1.000000000000000000, 3.061616997868382648E-16, -0.000000000000000000 ) ) ;
#16 = LINE ( 'NONE', #50, #135 ) ;
#17 = CONICAL_SURFACE ( 'NONE', #57, 12.49000000000000021, 0.7853981633974561616 ) ;
#18 = CC_DESIGN_PERSON_AND_ORGANIZATION_ASSIGNMENT ( #248, #299, ( #176 ) ) ;
#19 = CARTESIAN_POINT ( 'NONE',  ( 32.50000000000000000, 9.919639073093559622E-15, 0.000000000000000000 ) ) ;
#20 = AXIS2_PLACEMENT_3D ( 'NONE', #156, #134, #38 ) ;
#21 = LOCAL_TIME ( 7, 39, 44.00000000000000000, #304 ) ;
#22 = DIRECTION ( 'NONE',  ( 1.000000000000000000, 3.061616997868382648E-16, -0.000000000000000000 ) ) ;
#23 = LINE ( 'NONE', #84, #104 ) ;
#24 = CARTESIAN_POINT ( 'NONE',  ( -31.50000000000000711, 12.48999999999998956, 0.000000000000000000 ) ) ;
#25 = ADVANCED_FACE ( 'NONE', ( #264 ), #130, .T. ) ;
#26 = EDGE_CURVE ( 'NONE', #108, #266, #269, .T. ) ;
#27 = CIRCLE ( 'NONE', #169, 8.050000000000000711 ) ;
#28 = DIRECTION ( 'NONE',  ( 1.000000000000000000, 3.061616997868382648E-16, -0.000000000000000000 ) ) ;
#29 = ORIENTED_EDGE ( 'NONE', *, *, #250, .F. ) ;
#30 = FACE_OUTER_BOUND ( 'NONE', #33, .T. ) ;
#31 = VERTEX_POINT ( 'NONE', #73 ) ;
#32 = DATE_TIME_ROLE ( 'creation_date' ) ;
#33 = EDGE_LOOP ( 'NONE', ( #268, #126, #317, #323 ) ) ;
#34 = APPROVAL_PERSON_ORGANIZATION ( #193, #138, #220 ) ;
#35 = UNCERTAINTY_MEASURE_WITH_UNIT (LENGTH_MEASURE( 1.000000000000000082E-05 ), #154, 'distance_accuracy_value', 'NONE');
#36 = AXIS2_PLACEMENT_3D ( 'NONE', #178, #294, #213 ) ;
#37 = APPROVAL_DATE_TIME ( #218, #286 ) ;
#38 = DIRECTION ( 'NONE',  ( 0.000000000000000000, 1.000000000000000000, 0.000000000000000000 ) ) ;
#39 = CALENDAR_DATE ( 2026, 23, 2 ) ;
#40 = ORIENTED_EDGE ( 'NONE', *, *, #179, .T. ) ;
#41 = PLANE ( 'NONE',  #232 ) ;
#42 = ADVANCED_FACE ( 'NONE', ( #171 ), #259, .T. ) ;
#43 = DATE_AND_TIME ( #223, #64 ) ;
#44 = APPROVAL_PERSON_ORGANIZATION ( #271, #286, #144 ) ;
#45 = CARTESIAN_POINT ( 'NONE',  ( 31.50000000000001421, 9.613477373306723330E-15, 0.000000000000000000 ) ) ;
#46 = CARTESIAN_POINT ( 'NONE',  ( -31.50000000000000000, -9.674709713264092481E-15, 0.000000000000000000 ) ) ;
#47 = ADVANCED_FACE ( 'NONE', ( #96, #310 ), #41, .F. ) ;
#48 = SECURITY_CLASSIFICATION ( '', '', #66 ) ;
#49 = DIRECTION ( 'NONE',  ( -6.039072153095931897E-16, 1.000000000000000000, 0.000000000000000000 ) ) ;
#50 = CARTESIAN_POINT ( 'NONE',  ( -32.50000000000000711, 11.48999999999999311, 0.000000000000000000 ) ) ;
#51 = AXIS2_PLACEMENT_3D ( 'NONE', #280, #305, #69 ) ;
#52 = LINE ( 'NONE', #153, #65 ) ;
#53 = CARTESIAN_POINT ( 'NONE',  ( 32.50000000000000000, -8.049999999999988276, 9.858406733136194415E-16 ) ) ;
#54 = EDGE_CURVE ( 'NONE', #270, #273, #82, .T. ) ;
#55 = FACE_OUTER_BOUND ( 'NONE', #184, .T. ) ;
#56 = ORIENTED_EDGE ( 'NONE', *, *, #179, .F. ) ;
#57 = AXIS2_PLACEMENT_3D ( 'NONE', #45, #314, #13 ) ;
#58 = DIRECTION ( 'NONE',  ( -5.555559570782408784E-16, 1.000000000000000000, 0.000000000000000000 ) ) ;
#59 = EDGE_LOOP ( 'NONE', ( #158, #9, #11, #221 ) ) ;
#60 = PERSON_AND_ORGANIZATION ( #328, #343 ) ;
#61 = CYLINDRICAL_SURFACE ( 'NONE', #20, 8.050000000000000711 ) ;
#62 = PERSON_AND_ORGANIZATION_ROLE ( 'classification_officer' ) ;
#63 = ORIENTED_EDGE ( 'NONE', *, *, #149, .F. ) ;
#64 = LOCAL_TIME ( 7, 39, 44.00000000000000000, #10 ) ;
#65 = VECTOR ( 'NONE', #28, 1000.000000000000000 ) ;
#66 = SECURITY_CLASSIFICATION_LEVEL ( 'unclassified' ) ;
#67 = ORIENTED_EDGE ( 'NONE', *, *, #26, .F. ) ;
#68 = ADVANCED_BREP_SHAPE_REPRESENTATION ( '3927-50-10_REV_', ( #279, #202 ), #313 ) ;
#69 = DIRECTION ( 'NONE',  ( 5.555559570782408784E-16, -1.000000000000000000, 0.000000000000000000 ) ) ;
#70 = DIRECTION ( 'NONE',  ( 6.039072153095935841E-16, -1.000000000000000000, 0.000000000000000000 ) ) ;
#71 = CIRCLE ( 'NONE', #147, 11.49000000000000377 ) ;
#72 = CC_DESIGN_APPROVAL ( #77, ( #176 ) ) ;
#73 = CARTESIAN_POINT ( 'NONE',  ( -32.49999999999999289, -11.49000000000001442, 1.468351512177676769E-15 ) ) ;
#74 = DIRECTION ( 'NONE',  ( 6.039072153095935841E-16, -1.000000000000000000, 0.000000000000000000 ) ) ;
#75 = DIRECTION ( 'NONE',  ( -1.000000000000000000, -3.061616997868382648E-16, 0.000000000000000000 ) ) ;
#76 = ORIENTED_EDGE ( 'NONE', *, *, #341, .T. ) ;
#77 = APPROVAL ( #133, 'UNSPECIFIED' ) ;
#78 = CARTESIAN_POINT ( 'NONE',  ( -32.50000000000000000, -9.980871413050931929E-15, 0.000000000000000000 ) ) ;
#79 = CARTESIAN_POINT ( 'NONE',  ( -32.50000000000000000, -9.980871413050931929E-15, 0.000000000000000000 ) ) ;
#80 = CARTESIAN_POINT ( 'NONE',  ( -32.50000000000000000, -9.980871413050928774E-15, 0.000000000000000000 ) ) ;
#81 = ORIENTED_EDGE ( 'NONE', *, *, #26, .T. ) ;
#82 = CIRCLE ( 'NONE', #292, 12.49000000000000021 ) ;
#83 = AXIS2_PLACEMENT_3D ( 'NONE', #79, #139, #4 ) ;
#84 = CARTESIAN_POINT ( 'NONE',  ( 31.50000000000002132, -12.48999999999998956, 0.000000000000000000 ) ) ;
#85 = ORIENTED_EDGE ( 'NONE', *, *, #312, .T. ) ;
#86 = PERSON_AND_ORGANIZATION_ROLE ( 'design_owner' ) ;
#87 = ORIENTED_EDGE ( 'NONE', *, *, #225, .T. ) ;
#88 = DATE_AND_TIME ( #246, #21 ) ;
#89 = ORIENTED_EDGE ( 'NONE', *, *, #173, .T. ) ;
#90 = VECTOR ( 'NONE', #117, 1000.000000000000000 ) ;
#91 = EDGE_CURVE ( 'NONE', #327, #331, #27, .T. ) ;
#92 = EDGE_CURVE ( 'NONE', #31, #273, #168, .T. ) ;
#93 = LINE ( 'NONE', #199, #90 ) ;
#94 = DIRECTION ( 'NONE',  ( 5.555559570782408784E-16, -1.000000000000000000, 0.000000000000000000 ) ) ;
#95 = AXIS2_PLACEMENT_3D ( 'NONE', #80, #205, #316 ) ;
#96 = FACE_OUTER_BOUND ( 'NONE', #212, .T. ) ;
#97 = EDGE_CURVE ( 'NONE', #270, #345, #116, .T. ) ;
#98 = AXIS2_PLACEMENT_3D ( 'NONE', #319, #101, #58 ) ;
#99 = CARTESIAN_POINT ( 'NONE',  ( -32.50000000000000711, 11.48999999999999311, 0.000000000000000000 ) ) ;
#100 = EDGE_LOOP ( 'NONE', ( #141, #297, #107, #315 ) ) ;
#101 = DIRECTION ( 'NONE',  ( 1.000000000000000000, 3.061616997868382648E-16, -0.000000000000000000 ) ) ;
#102 = ORIENTED_EDGE ( 'NONE', *, *, #155, .F. ) ;
#103 = DIRECTION ( 'NONE',  ( 5.555559570782408784E-16, -1.000000000000000000, 0.000000000000000000 ) ) ;
#104 = VECTOR ( 'NONE', #127, 1000.000000000000114 ) ;
#105 = DIRECTION ( 'NONE',  ( 6.039072153095931897E-16, -1.000000000000000000, 0.000000000000000000 ) ) ;
#106 = EDGE_LOOP ( 'NONE', ( #214, #217, #186, #240 ) ) ;
#107 = ORIENTED_EDGE ( 'NONE', *, *, #122, .T. ) ;
#108 = VERTEX_POINT ( 'NONE', #142 ) ;
#109 = VECTOR ( 'NONE', #249, 1000.000000000000000 ) ;
#110 = COORDINATED_UNIVERSAL_TIME_OFFSET ( 10, 0, .AHEAD. ) ;
#111 = EDGE_LOOP ( 'NONE', ( #162, #219 ) ) ;
#112 = DATE_TIME_ROLE ( 'classification_date' ) ;
#113 = EDGE_LOOP ( 'NONE', ( #87, #190 ) ) ;
#114 = EDGE_CURVE ( 'NONE', #247, #290, #124, .T. ) ;
#115 = PERSON_AND_ORGANIZATION ( #328, #343 ) ;
#116 = LINE ( 'NONE', #123, #129 ) ;
#117 = DIRECTION ( 'NONE',  ( 1.000000000000000000, 3.061616997868382648E-16, -0.000000000000000000 ) ) ;
#118 = PERSON_AND_ORGANIZATION ( #328, #343 ) ;
#119 = DIRECTION ( 'NONE',  ( 0.000000000000000000, 1.000000000000000000, 0.000000000000000000 ) ) ;
#120 = CARTESIAN_POINT ( 'NONE',  ( -32.50000000000000000, -9.980871413050931929E-15, 0.000000000000000000 ) ) ;
#121 = ADVANCED_FACE ( 'NONE', ( #276 ), #17, .T. ) ;
#122 = EDGE_CURVE ( 'NONE', #284, #345, #238, .T. ) ;
#123 = CARTESIAN_POINT ( 'NONE',  ( -32.50000000000000711, 12.48999999999998956, 0.000000000000000000 ) ) ;
#124 = CIRCLE ( 'NONE', #7, 11.48999999999999666 ) ;
#125 = DIRECTION ( 'NONE',  ( 0.000000000000000000, 1.000000000000000000, 0.000000000000000000 ) ) ;
#126 = ORIENTED_EDGE ( 'NONE', *, *, #225, .F. ) ;
#127 = DIRECTION ( 'NONE',  ( -0.7071067811865416886, -0.7071067811865532349, 0.000000000000000000 ) ) ;
#128 = CARTESIAN_POINT ( 'NONE',  ( 32.50000000000000000, 8.050000000000011369, 0.000000000000000000 ) ) ;
#129 = VECTOR ( 'NONE', #337, 1000.000000000000000 ) ;
#130 = CYLINDRICAL_SURFACE ( 'NONE', #83, 12.49000000000000021 ) ;
#131 = DIRECTION ( 'NONE',  ( 1.000000000000000000, 3.061616997868389058E-16, 0.000000000000000000 ) ) ;
#132 = EDGE_LOOP ( 'NONE', ( #160, #81 ) ) ;
#133 = APPROVAL_STATUS ( 'not_yet_approved' ) ;
#134 = DIRECTION ( 'NONE',  ( 1.000000000000000000, 3.061616997868382648E-16, -0.000000000000000000 ) ) ;
#135 = VECTOR ( 'NONE', #256, 1000.000000000000000 ) ;
#136 = APPLICATION_PROTOCOL_DEFINITION ( 'international standard', 'config_control_design', 1994, #346 ) ;
#137 = EDGE_CURVE ( 'NONE', #247, #345, #278, .T. ) ;
#138 = APPROVAL ( #163, 'UNSPECIFIED' ) ;
#139 = DIRECTION ( 'NONE',  ( 1.000000000000000000, 3.061616997868382648E-16, -0.000000000000000000 ) ) ;
#140 = DATE_AND_TIME ( #39, #302 ) ;
#141 = ORIENTED_EDGE ( 'NONE', *, *, #54, .T. ) ;
#142 = CARTESIAN_POINT ( 'NONE',  ( -32.50000000000000000, -8.050000000000007816, 9.858406733136206248E-16 ) ) ;
#143 = AXIS2_PLACEMENT_3D ( 'NONE', #291, #208, #177 ) ;
#144 = APPROVAL_ROLE ( '' ) ;
#145 = DIRECTION ( 'NONE',  ( 3.061616997868382648E-16, -1.000000000000000000, 0.000000000000000000 ) ) ;
#146 = FACE_OUTER_BOUND ( 'NONE', #59, .T. ) ;
#147 = AXIS2_PLACEMENT_3D ( 'NONE', #1, #75, #105 ) ;
#148 = EDGE_CURVE ( 'NONE', #164, #270, #16, .T. ) ;
#149 = EDGE_CURVE ( 'NONE', #273, #284, #93, .T. ) ;
#150 = PRODUCT_DEFINITION_SHAPE ( 'NONE', 'NONE',  #342 ) ;
#151 = DIRECTION ( 'NONE',  ( 1.000000000000000000, 3.061616997868382648E-16, 0.000000000000000000 ) ) ;
#152 = CARTESIAN_POINT ( 'NONE',  ( 32.50000000000000000, 1.181784161177195757E-14, 0.000000000000000000 ) ) ;
#153 = CARTESIAN_POINT ( 'NONE',  ( -32.50000000000000000, -8.050000000000007816, 9.858406733136194415E-16 ) ) ;
#154 =( LENGTH_UNIT ( ) NAMED_UNIT ( * ) SI_UNIT ( .MILLI., .METRE. ) );
#155 = EDGE_CURVE ( 'NONE', #290, #247, #349, .T. ) ;
#156 = CARTESIAN_POINT ( 'NONE',  ( -32.50000000000000000, -8.082668874372532400E-15, 0.000000000000000000 ) ) ;
#157 = CYLINDRICAL_SURFACE ( 'NONE', #183, 8.050000000000000711 ) ;
#158 = ORIENTED_EDGE ( 'NONE', *, *, #210, .F. ) ;
#159 = PERSON_AND_ORGANIZATION ( #328, #343 ) ;
#160 = ORIENTED_EDGE ( 'NONE', *, *, #250, .T. ) ;
#161 = CC_DESIGN_PERSON_AND_ORGANIZATION_ASSIGNMENT ( #159, #86, ( #182 ) ) ;
#162 = ORIENTED_EDGE ( 'NONE', *, *, #91, .F. ) ;
#163 = APPROVAL_STATUS ( 'not_yet_approved' ) ;
#164 = VERTEX_POINT ( 'NONE', #99 ) ;
#165 = COORDINATED_UNIVERSAL_TIME_OFFSET ( 10, 0, .AHEAD. ) ;
#166 = DIRECTION ( 'NONE',  ( 5.555559570782408784E-16, -1.000000000000000000, 0.000000000000000000 ) ) ;
#167 = CALENDAR_DATE ( 2026, 23, 2 ) ;
#168 = LINE ( 'NONE', #203, #109 ) ;
#169 = AXIS2_PLACEMENT_3D ( 'NONE', #234, #274, #258 ) ;
#170 = CARTESIAN_POINT ( 'NONE',  ( 31.50000000000001421, 9.613477373306723330E-15, 0.000000000000000000 ) ) ;
#171 = FACE_OUTER_BOUND ( 'NONE', #106, .T. ) ;
#172 = CC_DESIGN_DATE_AND_TIME_ASSIGNMENT ( #43, #112, ( #48 ) ) ;
#173 = EDGE_CURVE ( 'NONE', #273, #270, #257, .T. ) ;
#174 = FACE_OUTER_BOUND ( 'NONE', #293, .T. ) ;
#175 = AXIS2_PLACEMENT_3D ( 'NONE', #152, #287, #125 ) ;
#176 = PRODUCT_DEFINITION_FORMATION_WITH_SPECIFIED_SOURCE ( 'ANY', '', #182, .NOT_KNOWN. ) ;
#177 = DIRECTION ( 'NONE',  ( 3.061616997868382648E-16, -1.000000000000000000, 0.000000000000000000 ) ) ;
#178 = CARTESIAN_POINT ( 'NONE',  ( -32.50000000000000000, -8.082668874372532400E-15, 0.000000000000000000 ) ) ;
#179 = EDGE_CURVE ( 'NONE', #266, #327, #194, .T. ) ;
#180 = FACE_OUTER_BOUND ( 'NONE', #295, .T. ) ;
#181 = CARTESIAN_POINT ( 'NONE',  ( 32.49999999999999289, 11.49000000000000732, 1.468351512177676178E-15 ) ) ;
#182 = PRODUCT ( '3927-50-10_REV_', '3927-50-10_REV_', '', ( #228 ) ) ;
#183 = AXIS2_PLACEMENT_3D ( 'NONE', #260, #22, #239 ) ;
#184 = EDGE_LOOP ( 'NONE', ( #67, #85, #204, #56 ) ) ;
#185 = FACE_OUTER_BOUND ( 'NONE', #113, .T. ) ;
#186 = ORIENTED_EDGE ( 'NONE', *, *, #122, .F. ) ;
#187 = PERSON_AND_ORGANIZATION_ROLE ( 'creator' ) ;
#188 = ORIENTED_EDGE ( 'NONE', *, *, #97, .T. ) ;
#189 = PERSON_AND_ORGANIZATION ( #328, #343 ) ;
#190 = ORIENTED_EDGE ( 'NONE', *, *, #210, .T. ) ;
#191 = CIRCLE ( 'NONE', #334, 12.49000000000000021 ) ;
#192 = CARTESIAN_POINT ( 'NONE',  ( 32.50000000000000000, 9.919639073093559622E-15, 0.000000000000000000 ) ) ;
#193 = PERSON_AND_ORGANIZATION ( #328, #343 ) ;
#194 = LINE ( 'NONE', #307, #324 ) ;
#195 = APPLICATION_PROTOCOL_DEFINITION ( 'international standard', 'config_control_design', 1994, #201 ) ;
#196 = CARTESIAN_POINT ( 'NONE',  ( -32.50000000000000000, -8.082668874372532400E-15, 0.000000000000000000 ) ) ;
#197 = CONICAL_SURFACE ( 'NONE', #216, 11.49000000000000377, 0.7853981633974457255 ) ;
#198 = APPROVAL_PERSON_ORGANIZATION ( #115, #77, #251 ) ;
#199 = CARTESIAN_POINT ( 'NONE',  ( -32.49999999999999289, -12.49000000000000909, 1.529583852135044146E-15 ) ) ;
#200 = ADVANCED_FACE ( 'NONE', ( #146 ), #197, .T. ) ;
#201 = APPLICATION_CONTEXT ( 'configuration controlled 3d designs of mechanical parts and assemblies' ) ;
#202 = AXIS2_PLACEMENT_3D ( 'NONE', #243, #275, #8 ) ;
#203 = CARTESIAN_POINT ( 'NONE',  ( -32.49999999999999289, -11.49000000000001442, 1.407119172220309195E-15 ) ) ;
#204 = ORIENTED_EDGE ( 'NONE', *, *, #272, .T. ) ;
#205 = DIRECTION ( 'NONE',  ( -1.000000000000000000, -3.061616997868382648E-16, 0.000000000000000000 ) ) ;
#206 = ORIENTED_EDGE ( 'NONE', *, *, #91, .T. ) ;
#207 = CC_DESIGN_APPROVAL ( #138, ( #48 ) ) ;
#208 = DIRECTION ( 'NONE',  ( -1.000000000000000000, -3.061616997868382648E-16, 0.000000000000000000 ) ) ;
#209 = CONICAL_SURFACE ( 'NONE', #281, 11.49000000000000377, 0.7853981633974457255 ) ;
#210 = EDGE_CURVE ( 'NONE', #31, #164, #244, .T. ) ;
#211 = ADVANCED_FACE ( 'NONE', ( #55 ), #157, .F. ) ;
#212 = EDGE_LOOP ( 'NONE', ( #2, #326 ) ) ;
#213 = DIRECTION ( 'NONE',  ( 0.000000000000000000, 1.000000000000000000, 0.000000000000000000 ) ) ;
#214 = ORIENTED_EDGE ( 'NONE', *, *, #114, .F. ) ;
#215 = CARTESIAN_POINT ( 'NONE',  ( 32.50000000000000711, -11.48999999999998600, 0.000000000000000000 ) ) ;
#216 = AXIS2_PLACEMENT_3D ( 'NONE', #120, #231, #49 ) ;
#217 = ORIENTED_EDGE ( 'NONE', *, *, #137, .T. ) ;
#218 = DATE_AND_TIME ( #12, #340 ) ;
#219 = ORIENTED_EDGE ( 'NONE', *, *, #272, .F. ) ;
#220 = APPROVAL_ROLE ( '' ) ;
#221 = ORIENTED_EDGE ( 'NONE', *, *, #148, .F. ) ;
#222 = DESIGN_CONTEXT ( 'detailed design', #201, 'design' ) ;
#223 = CALENDAR_DATE ( 2026, 23, 2 ) ;
#224 = CARTESIAN_POINT ( 'NONE',  ( 31.50000000000000711, 12.49000000000000909, 1.529583852135044146E-15 ) ) ;
#225 = EDGE_CURVE ( 'NONE', #164, #31, #71, .T. ) ;
#226 = PERSON_AND_ORGANIZATION_ROLE ( 'creator' ) ;
#227 = DIRECTION ( 'NONE',  ( 1.000000000000000000, 3.061616997868389058E-16, 0.000000000000000000 ) ) ;
#228 = MECHANICAL_CONTEXT ( 'NONE', #346, 'mechanical' ) ;
#229 = DIRECTION ( 'NONE',  ( -1.000000000000000000, -3.061616997868382648E-16, 0.000000000000000000 ) ) ;
#230 = CC_DESIGN_PERSON_AND_ORGANIZATION_ASSIGNMENT ( #60, #226, ( #342 ) ) ;
#231 = DIRECTION ( 'NONE',  ( 1.000000000000000000, 3.061616997868389058E-16, 0.000000000000000000 ) ) ;
#232 = AXIS2_PLACEMENT_3D ( 'NONE', #283, #229, #145 ) ;
#233 = AXIS2_PLACEMENT_3D ( 'NONE', #19, #344, #70 ) ;
#234 = CARTESIAN_POINT ( 'NONE',  ( 32.50000000000000000, 1.181784161177195757E-14, 0.000000000000000000 ) ) ;
#235 = PLANE ( 'NONE',  #143 ) ;
#236 = DIRECTION ( 'NONE',  ( -1.000000000000000000, -3.061616997868385113E-16, -0.000000000000000000 ) ) ;
#237 = CC_DESIGN_PERSON_AND_ORGANIZATION_ASSIGNMENT ( #118, #62, ( #48 ) ) ;
#238 = CIRCLE ( 'NONE', #285, 12.49000000000000021 ) ;
#239 = DIRECTION ( 'NONE',  ( 0.000000000000000000, 1.000000000000000000, 0.000000000000000000 ) ) ;
#240 = ORIENTED_EDGE ( 'NONE', *, *, #329, .F. ) ;
#241 = CARTESIAN_POINT ( 'NONE',  ( 31.50000000000000711, 12.49000000000000909, 0.000000000000000000 ) ) ;
#242 = ORIENTED_EDGE ( 'NONE', *, *, #329, .T. ) ;
#243 = CARTESIAN_POINT ( 'NONE',  ( 0.000000000000000000, 0.000000000000000000, 0.000000000000000000 ) ) ;
#244 = CIRCLE ( 'NONE', #95, 11.49000000000000377 ) ;
#245 = EDGE_LOOP ( 'NONE', ( #6, #102, #242, #320 ) ) ;
#246 = CALENDAR_DATE ( 2026, 23, 2 ) ;
#247 = VERTEX_POINT ( 'NONE', #181 ) ;
#248 = PERSON_AND_ORGANIZATION ( #328, #343 ) ;
#249 = DIRECTION ( 'NONE',  ( 0.7071067811865495711, -0.7071067811865454633, 8.659560562354910671E-17 ) ) ;
#250 = EDGE_CURVE ( 'NONE', #266, #108, #339, .T. ) ;
#251 = APPROVAL_ROLE ( '' ) ;
#252 = DIRECTION ( 'NONE',  ( -1.000000000000000000, -3.061616997868385113E-16, -0.000000000000000000 ) ) ;
#253 = VECTOR ( 'NONE', #255, 1000.000000000000000 ) ;
#254 = APPROVAL_DATE_TIME ( #140, #138 ) ;
#255 = DIRECTION ( 'NONE',  ( -0.7071067811865422437, 0.7071067811865529018, 8.659560562355001884E-17 ) ) ;
#256 = DIRECTION ( 'NONE',  ( 0.7071067811865491270, 0.7071067811865459074, 0.000000000000000000 ) ) ;
#257 = CIRCLE ( 'NONE', #263, 12.49000000000000021 ) ;
#258 = DIRECTION ( 'NONE',  ( 0.000000000000000000, 1.000000000000000000, 0.000000000000000000 ) ) ;
#259 = CONICAL_SURFACE ( 'NONE', #51, 12.49000000000000021, 0.7853981633974561616 ) ;
#260 = CARTESIAN_POINT ( 'NONE',  ( -32.50000000000000000, -8.082668874372532400E-15, 0.000000000000000000 ) ) ;
#261 = CARTESIAN_POINT ( 'NONE',  ( -32.50000000000000000, 8.049999999999991829, 0.000000000000000000 ) ) ;
#262 = CC_DESIGN_DATE_AND_TIME_ASSIGNMENT ( #306, #32, ( #342 ) ) ;
#263 = AXIS2_PLACEMENT_3D ( 'NONE', #46, #227, #94 ) ;
#264 = FACE_OUTER_BOUND ( 'NONE', #100, .T. ) ;
#265 = CARTESIAN_POINT ( 'NONE',  ( 31.50000000000002132, -12.48999999999998956, 1.529583852135044146E-15 ) ) ;
#266 = VERTEX_POINT ( 'NONE', #261 ) ;
#267 = COORDINATED_UNIVERSAL_TIME_OFFSET ( 10, 0, .AHEAD. ) ;
#268 = ORIENTED_EDGE ( 'NONE', *, *, #92, .F. ) ;
#269 = CIRCLE ( 'NONE', #277, 8.050000000000000711 ) ;
#270 = VERTEX_POINT ( 'NONE', #24 ) ;
#271 = PERSON_AND_ORGANIZATION ( #328, #343 ) ;
#272 = EDGE_CURVE ( 'NONE', #331, #327, #301, .T. ) ;
#273 = VERTEX_POINT ( 'NONE', #348 ) ;
#274 = DIRECTION ( 'NONE',  ( 1.000000000000000000, 3.061616997868382648E-16, 0.000000000000000000 ) ) ;
#275 = DIRECTION ( 'NONE',  ( 0.000000000000000000, 0.000000000000000000, 1.000000000000000000 ) ) ;
#276 = FACE_OUTER_BOUND ( 'NONE', #245, .T. ) ;
#277 = AXIS2_PLACEMENT_3D ( 'NONE', #196, #151, #119 ) ;
#278 = LINE ( 'NONE', #224, #253 ) ;
#279 = MANIFOLD_SOLID_BREP ( 'Chamfer1', #308 ) ;
#280 = CARTESIAN_POINT ( 'NONE',  ( 31.50000000000001421, 9.613477373306723330E-15, 0.000000000000000000 ) ) ;
#281 = AXIS2_PLACEMENT_3D ( 'NONE', #78, #131, #288 ) ;
#282 = ADVANCED_FACE ( 'NONE', ( #185, #321 ), #235, .T. ) ;
#283 = CARTESIAN_POINT ( 'NONE',  ( 32.50000000000000000, 9.919639073093558045E-15, 0.000000000000000000 ) ) ;
#284 = VERTEX_POINT ( 'NONE', #265 ) ;
#285 = AXIS2_PLACEMENT_3D ( 'NONE', #170, #252, #14 ) ;
#286 = APPROVAL ( #330, 'UNSPECIFIED' ) ;
#287 = DIRECTION ( 'NONE',  ( 1.000000000000000000, 3.061616997868382648E-16, 0.000000000000000000 ) ) ;
#288 = DIRECTION ( 'NONE',  ( -6.039072153095931897E-16, 1.000000000000000000, 0.000000000000000000 ) ) ;
#289 =( NAMED_UNIT ( * ) SI_UNIT ( $, .STERADIAN. ) SOLID_ANGLE_UNIT ( ) );
#290 = VERTEX_POINT ( 'NONE', #215 ) ;
#291 = CARTESIAN_POINT ( 'NONE',  ( -32.50000000000000000, -9.980871413050931929E-15, 0.000000000000000000 ) ) ;
#292 = AXIS2_PLACEMENT_3D ( 'NONE', #335, #336, #166 ) ;
#293 = EDGE_LOOP ( 'NONE', ( #63, #89, #188, #76 ) ) ;
#294 = DIRECTION ( 'NONE',  ( 1.000000000000000000, 3.061616997868382648E-16, 0.000000000000000000 ) ) ;
#295 = EDGE_LOOP ( 'NONE', ( #303, #29, #40, #206 ) ) ;
#296 = APPROVAL_DATE_TIME ( #88, #77 ) ;
#297 = ORIENTED_EDGE ( 'NONE', *, *, #149, .T. ) ;
#298 = ADVANCED_FACE ( 'NONE', ( #174 ), #347, .T. ) ;
#299 = PERSON_AND_ORGANIZATION_ROLE ( 'design_supplier' ) ;
#300 = ADVANCED_FACE ( 'NONE', ( #30 ), #209, .T. ) ;
#301 = CIRCLE ( 'NONE', #175, 8.050000000000000711 ) ;
#302 = LOCAL_TIME ( 7, 39, 44.00000000000000000, #110 ) ;
#303 = ORIENTED_EDGE ( 'NONE', *, *, #312, .F. ) ;
#304 = COORDINATED_UNIVERSAL_TIME_OFFSET ( 10, 0, .AHEAD. ) ;
#305 = DIRECTION ( 'NONE',  ( -1.000000000000000000, -3.061616997868385113E-16, -0.000000000000000000 ) ) ;
#306 = DATE_AND_TIME ( #167, #318 ) ;
#307 = CARTESIAN_POINT ( 'NONE',  ( -32.50000000000000000, 8.049999999999991829, 0.000000000000000000 ) ) ;
#308 = CLOSED_SHELL ( 'NONE', ( #42, #200, #211, #25, #298, #282, #47, #3, #300, #121 ) ) ;
#309 = DIRECTION ( 'NONE',  ( 1.000000000000000000, 3.061616997868382648E-16, -0.000000000000000000 ) ) ;
#310 = FACE_BOUND ( 'NONE', #111, .T. ) ;
#311 = CC_DESIGN_PERSON_AND_ORGANIZATION_ASSIGNMENT ( #189, #187, ( #176 ) ) ;
#312 = EDGE_CURVE ( 'NONE', #108, #331, #52, .T. ) ;
#313 =( GEOMETRIC_REPRESENTATION_CONTEXT ( 3 ) GLOBAL_UNCERTAINTY_ASSIGNED_CONTEXT ( ( #35 ) ) GLOBAL_UNIT_ASSIGNED_CONTEXT ( ( #154, #5, #289 ) ) REPRESENTATION_CONTEXT ( 'NONE', 'WORKASPACE' ) );
#314 = DIRECTION ( 'NONE',  ( -1.000000000000000000, -3.061616997868385113E-16, -0.000000000000000000 ) ) ;
#315 = ORIENTED_EDGE ( 'NONE', *, *, #97, .F. ) ;
#316 = DIRECTION ( 'NONE',  ( 6.039072153095931897E-16, -1.000000000000000000, 0.000000000000000000 ) ) ;
#317 = ORIENTED_EDGE ( 'NONE', *, *, #148, .T. ) ;
#318 = LOCAL_TIME ( 7, 39, 44.00000000000000000, #267 ) ;
#319 = CARTESIAN_POINT ( 'NONE',  ( -32.50000000000000000, -9.980871413050931929E-15, 0.000000000000000000 ) ) ;
#320 = ORIENTED_EDGE ( 'NONE', *, *, #341, .F. ) ;
#321 = FACE_BOUND ( 'NONE', #132, .T. ) ;
#322 = PRODUCT_RELATED_PRODUCT_CATEGORY ( 'detail', '', ( #182 ) ) ;
#323 = ORIENTED_EDGE ( 'NONE', *, *, #173, .F. ) ;
#324 = VECTOR ( 'NONE', #15, 1000.000000000000000 ) ;
#325 = CARTESIAN_POINT ( 'NONE',  ( 31.50000000000001421, 9.613477373306723330E-15, 0.000000000000000000 ) ) ;
#326 = ORIENTED_EDGE ( 'NONE', *, *, #114, .T. ) ;
#327 = VERTEX_POINT ( 'NONE', #128 ) ;
#328 = PERSON ( 'UNSPECIFIED', 'UNSPECIFIED', 'UNSPECIFIED', ('UNSPECIFIED'), ('UNSPECIFIED'), ('UNSPECIFIED') ) ;
#329 = EDGE_CURVE ( 'NONE', #290, #284, #23, .T. ) ;
#330 = APPROVAL_STATUS ( 'not_yet_approved' ) ;
#331 = VERTEX_POINT ( 'NONE', #53 ) ;
#332 = CC_DESIGN_SECURITY_CLASSIFICATION ( #48, ( #176 ) ) ;
#333 = SHAPE_DEFINITION_REPRESENTATION ( #150, #68 ) ;
#334 = AXIS2_PLACEMENT_3D ( 'NONE', #325, #236, #103 ) ;
#335 = CARTESIAN_POINT ( 'NONE',  ( -31.50000000000000000, -9.674709713264092481E-15, 0.000000000000000000 ) ) ;
#336 = DIRECTION ( 'NONE',  ( 1.000000000000000000, 3.061616997868389058E-16, 0.000000000000000000 ) ) ;
#337 = DIRECTION ( 'NONE',  ( 1.000000000000000000, 3.061616997868382648E-16, -0.000000000000000000 ) ) ;
#338 = CC_DESIGN_APPROVAL ( #286, ( #342 ) ) ;
#339 = CIRCLE ( 'NONE', #36, 8.050000000000000711 ) ;
#340 = LOCAL_TIME ( 7, 39, 44.00000000000000000, #165 ) ;
#341 = EDGE_CURVE ( 'NONE', #345, #284, #191, .T. ) ;
#342 = PRODUCT_DEFINITION ( 'UNKNOWN', '', #176, #222 ) ;
#343 = ORGANIZATION ( 'UNSPECIFIED', 'UNSPECIFIED', '' ) ;
#344 = DIRECTION ( 'NONE',  ( 1.000000000000000000, 3.061616997868382648E-16, -0.000000000000000000 ) ) ;
#345 = VERTEX_POINT ( 'NONE', #241 ) ;
#346 = APPLICATION_CONTEXT ( 'configuration controlled 3d designs of mechanical parts and assemblies' ) ;
#347 = CYLINDRICAL_SURFACE ( 'NONE', #98, 12.49000000000000021 ) ;
#348 = CARTESIAN_POINT ( 'NONE',  ( -31.49999999999999289, -12.49000000000000909, 1.529583852135045527E-15 ) ) ;
#349 = CIRCLE ( 'NONE', #233, 11.48999999999999666 ) ;
ENDSEC;
END-ISO-10303-21;
