ISO-10303-21;
HEADER;
FILE_DESCRIPTION (( 'STEP AP203' ),
    '1' );
FILE_NAME ('3927-50-15_REV_.step',
    '2026-02-22T20:40:08',
    ( '' ),
    ( '' ),
    'SwSTEP 2.0',
    'SolidWorks 2025',
    '' );
FILE_SCHEMA (( 'CONFIG_CONTROL_DESIGN' ));
ENDSEC;

DATA;
#1 = CIRCLE ( 'NONE', #72, 30.00000000000000711 ) ;
#2 = VERTEX_POINT ( 'NONE', #224 ) ;
#3 = APPROVAL ( #162, 'UNSPECIFIED' ) ;
#4 = DIRECTION ( 'NONE',  ( 1.000000000000000000, 0.000000000000000000, 0.000000000000000000 ) ) ;
#5 = ORIENTED_EDGE ( 'NONE', *, *, #93, .T. ) ;
#6 = DIRECTION ( 'NONE',  ( 1.000000000000000000, -1.734723475976807094E-16, 0.000000000000000000 ) ) ;
#7 = ORIENTED_EDGE ( 'NONE', *, *, #279, .T. ) ;
#8 = DIRECTION ( 'NONE',  ( 1.734723475976807094E-16, 1.000000000000000000, -0.000000000000000000 ) ) ;
#9 = CC_DESIGN_PERSON_AND_ORGANIZATION_ASSIGNMENT ( #260, #39, ( #251 ) ) ;
#10 = CARTESIAN_POINT ( 'NONE',  ( 30.00000000000000000, -40.00000000000000711, -5.000000000000000000 ) ) ;
#11 = DIRECTION ( 'NONE',  ( -1.000000000000000000, 0.000000000000000000, 0.000000000000000000 ) ) ;
#12 = ORIENTED_EDGE ( 'NONE', *, *, #296, .T. ) ;
#13 = CARTESIAN_POINT ( 'NONE',  ( 0.000000000000000000, 0.000000000000000000, -5.000000000000000000 ) ) ;
#14 = AXIS2_PLACEMENT_3D ( 'NONE', #13, #153, #56 ) ;
#15 = DIRECTION ( 'NONE',  ( 0.000000000000000000, 0.000000000000000000, 1.000000000000000000 ) ) ;
#16 = APPROVAL_DATE_TIME ( #168, #3 ) ;
#17 = CYLINDRICAL_SURFACE ( 'NONE', #220, 30.00000000000000711 ) ;
#18 = CALENDAR_DATE ( 2026, 23, 2 ) ;
#19 = APPROVAL_ROLE ( '' ) ;
#20 = EDGE_CURVE ( 'NONE', #70, #52, #47, .T. ) ;
#21 =( LENGTH_UNIT ( ) NAMED_UNIT ( * ) SI_UNIT ( .MILLI., .METRE. ) );
#22 = DESIGN_CONTEXT ( 'detailed design', #194, 'design' ) ;
#23 = ORGANIZATION ( 'UNSPECIFIED', 'UNSPECIFIED', '' ) ;
#24 = EDGE_LOOP ( 'NONE', ( #74, #240, #198, #28 ) ) ;
#25 = DIRECTION ( 'NONE',  ( 0.000000000000000000, 0.000000000000000000, 1.000000000000000000 ) ) ;
#26 = ORIENTED_EDGE ( 'NONE', *, *, #97, .F. ) ;
#27 = CARTESIAN_POINT ( 'NONE',  ( -30.00000000000000711, 0.000000000000000000, -5.000000000000000000 ) ) ;
#28 = ORIENTED_EDGE ( 'NONE', *, *, #132, .T. ) ;
#29 = CIRCLE ( 'NONE', #286, 17.50000000000000355 ) ;
#30 = CARTESIAN_POINT ( 'NONE',  ( 30.00000000000000000, -40.00000000000000711, 0.000000000000000000 ) ) ;
#31 = EDGE_LOOP ( 'NONE', ( #254, #218, #50, #267 ) ) ;
#32 = DIRECTION ( 'NONE',  ( -1.000000000000000000, 0.000000000000000000, 0.000000000000000000 ) ) ;
#33 = ORIENTED_EDGE ( 'NONE', *, *, #117, .F. ) ;
#34 = DIRECTION ( 'NONE',  ( 0.000000000000000000, 0.000000000000000000, 1.000000000000000000 ) ) ;
#35 = LINE ( 'NONE', #182, #118 ) ;
#36 =( NAMED_UNIT ( * ) PLANE_ANGLE_UNIT ( ) SI_UNIT ( $, .RADIAN. ) );
#37 = CARTESIAN_POINT ( 'NONE',  ( 30.00000000000000711, -3.673940397442060756E-15, -5.000000000000000000 ) ) ;
#38 = EDGE_CURVE ( 'NONE', #222, #55, #130, .T. ) ;
#39 = PERSON_AND_ORGANIZATION_ROLE ( 'classification_officer' ) ;
#40 = CARTESIAN_POINT ( 'NONE',  ( -30.00000000000000000, -40.00000000000000711, 0.000000000000000000 ) ) ;
#41 = AXIS2_PLACEMENT_3D ( 'NONE', #78, #6, #101 ) ;
#42 = DATE_AND_TIME ( #264, #313 ) ;
#43 = EDGE_CURVE ( 'NONE', #55, #305, #252, .T. ) ;
#44 = VECTOR ( 'NONE', #75, 1000.000000000000000 ) ;
#45 = ORIENTED_EDGE ( 'NONE', *, *, #38, .T. ) ;
#46 = ORIENTED_EDGE ( 'NONE', *, *, #279, .F. ) ;
#47 = CIRCLE ( 'NONE', #229, 30.00000000000000711 ) ;
#48 = CIRCLE ( 'NONE', #121, 17.50000000000000355 ) ;
#49 = DIRECTION ( 'NONE',  ( 1.000000000000000000, 0.000000000000000000, 0.000000000000000000 ) ) ;
#50 = ORIENTED_EDGE ( 'NONE', *, *, #97, .T. ) ;
#51 = FACE_OUTER_BOUND ( 'NONE', #31, .T. ) ;
#52 = VERTEX_POINT ( 'NONE', #178 ) ;
#53 = ADVANCED_FACE ( 'NONE', ( #86 ), #84, .T. ) ;
#54 = CARTESIAN_POINT ( 'NONE',  ( 30.00000000000000711, -3.673940397442060756E-15, 0.000000000000000000 ) ) ;
#55 = VERTEX_POINT ( 'NONE', #310 ) ;
#56 = DIRECTION ( 'NONE',  ( 1.000000000000000000, 0.000000000000000000, 0.000000000000000000 ) ) ;
#57 = CARTESIAN_POINT ( 'NONE',  ( 0.000000000000000000, 0.000000000000000000, 0.000000000000000000 ) ) ;
#58 = FACE_OUTER_BOUND ( 'NONE', #203, .T. ) ;
#59 = DIRECTION ( 'NONE',  ( -1.000000000000000000, -1.734723475976807094E-16, 0.000000000000000000 ) ) ;
#60 = PLANE ( 'NONE',  #294 ) ;
#61 = PERSON_AND_ORGANIZATION_ROLE ( 'design_supplier' ) ;
#62 = CC_DESIGN_APPROVAL ( #68, ( #232 ) ) ;
#63 = DIRECTION ( 'NONE',  ( 0.000000000000000000, 0.000000000000000000, 1.000000000000000000 ) ) ;
#64 = APPROVAL ( #287, 'UNSPECIFIED' ) ;
#65 = LOCAL_TIME ( 7, 40, 8.000000000000000000, #141 ) ;
#66 = APPLICATION_CONTEXT ( 'configuration controlled 3d designs of mechanical parts and assemblies' ) ;
#67 = CALENDAR_DATE ( 2026, 23, 2 ) ;
#68 = APPROVAL ( #89, 'UNSPECIFIED' ) ;
#69 = EDGE_CURVE ( 'NONE', #52, #303, #35, .T. ) ;
#70 = VERTEX_POINT ( 'NONE', #283 ) ;
#71 = AXIS2_PLACEMENT_3D ( 'NONE', #307, #59, #163 ) ;
#72 = AXIS2_PLACEMENT_3D ( 'NONE', #129, #199, #131 ) ;
#73 = LINE ( 'NONE', #172, #189 ) ;
#74 = ORIENTED_EDGE ( 'NONE', *, *, #93, .F. ) ;
#75 = DIRECTION ( 'NONE',  ( 0.000000000000000000, 0.000000000000000000, 1.000000000000000000 ) ) ;
#76 = CC_DESIGN_DATE_AND_TIME_ASSIGNMENT ( #113, #208, ( #251 ) ) ;
#77 = ORIENTED_EDGE ( 'NONE', *, *, #292, .T. ) ;
#78 = CARTESIAN_POINT ( 'NONE',  ( 30.00000000000000711, -3.673940397442060756E-15, -5.000000000000000000 ) ) ;
#79 = DIRECTION ( 'NONE',  ( 1.000000000000000000, -0.000000000000000000, -0.000000000000000000 ) ) ;
#80 = LINE ( 'NONE', #179, #44 ) ;
#81 = DIRECTION ( 'NONE',  ( 0.000000000000000000, -1.000000000000000000, 0.000000000000000000 ) ) ;
#82 = ADVANCED_FACE ( 'NONE', ( #111 ), #60, .T. ) ;
#83 = DIRECTION ( 'NONE',  ( 0.000000000000000000, 0.000000000000000000, 1.000000000000000000 ) ) ;
#84 = PLANE ( 'NONE',  #71 ) ;
#85 = MECHANICAL_CONTEXT ( 'NONE', #66, 'mechanical' ) ;
#86 = FACE_OUTER_BOUND ( 'NONE', #246, .T. ) ;
#87 = CIRCLE ( 'NONE', #128, 17.50000000000000355 ) ;
#88 = SECURITY_CLASSIFICATION_LEVEL ( 'unclassified' ) ;
#89 = APPROVAL_STATUS ( 'not_yet_approved' ) ;
#90 = APPROVAL_DATE_TIME ( #312, #68 ) ;
#91 = PERSON_AND_ORGANIZATION_ROLE ( 'design_owner' ) ;
#92 = VECTOR ( 'NONE', #83, 1000.000000000000000 ) ;
#93 = EDGE_CURVE ( 'NONE', #99, #2, #258, .T. ) ;
#94 = APPROVAL_PERSON_ORGANIZATION ( #186, #64, #169 ) ;
#95 = VECTOR ( 'NONE', #201, 1000.000000000000000 ) ;
#96 = ORIENTED_EDGE ( 'NONE', *, *, #43, .T. ) ;
#97 = EDGE_CURVE ( 'NONE', #305, #301, #230, .T. ) ;
#98 = DIRECTION ( 'NONE',  ( 0.000000000000000000, 0.000000000000000000, 1.000000000000000000 ) ) ;
#99 = VERTEX_POINT ( 'NONE', #234 ) ;
#100 = CC_DESIGN_PERSON_AND_ORGANIZATION_ASSIGNMENT ( #284, #61, ( #268 ) ) ;
#101 = DIRECTION ( 'NONE',  ( 1.734723475976807094E-16, 1.000000000000000000, 0.000000000000000000 ) ) ;
#102 = EDGE_LOOP ( 'NONE', ( #124, #145 ) ) ;
#103 = CARTESIAN_POINT ( 'NONE',  ( 30.00000000000000711, -3.673940397442060756E-15, -5.000000000000000000 ) ) ;
#104 = ORIENTED_EDGE ( 'NONE', *, *, #184, .T. ) ;
#105 = FACE_BOUND ( 'NONE', #159, .T. ) ;
#106 = EDGE_LOOP ( 'NONE', ( #127, #298, #26, #216 ) ) ;
#107 = AXIS2_PLACEMENT_3D ( 'NONE', #167, #63, #211 ) ;
#108 = LINE ( 'NONE', #123, #92 ) ;
#109 = FACE_OUTER_BOUND ( 'NONE', #196, .T. ) ;
#110 = COORDINATED_UNIVERSAL_TIME_OFFSET ( 10, 0, .AHEAD. ) ;
#111 = FACE_OUTER_BOUND ( 'NONE', #227, .T. ) ;
#112 = ADVANCED_FACE ( 'NONE', ( #109 ), #17, .T. ) ;
#113 = DATE_AND_TIME ( #18, #65 ) ;
#114 = CALENDAR_DATE ( 2026, 23, 2 ) ;
#115 = AXIS2_PLACEMENT_3D ( 'NONE', #253, #204, #32 ) ;
#116 = PERSON_AND_ORGANIZATION ( #143, #23 ) ;
#117 = EDGE_CURVE ( 'NONE', #55, #303, #257, .T. ) ;
#118 = VECTOR ( 'NONE', #185, 1000.000000000000000 ) ;
#119 = APPROVAL_PERSON_ORGANIZATION ( #311, #3, #233 ) ;
#120 = SHAPE_DEFINITION_REPRESENTATION ( #300, #265 ) ;
#121 = AXIS2_PLACEMENT_3D ( 'NONE', #197, #299, #272 ) ;
#122 = ORIENTED_EDGE ( 'NONE', *, *, #20, .F. ) ;
#123 = CARTESIAN_POINT ( 'NONE',  ( 30.00000000000000711, -3.673940397442060756E-15, -5.000000000000000000 ) ) ;
#124 = ORIENTED_EDGE ( 'NONE', *, *, #132, .F. ) ;
#125 = CC_DESIGN_PERSON_AND_ORGANIZATION_ASSIGNMENT ( #210, #188, ( #232 ) ) ;
#126 = PLANE ( 'NONE',  #41 ) ;
#127 = ORIENTED_EDGE ( 'NONE', *, *, #38, .F. ) ;
#128 = AXIS2_PLACEMENT_3D ( 'NONE', #219, #25, #4 ) ;
#129 = CARTESIAN_POINT ( 'NONE',  ( 0.000000000000000000, 0.000000000000000000, -5.000000000000000000 ) ) ;
#130 = LINE ( 'NONE', #273, #136 ) ;
#131 = DIRECTION ( 'NONE',  ( -1.000000000000000000, 0.000000000000000000, 0.000000000000000000 ) ) ;
#132 = EDGE_CURVE ( 'NONE', #171, #2, #87, .T. ) ;
#133 = ORIENTED_EDGE ( 'NONE', *, *, #249, .T. ) ;
#134 = DIRECTION ( 'NONE',  ( 1.000000000000000000, 0.000000000000000000, 0.000000000000000000 ) ) ;
#135 = DIRECTION ( 'NONE',  ( 0.000000000000000000, -0.000000000000000000, -1.000000000000000000 ) ) ;
#136 = VECTOR ( 'NONE', #156, 1000.000000000000000 ) ;
#137 = APPROVAL_PERSON_ORGANIZATION ( #183, #68, #19 ) ;
#138 =( NAMED_UNIT ( * ) SI_UNIT ( $, .STERADIAN. ) SOLID_ANGLE_UNIT ( ) );
#139 = DIRECTION ( 'NONE',  ( 1.734723475976807094E-16, 1.000000000000000000, -0.000000000000000000 ) ) ;
#140 = ADVANCED_FACE ( 'NONE', ( #195 ), #181, .F. ) ;
#141 = COORDINATED_UNIVERSAL_TIME_OFFSET ( 10, 0, .AHEAD. ) ;
#142 = EDGE_CURVE ( 'NONE', #301, #70, #108, .T. ) ;
#143 = PERSON ( 'UNSPECIFIED', 'UNSPECIFIED', 'UNSPECIFIED', ('UNSPECIFIED'), ('UNSPECIFIED'), ('UNSPECIFIED') ) ;
#144 = CARTESIAN_POINT ( 'NONE',  ( 30.00000000000000000, -40.00000000000000711, -5.000000000000000000 ) ) ;
#145 = ORIENTED_EDGE ( 'NONE', *, *, #184, .F. ) ;
#146 = VECTOR ( 'NONE', #158, 1000.000000000000000 ) ;
#147 = VECTOR ( 'NONE', #8, 1000.000000000000000 ) ;
#148 = VERTEX_POINT ( 'NONE', #176 ) ;
#149 = ORIENTED_EDGE ( 'NONE', *, *, #235, .F. ) ;
#150 = PLANE ( 'NONE',  #115 ) ;
#151 = ADVANCED_FACE ( 'NONE', ( #105, #275 ), #150, .T. ) ;
#152 = ORIENTED_EDGE ( 'NONE', *, *, #20, .T. ) ;
#153 = DIRECTION ( 'NONE',  ( 0.000000000000000000, 0.000000000000000000, 1.000000000000000000 ) ) ;
#154 = ORIENTED_EDGE ( 'NONE', *, *, #308, .F. ) ;
#155 = DIRECTION ( 'NONE',  ( 0.000000000000000000, 0.000000000000000000, 1.000000000000000000 ) ) ;
#156 = DIRECTION ( 'NONE',  ( 1.734723475976807094E-16, -1.000000000000000000, 0.000000000000000000 ) ) ;
#157 =( GEOMETRIC_REPRESENTATION_CONTEXT ( 3 ) GLOBAL_UNCERTAINTY_ASSIGNED_CONTEXT ( ( #274 ) ) GLOBAL_UNIT_ASSIGNED_CONTEXT ( ( #21, #36, #138 ) ) REPRESENTATION_CONTEXT ( 'NONE', 'WORKASPACE' ) );
#158 = DIRECTION ( 'NONE',  ( 0.000000000000000000, 0.000000000000000000, 1.000000000000000000 ) ) ;
#159 = EDGE_LOOP ( 'NONE', ( #271, #77 ) ) ;
#160 = DIRECTION ( 'NONE',  ( -0.000000000000000000, 0.000000000000000000, -1.000000000000000000 ) ) ;
#161 = DIRECTION ( 'NONE',  ( 1.000000000000000000, 0.000000000000000000, 0.000000000000000000 ) ) ;
#162 = APPROVAL_STATUS ( 'not_yet_approved' ) ;
#163 = DIRECTION ( 'NONE',  ( 1.734723475976807094E-16, -1.000000000000000000, 0.000000000000000000 ) ) ;
#164 = VECTOR ( 'NONE', #139, 1000.000000000000000 ) ;
#165 = LINE ( 'NONE', #262, #231 ) ;
#166 = CC_DESIGN_PERSON_AND_ORGANIZATION_ASSIGNMENT ( #206, #309, ( #268 ) ) ;
#167 = CARTESIAN_POINT ( 'NONE',  ( 0.000000000000000000, 0.000000000000000000, 0.000000000000000000 ) ) ;
#168 = DATE_AND_TIME ( #288, #263 ) ;
#169 = APPROVAL_ROLE ( '' ) ;
#170 = ORIENTED_EDGE ( 'NONE', *, *, #117, .T. ) ;
#171 = VERTEX_POINT ( 'NONE', #306 ) ;
#172 = CARTESIAN_POINT ( 'NONE',  ( -30.00000000000000711, 0.000000000000000000, -5.000000000000000000 ) ) ;
#173 = DIRECTION ( 'NONE',  ( 0.000000000000000000, 0.000000000000000000, 1.000000000000000000 ) ) ;
#174 = CARTESIAN_POINT ( 'NONE',  ( 0.000000000000000000, 0.000000000000000000, -5.000000000000000000 ) ) ;
#175 = DIRECTION ( 'NONE',  ( -1.000000000000000000, 0.000000000000000000, 0.000000000000000000 ) ) ;
#176 = CARTESIAN_POINT ( 'NONE',  ( 17.50000000000000355, 0.000000000000000000, -5.000000000000000000 ) ) ;
#177 = PRODUCT ( '3927-50-15_REV_', '3927-50-15_REV_', '', ( #85 ) ) ;
#178 = CARTESIAN_POINT ( 'NONE',  ( -30.00000000000000711, 0.000000000000000000, 0.000000000000000000 ) ) ;
#179 = CARTESIAN_POINT ( 'NONE',  ( 30.00000000000000000, -40.00000000000000711, -5.000000000000000000 ) ) ;
#180 = CARTESIAN_POINT ( 'NONE',  ( -17.50000000000000355, 2.143131898507868643E-15, -5.000000000000000000 ) ) ;
#181 = CYLINDRICAL_SURFACE ( 'NONE', #14, 17.50000000000000355 ) ;
#182 = CARTESIAN_POINT ( 'NONE',  ( -30.00000000000000711, -3.673940397442060756E-15, 0.000000000000000000 ) ) ;
#183 = PERSON_AND_ORGANIZATION ( #143, #23 ) ;
#184 = EDGE_CURVE ( 'NONE', #2, #171, #191, .T. ) ;
#185 = DIRECTION ( 'NONE',  ( 1.734723475976807094E-16, -1.000000000000000000, 0.000000000000000000 ) ) ;
#186 = PERSON_AND_ORGANIZATION ( #143, #23 ) ;
#187 = COORDINATED_UNIVERSAL_TIME_OFFSET ( 10, 0, .AHEAD. ) ;
#188 = PERSON_AND_ORGANIZATION_ROLE ( 'creator' ) ;
#189 = VECTOR ( 'NONE', #270, 1000.000000000000000 ) ;
#190 = EDGE_CURVE ( 'NONE', #301, #222, #1, .T. ) ;
#191 = CIRCLE ( 'NONE', #243, 17.50000000000000355 ) ;
#192 = CC_DESIGN_PERSON_AND_ORGANIZATION_ASSIGNMENT ( #116, #91, ( #177 ) ) ;
#193 = ORIENTED_EDGE ( 'NONE', *, *, #69, .T. ) ;
#194 = APPLICATION_CONTEXT ( 'configuration controlled 3d designs of mechanical parts and assemblies' ) ;
#195 = FACE_OUTER_BOUND ( 'NONE', #24, .T. ) ;
#196 = EDGE_LOOP ( 'NONE', ( #122, #248, #278, #7 ) ) ;
#197 = CARTESIAN_POINT ( 'NONE',  ( 0.000000000000000000, 0.000000000000000000, -5.000000000000000000 ) ) ;
#198 = ORIENTED_EDGE ( 'NONE', *, *, #308, .T. ) ;
#199 = DIRECTION ( 'NONE',  ( 0.000000000000000000, 0.000000000000000000, 1.000000000000000000 ) ) ;
#200 = ORIENTED_EDGE ( 'NONE', *, *, #235, .T. ) ;
#201 = DIRECTION ( 'NONE',  ( 1.000000000000000000, -0.000000000000000000, -0.000000000000000000 ) ) ;
#202 = CLOSED_SHELL ( 'NONE', ( #256, #53, #112, #291, #82, #151, #213, #140 ) ) ;
#203 = EDGE_LOOP ( 'NONE', ( #193, #200, #12, #152 ) ) ;
#204 = DIRECTION ( 'NONE',  ( -0.000000000000000000, 0.000000000000000000, -1.000000000000000000 ) ) ;
#205 = CARTESIAN_POINT ( 'NONE',  ( 30.00000000000000000, -40.00000000000000711, -5.000000000000000000 ) ) ;
#206 = PERSON_AND_ORGANIZATION ( #143, #23 ) ;
#207 = CARTESIAN_POINT ( 'NONE',  ( 0.000000000000000000, 0.000000000000000000, -5.000000000000000000 ) ) ;
#208 = DATE_TIME_ROLE ( 'classification_date' ) ;
#209 = AXIS2_PLACEMENT_3D ( 'NONE', #174, #98, #297 ) ;
#210 = PERSON_AND_ORGANIZATION ( #143, #23 ) ;
#211 = DIRECTION ( 'NONE',  ( 1.000000000000000000, 0.000000000000000000, 0.000000000000000000 ) ) ;
#212 = VECTOR ( 'NONE', #79, 1000.000000000000000 ) ;
#213 = ADVANCED_FACE ( 'NONE', ( #247, #58 ), #302, .F. ) ;
#214 = DATE_AND_TIME ( #67, #295 ) ;
#215 = CC_DESIGN_DATE_AND_TIME_ASSIGNMENT ( #42, #282, ( #232 ) ) ;
#216 = ORIENTED_EDGE ( 'NONE', *, *, #43, .F. ) ;
#217 = CYLINDRICAL_SURFACE ( 'NONE', #209, 17.50000000000000355 ) ;
#218 = ORIENTED_EDGE ( 'NONE', *, *, #249, .F. ) ;
#219 = CARTESIAN_POINT ( 'NONE',  ( 0.000000000000000000, 0.000000000000000000, 0.000000000000000000 ) ) ;
#220 = AXIS2_PLACEMENT_3D ( 'NONE', #207, #281, #161 ) ;
#221 = CC_DESIGN_APPROVAL ( #3, ( #268 ) ) ;
#222 = VERTEX_POINT ( 'NONE', #27 ) ;
#223 = LINE ( 'NONE', #54, #147 ) ;
#224 = CARTESIAN_POINT ( 'NONE',  ( -17.50000000000000355, 2.143131898507868643E-15, 0.000000000000000000 ) ) ;
#225 = MANIFOLD_SOLID_BREP ( 'Base-Flange1', #202 ) ;
#226 = CARTESIAN_POINT ( 'NONE',  ( 0.000000000000000000, 0.000000000000000000, 0.000000000000000000 ) ) ;
#227 = EDGE_LOOP ( 'NONE', ( #149, #33, #96, #133 ) ) ;
#228 = CARTESIAN_POINT ( 'NONE',  ( -30.00000000000000000, -40.00000000000000711, -5.000000000000000000 ) ) ;
#229 = AXIS2_PLACEMENT_3D ( 'NONE', #57, #173, #175 ) ;
#230 = LINE ( 'NONE', #37, #164 ) ;
#231 = VECTOR ( 'NONE', #238, 1000.000000000000000 ) ;
#232 = PRODUCT_DEFINITION ( 'UNKNOWN', '', #268, #22 ) ;
#233 = APPROVAL_ROLE ( '' ) ;
#234 = CARTESIAN_POINT ( 'NONE',  ( -17.50000000000000355, 2.143131898507868643E-15, -5.000000000000000000 ) ) ;
#235 = EDGE_CURVE ( 'NONE', #303, #293, #245, .T. ) ;
#236 = APPLICATION_PROTOCOL_DEFINITION ( 'international standard', 'config_control_design', 1994, #194 ) ;
#237 = COORDINATED_UNIVERSAL_TIME_OFFSET ( 10, 0, .AHEAD. ) ;
#238 = DIRECTION ( 'NONE',  ( 0.000000000000000000, 0.000000000000000000, 1.000000000000000000 ) ) ;
#239 = COORDINATED_UNIVERSAL_TIME_OFFSET ( 10, 0, .AHEAD. ) ;
#240 = ORIENTED_EDGE ( 'NONE', *, *, #261, .F. ) ;
#241 = ORIENTED_EDGE ( 'NONE', *, *, #69, .F. ) ;
#242 = APPROVAL_DATE_TIME ( #214, #64 ) ;
#243 = AXIS2_PLACEMENT_3D ( 'NONE', #250, #155, #49 ) ;
#244 = ORIENTED_EDGE ( 'NONE', *, *, #292, .F. ) ;
#245 = LINE ( 'NONE', #304, #95 ) ;
#246 = EDGE_LOOP ( 'NONE', ( #241, #46, #45, #170 ) ) ;
#247 = FACE_BOUND ( 'NONE', #102, .T. ) ;
#248 = ORIENTED_EDGE ( 'NONE', *, *, #142, .F. ) ;
#249 = EDGE_CURVE ( 'NONE', #305, #293, #80, .T. ) ;
#250 = CARTESIAN_POINT ( 'NONE',  ( 0.000000000000000000, 0.000000000000000000, 0.000000000000000000 ) ) ;
#251 = SECURITY_CLASSIFICATION ( '', '', #88 ) ;
#252 = LINE ( 'NONE', #10, #212 ) ;
#253 = CARTESIAN_POINT ( 'NONE',  ( 0.000000000000000000, 0.000000000000000000, -5.000000000000000000 ) ) ;
#254 = ORIENTED_EDGE ( 'NONE', *, *, #296, .F. ) ;
#255 = CARTESIAN_POINT ( 'NONE',  ( 0.000000000000000000, 0.000000000000000000, -5.000000000000000000 ) ) ;
#256 = ADVANCED_FACE ( 'NONE', ( #280 ), #217, .F. ) ;
#257 = LINE ( 'NONE', #228, #146 ) ;
#258 = LINE ( 'NONE', #180, #285 ) ;
#259 = AXIS2_PLACEMENT_3D ( 'NONE', #226, #160, #11 ) ;
#260 = PERSON_AND_ORGANIZATION ( #143, #23 ) ;
#261 = EDGE_CURVE ( 'NONE', #148, #99, #29, .T. ) ;
#262 = CARTESIAN_POINT ( 'NONE',  ( 17.50000000000000355, 0.000000000000000000, -5.000000000000000000 ) ) ;
#263 = LOCAL_TIME ( 7, 40, 8.000000000000000000, #187 ) ;
#264 = CALENDAR_DATE ( 2026, 23, 2 ) ;
#265 = ADVANCED_BREP_SHAPE_REPRESENTATION ( '3927-50-15_REV_', ( #225, #107 ), #157 ) ;
#266 = PRODUCT_RELATED_PRODUCT_CATEGORY ( 'detail', '', ( #177 ) ) ;
#267 = ORIENTED_EDGE ( 'NONE', *, *, #142, .T. ) ;
#268 = PRODUCT_DEFINITION_FORMATION_WITH_SPECIFIED_SOURCE ( 'ANY', '', #177, .NOT_KNOWN. ) ;
#269 = EDGE_LOOP ( 'NONE', ( #244, #5, #104, #154 ) ) ;
#270 = DIRECTION ( 'NONE',  ( 0.000000000000000000, 0.000000000000000000, 1.000000000000000000 ) ) ;
#271 = ORIENTED_EDGE ( 'NONE', *, *, #261, .T. ) ;
#272 = DIRECTION ( 'NONE',  ( 1.000000000000000000, 0.000000000000000000, 0.000000000000000000 ) ) ;
#273 = CARTESIAN_POINT ( 'NONE',  ( -30.00000000000000711, -3.673940397442060756E-15, -5.000000000000000000 ) ) ;
#274 = UNCERTAINTY_MEASURE_WITH_UNIT (LENGTH_MEASURE( 1.000000000000000082E-05 ), #21, 'distance_accuracy_value', 'NONE');
#275 = FACE_OUTER_BOUND ( 'NONE', #106, .T. ) ;
#276 = CC_DESIGN_SECURITY_CLASSIFICATION ( #251, ( #268 ) ) ;
#277 = LOCAL_TIME ( 7, 40, 8.000000000000000000, #110 ) ;
#278 = ORIENTED_EDGE ( 'NONE', *, *, #190, .T. ) ;
#279 = EDGE_CURVE ( 'NONE', #222, #52, #73, .T. ) ;
#280 = FACE_OUTER_BOUND ( 'NONE', #269, .T. ) ;
#281 = DIRECTION ( 'NONE',  ( 0.000000000000000000, 0.000000000000000000, 1.000000000000000000 ) ) ;
#282 = DATE_TIME_ROLE ( 'creation_date' ) ;
#283 = CARTESIAN_POINT ( 'NONE',  ( 30.00000000000000711, -3.673940397442060756E-15, 0.000000000000000000 ) ) ;
#284 = PERSON_AND_ORGANIZATION ( #143, #23 ) ;
#285 = VECTOR ( 'NONE', #15, 1000.000000000000000 ) ;
#286 = AXIS2_PLACEMENT_3D ( 'NONE', #255, #34, #134 ) ;
#287 = APPROVAL_STATUS ( 'not_yet_approved' ) ;
#288 = CALENDAR_DATE ( 2026, 23, 2 ) ;
#289 = APPLICATION_PROTOCOL_DEFINITION ( 'international standard', 'config_control_design', 1994, #66 ) ;
#290 = CC_DESIGN_APPROVAL ( #64, ( #251 ) ) ;
#291 = ADVANCED_FACE ( 'NONE', ( #51 ), #126, .T. ) ;
#292 = EDGE_CURVE ( 'NONE', #99, #148, #48, .T. ) ;
#293 = VERTEX_POINT ( 'NONE', #30 ) ;
#294 = AXIS2_PLACEMENT_3D ( 'NONE', #205, #81, #135 ) ;
#295 = LOCAL_TIME ( 7, 40, 8.000000000000000000, #239 ) ;
#296 = EDGE_CURVE ( 'NONE', #293, #70, #223, .T. ) ;
#297 = DIRECTION ( 'NONE',  ( 1.000000000000000000, 0.000000000000000000, 0.000000000000000000 ) ) ;
#298 = ORIENTED_EDGE ( 'NONE', *, *, #190, .F. ) ;
#299 = DIRECTION ( 'NONE',  ( 0.000000000000000000, 0.000000000000000000, 1.000000000000000000 ) ) ;
#300 = PRODUCT_DEFINITION_SHAPE ( 'NONE', 'NONE',  #232 ) ;
#301 = VERTEX_POINT ( 'NONE', #103 ) ;
#302 = PLANE ( 'NONE',  #259 ) ;
#303 = VERTEX_POINT ( 'NONE', #40 ) ;
#304 = CARTESIAN_POINT ( 'NONE',  ( 30.00000000000000000, -40.00000000000000711, 0.000000000000000000 ) ) ;
#305 = VERTEX_POINT ( 'NONE', #144 ) ;
#306 = CARTESIAN_POINT ( 'NONE',  ( 17.50000000000000355, 0.000000000000000000, 0.000000000000000000 ) ) ;
#307 = CARTESIAN_POINT ( 'NONE',  ( -30.00000000000000711, -3.673940397442060756E-15, -5.000000000000000000 ) ) ;
#308 = EDGE_CURVE ( 'NONE', #148, #171, #165, .T. ) ;
#309 = PERSON_AND_ORGANIZATION_ROLE ( 'creator' ) ;
#310 = CARTESIAN_POINT ( 'NONE',  ( -30.00000000000000000, -40.00000000000000711, -5.000000000000000000 ) ) ;
#311 = PERSON_AND_ORGANIZATION ( #143, #23 ) ;
#312 = DATE_AND_TIME ( #114, #277 ) ;
#313 = LOCAL_TIME ( 7, 40, 8.000000000000000000, #237 ) ;
ENDSEC;
END-ISO-10303-21;
