ISO-10303-21;
HEADER;
FILE_DESCRIPTION (( 'STEP AP203' ),
    '1' );
FILE_NAME ('3982-36-10_REV_.step',
    '2026-01-19T06:01:44',
    ( '' ),
    ( '' ),
    'SwSTEP 2.0',
    'SolidWorks 2025',
    '' );
FILE_SCHEMA (( 'CONFIG_CONTROL_DESIGN' ));
ENDSEC;

DATA;
#1 = PERSON_AND_ORGANIZATION ( #51, #79 ) ;
#2 = CC_DESIGN_APPROVAL ( #55, ( #100 ) ) ;
#3 = CC_DESIGN_DATE_AND_TIME_ASSIGNMENT ( #37, #25, ( #100 ) ) ;
#4 = PRODUCT_RELATED_PRODUCT_CATEGORY ( 'detail', '', ( #132 ) ) ;
#5 = ORIENTED_EDGE ( 'NONE', *, *, #113, .T. ) ;
#6 = CARTESIAN_POINT ( 'NONE',  ( -1867.499999999999773, 0.000000000000000000, 0.000000000000000000 ) ) ;
#7 = ORIENTED_EDGE ( 'NONE', *, *, #151, .F. ) ;
#8 = CARTESIAN_POINT ( 'NONE',  ( 1867.499999999999773, 6.861083692223044375E-13, 0.000000000000000000 ) ) ;
#9 = CC_DESIGN_APPROVAL ( #128, ( #16 ) ) ;
#10 = APPROVAL ( #145, 'UNSPECIFIED' ) ;
#11 = DIRECTION ( 'NONE',  ( 1.000000000000000000, 1.836970198721029688E-16, 0.000000000000000000 ) ) ;
#12 = DATE_AND_TIME ( #74, #86 ) ;
#13 = DATE_AND_TIME ( #111, #147 ) ;
#14 = APPROVAL_ROLE ( '' ) ;
#15 = AXIS2_PLACEMENT_3D ( 'NONE', #91, #33, #92 ) ;
#16 = PRODUCT_DEFINITION_FORMATION_WITH_SPECIFIED_SOURCE ( 'ANY', '', #132, .NOT_KNOWN. ) ;
#17 = CYLINDRICAL_SURFACE ( 'NONE', #158, 6.000000000000000888 ) ;
#18 = DIRECTION ( 'NONE',  ( 1.000000000000000000, 1.836970198721029688E-16, 0.000000000000000000 ) ) ;
#19 = ORIENTED_EDGE ( 'NONE', *, *, #120, .T. ) ;
#20 = EDGE_LOOP ( 'NONE', ( #7, #44 ) ) ;
#21 = CC_DESIGN_PERSON_AND_ORGANIZATION_ASSIGNMENT ( #112, #85, ( #100 ) ) ;
#22 = ORIENTED_EDGE ( 'NONE', *, *, #151, .T. ) ;
#23 = LOCAL_TIME ( 17, 1, 44.00000000000000000, #64 ) ;
#24 = CARTESIAN_POINT ( 'NONE',  ( 0.000000000000000000, 0.000000000000000000, 0.000000000000000000 ) ) ;
#25 = DATE_TIME_ROLE ( 'creation_date' ) ;
#26 = APPLICATION_CONTEXT ( 'configuration controlled 3d designs of mechanical parts and assemblies' ) ;
#27 = COORDINATED_UNIVERSAL_TIME_OFFSET ( 10, 0, .AHEAD. ) ;
#28 = DIRECTION ( 'NONE',  ( 1.000000000000000000, 0.000000000000000000, 0.000000000000000000 ) ) ;
#29 = APPROVAL_PERSON_ORGANIZATION ( #99, #10, #60 ) ;
#30 = CARTESIAN_POINT ( 'NONE',  ( 1867.499999999999773, -5.999999999999315214, 0.000000000000000000 ) ) ;
#31 = CARTESIAN_POINT ( 'NONE',  ( -1867.499999999999773, 0.000000000000000000, 0.000000000000000000 ) ) ;
#32 = AXIS2_PLACEMENT_3D ( 'NONE', #24, #77, #28 ) ;
#33 = DIRECTION ( 'NONE',  ( -1.000000000000000000, -1.836970198721029688E-16, -0.000000000000000000 ) ) ;
#34 = ORIENTED_EDGE ( 'NONE', *, *, #76, .T. ) ;
#35 = ORIENTED_EDGE ( 'NONE', *, *, #63, .T. ) ;
#36 = APPROVAL_STATUS ( 'not_yet_approved' ) ;
#37 = DATE_AND_TIME ( #140, #144 ) ;
#38 = PERSON_AND_ORGANIZATION_ROLE ( 'classification_officer' ) ;
#39 = LOCAL_TIME ( 17, 1, 44.00000000000000000, #27 ) ;
#40 = APPLICATION_CONTEXT ( 'configuration controlled 3d designs of mechanical parts and assemblies' ) ;
#41 = FACE_OUTER_BOUND ( 'NONE', #20, .T. ) ;
#42 = DIRECTION ( 'NONE',  ( 1.000000000000000000, 1.836970198721029688E-16, 0.000000000000000000 ) ) ;
#43 = APPROVAL_PERSON_ORGANIZATION ( #1, #128, #84 ) ;
#44 = ORIENTED_EDGE ( 'NONE', *, *, #69, .F. ) ;
#45 = FACE_OUTER_BOUND ( 'NONE', #93, .T. ) ;
#46 = LINE ( 'NONE', #30, #83 ) ;
#47 = SHAPE_DEFINITION_REPRESENTATION ( #78, #164 ) ;
#48 = AXIS2_PLACEMENT_3D ( 'NONE', #57, #18, #107 ) ;
#49 = PERSON_AND_ORGANIZATION ( #51, #79 ) ;
#50 = CALENDAR_DATE ( 2026, 19, 1 ) ;
#51 = PERSON ( 'UNSPECIFIED', 'UNSPECIFIED', 'UNSPECIFIED', ('UNSPECIFIED'), ('UNSPECIFIED'), ('UNSPECIFIED') ) ;
#52 = PERSON_AND_ORGANIZATION ( #51, #79 ) ;
#53 = DIRECTION ( 'NONE',  ( 1.000000000000000000, 1.836970198721029688E-16, 0.000000000000000000 ) ) ;
#54 = DIRECTION ( 'NONE',  ( 0.000000000000000000, 1.000000000000000000, 0.000000000000000000 ) ) ;
#55 = APPROVAL ( #96, 'UNSPECIFIED' ) ;
#56 = CARTESIAN_POINT ( 'NONE',  ( 1867.499999999999773, 6.861083692223044375E-13, 0.000000000000000000 ) ) ;
#57 = CARTESIAN_POINT ( 'NONE',  ( -1867.499999999999773, 0.000000000000000000, 0.000000000000000000 ) ) ;
#58 = DIRECTION ( 'NONE',  ( -1.836970198721029688E-16, 1.000000000000000000, 0.000000000000000000 ) ) ;
#59 = ADVANCED_FACE ( 'NONE', ( #45 ), #136, .T. ) ;
#60 = APPROVAL_ROLE ( '' ) ;
#61 = AXIS2_PLACEMENT_3D ( 'NONE', #71, #53, #103 ) ;
#62 = APPROVAL_DATE_TIME ( #13, #128 ) ;
#63 = EDGE_CURVE ( 'NONE', #135, #155, #133, .T. ) ;
#64 = COORDINATED_UNIVERSAL_TIME_OFFSET ( 10, 0, .AHEAD. ) ;
#65 = CC_DESIGN_SECURITY_CLASSIFICATION ( #66, ( #16 ) ) ;
#66 = SECURITY_CLASSIFICATION ( '', '', #97 ) ;
#67 = UNCERTAINTY_MEASURE_WITH_UNIT (LENGTH_MEASURE( 1.000000000000000082E-05 ), #154, 'distance_accuracy_value', 'NONE');
#68 = EDGE_LOOP ( 'NONE', ( #90, #121, #5, #22 ) ) ;
#69 = EDGE_CURVE ( 'NONE', #80, #114, #102, .T. ) ;
#70 = CARTESIAN_POINT ( 'NONE',  ( -1867.499999999999773, -6.000000000000000888, 0.000000000000000000 ) ) ;
#71 = CARTESIAN_POINT ( 'NONE',  ( 1867.499999999999773, 6.861083692223044375E-13, 0.000000000000000000 ) ) ;
#72 = ORIENTED_EDGE ( 'NONE', *, *, #63, .F. ) ;
#73 = EDGE_LOOP ( 'NONE', ( #72, #34, #129, #82 ) ) ;
#74 = CALENDAR_DATE ( 2026, 19, 1 ) ;
#75 = APPROVAL_DATE_TIME ( #173, #55 ) ;
#76 = EDGE_CURVE ( 'NONE', #135, #80, #149, .T. ) ;
#77 = DIRECTION ( 'NONE',  ( 0.000000000000000000, 0.000000000000000000, 1.000000000000000000 ) ) ;
#78 = PRODUCT_DEFINITION_SHAPE ( 'NONE', 'NONE',  #100 ) ;
#79 = ORGANIZATION ( 'UNSPECIFIED', 'UNSPECIFIED', '' ) ;
#80 = VERTEX_POINT ( 'NONE', #170 ) ;
#81 = DIRECTION ( 'NONE',  ( 1.000000000000000000, 1.836970198721029688E-16, 0.000000000000000000 ) ) ;
#82 = ORIENTED_EDGE ( 'NONE', *, *, #113, .F. ) ;
#83 = VECTOR ( 'NONE', #130, 1000.000000000000000 ) ;
#84 = APPROVAL_ROLE ( '' ) ;
#85 = PERSON_AND_ORGANIZATION_ROLE ( 'creator' ) ;
#86 = LOCAL_TIME ( 17, 1, 44.00000000000000000, #87 ) ;
#87 = COORDINATED_UNIVERSAL_TIME_OFFSET ( 10, 0, .AHEAD. ) ;
#88 = PERSON_AND_ORGANIZATION_ROLE ( 'design_owner' ) ;
#89 = CC_DESIGN_PERSON_AND_ORGANIZATION_ASSIGNMENT ( #171, #160, ( #16 ) ) ;
#90 = ORIENTED_EDGE ( 'NONE', *, *, #76, .F. ) ;
#91 = CARTESIAN_POINT ( 'NONE',  ( 1867.499999999999773, 6.861083692223044375E-13, 0.000000000000000000 ) ) ;
#92 = DIRECTION ( 'NONE',  ( 0.000000000000000000, -1.000000000000000000, 0.000000000000000000 ) ) ;
#93 = EDGE_LOOP ( 'NONE', ( #19, #35 ) ) ;
#94 = COORDINATED_UNIVERSAL_TIME_OFFSET ( 10, 0, .AHEAD. ) ;
#95 = AXIS2_PLACEMENT_3D ( 'NONE', #6, #81, #54 ) ;
#96 = APPROVAL_STATUS ( 'not_yet_approved' ) ;
#97 = SECURITY_CLASSIFICATION_LEVEL ( 'unclassified' ) ;
#98 = VECTOR ( 'NONE', #119, 1000.000000000000000 ) ;
#99 = PERSON_AND_ORGANIZATION ( #51, #79 ) ;
#100 = PRODUCT_DEFINITION ( 'UNKNOWN', '', #16, #148 ) ;
#101 = CLOSED_SHELL ( 'NONE', ( #115, #162, #59, #139 ) ) ;
#102 = CIRCLE ( 'NONE', #48, 6.000000000000000888 ) ;
#103 = DIRECTION ( 'NONE',  ( 0.000000000000000000, 1.000000000000000000, 0.000000000000000000 ) ) ;
#104 = CARTESIAN_POINT ( 'NONE',  ( 1867.499999999999773, -5.999999999999315214, 0.000000000000000000 ) ) ;
#105 = FACE_OUTER_BOUND ( 'NONE', #68, .T. ) ;
#106 = CC_DESIGN_DATE_AND_TIME_ASSIGNMENT ( #12, #123, ( #66 ) ) ;
#107 = DIRECTION ( 'NONE',  ( 0.000000000000000000, 1.000000000000000000, 0.000000000000000000 ) ) ;
#108 = DIRECTION ( 'NONE',  ( 0.000000000000000000, 1.000000000000000000, 0.000000000000000000 ) ) ;
#109 = CALENDAR_DATE ( 2026, 19, 1 ) ;
#110 = MECHANICAL_CONTEXT ( 'NONE', #26, 'mechanical' ) ;
#111 = CALENDAR_DATE ( 2026, 19, 1 ) ;
#112 = PERSON_AND_ORGANIZATION ( #51, #79 ) ;
#113 = EDGE_CURVE ( 'NONE', #155, #114, #46, .T. ) ;
#114 = VERTEX_POINT ( 'NONE', #70 ) ;
#115 = ADVANCED_FACE ( 'NONE', ( #131 ), #17, .T. ) ;
#116 = DIRECTION ( 'NONE',  ( -1.000000000000000000, -1.836970198721029688E-16, -0.000000000000000000 ) ) ;
#117 = AXIS2_PLACEMENT_3D ( 'NONE', #31, #118, #134 ) ;
#118 = DIRECTION ( 'NONE',  ( 1.000000000000000000, 1.836970198721029688E-16, 0.000000000000000000 ) ) ;
#119 = DIRECTION ( 'NONE',  ( -1.000000000000000000, -1.836970198721029688E-16, -0.000000000000000000 ) ) ;
#120 = EDGE_CURVE ( 'NONE', #155, #135, #168, .T. ) ;
#121 = ORIENTED_EDGE ( 'NONE', *, *, #120, .F. ) ;
#122 = CARTESIAN_POINT ( 'NONE',  ( 1867.499999999999773, 6.861083692223044375E-13, 0.000000000000000000 ) ) ;
#123 = DATE_TIME_ROLE ( 'classification_date' ) ;
#124 = PERSON_AND_ORGANIZATION ( #51, #79 ) ;
#125 =( GEOMETRIC_REPRESENTATION_CONTEXT ( 3 ) GLOBAL_UNCERTAINTY_ASSIGNED_CONTEXT ( ( #67 ) ) GLOBAL_UNIT_ASSIGNED_CONTEXT ( ( #154, #141, #146 ) ) REPRESENTATION_CONTEXT ( 'NONE', 'WORKASPACE' ) );
#126 = DATE_AND_TIME ( #109, #39 ) ;
#127 = APPLICATION_PROTOCOL_DEFINITION ( 'international standard', 'config_control_design', 1994, #40 ) ;
#128 = APPROVAL ( #36, 'UNSPECIFIED' ) ;
#129 = ORIENTED_EDGE ( 'NONE', *, *, #69, .T. ) ;
#130 = DIRECTION ( 'NONE',  ( -1.000000000000000000, -1.836970198721029688E-16, -0.000000000000000000 ) ) ;
#131 = FACE_OUTER_BOUND ( 'NONE', #73, .T. ) ;
#132 = PRODUCT ( '3982-36-10_REV_', '3982-36-10_REV_', '', ( #110 ) ) ;
#133 = CIRCLE ( 'NONE', #175, 6.000000000000000888 ) ;
#134 = DIRECTION ( 'NONE',  ( -1.836970198721029688E-16, 1.000000000000000000, 0.000000000000000000 ) ) ;
#135 = VERTEX_POINT ( 'NONE', #165 ) ;
#136 = PLANE ( 'NONE',  #143 ) ;
#137 = CC_DESIGN_APPROVAL ( #10, ( #66 ) ) ;
#138 = PERSON_AND_ORGANIZATION ( #51, #79 ) ;
#139 = ADVANCED_FACE ( 'NONE', ( #41 ), #150, .F. ) ;
#140 = CALENDAR_DATE ( 2026, 19, 1 ) ;
#141 =( NAMED_UNIT ( * ) PLANE_ANGLE_UNIT ( ) SI_UNIT ( $, .RADIAN. ) );
#142 = MANIFOLD_SOLID_BREP ( 'Rod 12 ROD(1)', #101 ) ;
#143 = AXIS2_PLACEMENT_3D ( 'NONE', #122, #42, #58 ) ;
#144 = LOCAL_TIME ( 17, 1, 44.00000000000000000, #159 ) ;
#145 = APPROVAL_STATUS ( 'not_yet_approved' ) ;
#146 =( NAMED_UNIT ( * ) SI_UNIT ( $, .STERADIAN. ) SOLID_ANGLE_UNIT ( ) );
#147 = LOCAL_TIME ( 17, 1, 44.00000000000000000, #94 ) ;
#148 = DESIGN_CONTEXT ( 'detailed design', #40, 'design' ) ;
#149 = LINE ( 'NONE', #169, #98 ) ;
#150 = PLANE ( 'NONE',  #117 ) ;
#151 = EDGE_CURVE ( 'NONE', #114, #80, #163, .T. ) ;
#152 = DIRECTION ( 'NONE',  ( 0.000000000000000000, -1.000000000000000000, 0.000000000000000000 ) ) ;
#153 = APPROVAL_PERSON_ORGANIZATION ( #49, #55, #14 ) ;
#154 =( LENGTH_UNIT ( ) NAMED_UNIT ( * ) SI_UNIT ( .MILLI., .METRE. ) );
#155 = VERTEX_POINT ( 'NONE', #104 ) ;
#156 = PERSON_AND_ORGANIZATION_ROLE ( 'design_supplier' ) ;
#157 = CC_DESIGN_PERSON_AND_ORGANIZATION_ASSIGNMENT ( #124, #156, ( #16 ) ) ;
#158 = AXIS2_PLACEMENT_3D ( 'NONE', #56, #116, #152 ) ;
#159 = COORDINATED_UNIVERSAL_TIME_OFFSET ( 10, 0, .AHEAD. ) ;
#160 = PERSON_AND_ORGANIZATION_ROLE ( 'creator' ) ;
#161 = APPLICATION_PROTOCOL_DEFINITION ( 'international standard', 'config_control_design', 1994, #26 ) ;
#162 = ADVANCED_FACE ( 'NONE', ( #105 ), #167, .T. ) ;
#163 = CIRCLE ( 'NONE', #95, 6.000000000000000888 ) ;
#164 = ADVANCED_BREP_SHAPE_REPRESENTATION ( '3982-36-10_REV_', ( #142, #32 ), #125 ) ;
#165 = CARTESIAN_POINT ( 'NONE',  ( 1867.499999999999773, 6.000000000000687450, 7.347880794884540791E-16 ) ) ;
#166 = CC_DESIGN_PERSON_AND_ORGANIZATION_ASSIGNMENT ( #52, #88, ( #132 ) ) ;
#167 = CYLINDRICAL_SURFACE ( 'NONE', #15, 6.000000000000000888 ) ;
#168 = CIRCLE ( 'NONE', #61, 6.000000000000000888 ) ;
#169 = CARTESIAN_POINT ( 'NONE',  ( 1867.499999999999773, 6.000000000000687450, 7.347880794884120722E-16 ) ) ;
#170 = CARTESIAN_POINT ( 'NONE',  ( -1867.499999999999773, 6.000000000000000888, 7.347880794884120722E-16 ) ) ;
#171 = PERSON_AND_ORGANIZATION ( #51, #79 ) ;
#172 = CC_DESIGN_PERSON_AND_ORGANIZATION_ASSIGNMENT ( #138, #38, ( #66 ) ) ;
#173 = DATE_AND_TIME ( #50, #23 ) ;
#174 = APPROVAL_DATE_TIME ( #126, #10 ) ;
#175 = AXIS2_PLACEMENT_3D ( 'NONE', #8, #11, #108 ) ;
ENDSEC;
END-ISO-10303-21;
