ISO-10303-21;
HEADER;
FILE_DESCRIPTION (( 'STEP AP203' ),
    '1' );
FILE_NAME ('3982-37-10_REV_.step',
    '2026-01-19T05:51:22',
    ( '' ),
    ( '' ),
    'SwSTEP 2.0',
    'SolidWorks 2025',
    '' );
FILE_SCHEMA (( 'CONFIG_CONTROL_DESIGN' ));
ENDSEC;

DATA;
#1 = CARTESIAN_POINT ( 'NONE',  ( 4025.000000000000455, 1.478761009970429009E-12, 0.000000000000000000 ) ) ;
#2 = DATE_TIME_ROLE ( 'classification_date' ) ;
#3 = CARTESIAN_POINT ( 'NONE',  ( -4025.000000000000455, 0.000000000000000000, 0.000000000000000000 ) ) ;
#4 = VERTEX_POINT ( 'NONE', #132 ) ;
#5 = APPROVAL_PERSON_ORGANIZATION ( #20, #119, #74 ) ;
#6 =( GEOMETRIC_REPRESENTATION_CONTEXT ( 3 ) GLOBAL_UNCERTAINTY_ASSIGNED_CONTEXT ( ( #58 ) ) GLOBAL_UNIT_ASSIGNED_CONTEXT ( ( #172, #124, #170 ) ) REPRESENTATION_CONTEXT ( 'NONE', 'WORKASPACE' ) );
#7 = DIRECTION ( 'NONE',  ( 0.000000000000000000, 1.000000000000000000, 0.000000000000000000 ) ) ;
#8 = COORDINATED_UNIVERSAL_TIME_OFFSET ( 10, 0, .AHEAD. ) ;
#9 = COORDINATED_UNIVERSAL_TIME_OFFSET ( 10, 0, .AHEAD. ) ;
#10 = LINE ( 'NONE', #114, #121 ) ;
#11 = APPROVAL_STATUS ( 'not_yet_approved' ) ;
#12 = EDGE_CURVE ( 'NONE', #59, #73, #27, .T. ) ;
#13 = ORIENTED_EDGE ( 'NONE', *, *, #131, .T. ) ;
#14 = AXIS2_PLACEMENT_3D ( 'NONE', #3, #110, #118 ) ;
#15 = LOCAL_TIME ( 16, 51, 22.00000000000000000, #115 ) ;
#16 = DIRECTION ( 'NONE',  ( -1.836970198721029441E-16, 1.000000000000000000, 0.000000000000000000 ) ) ;
#17 = EDGE_LOOP ( 'NONE', ( #30, #44, #13, #147 ) ) ;
#18 = CARTESIAN_POINT ( 'NONE',  ( 4025.000000000000455, 1.478761009970429009E-12, 0.000000000000000000 ) ) ;
#19 = DIRECTION ( 'NONE',  ( 0.000000000000000000, -1.000000000000000000, 0.000000000000000000 ) ) ;
#20 = PERSON_AND_ORGANIZATION ( #163, #53 ) ;
#21 = EDGE_CURVE ( 'NONE', #4, #73, #107, .T. ) ;
#22 = CYLINDRICAL_SURFACE ( 'NONE', #69, 6.000000000000000888 ) ;
#23 = ADVANCED_FACE ( 'NONE', ( #64 ), #95, .F. ) ;
#24 = AXIS2_PLACEMENT_3D ( 'NONE', #166, #33, #16 ) ;
#25 = DIRECTION ( 'NONE',  ( -1.000000000000000000, -1.836970198721029441E-16, -0.000000000000000000 ) ) ;
#26 = APPROVAL_ROLE ( '' ) ;
#27 = CIRCLE ( 'NONE', #85, 6.000000000000000888 ) ;
#28 = COORDINATED_UNIVERSAL_TIME_OFFSET ( 10, 0, .AHEAD. ) ;
#29 = SECURITY_CLASSIFICATION ( '', '', #66 ) ;
#30 = ORIENTED_EDGE ( 'NONE', *, *, #21, .F. ) ;
#31 = PRODUCT_RELATED_PRODUCT_CATEGORY ( 'detail', '', ( #171 ) ) ;
#32 = DIRECTION ( 'NONE',  ( 0.000000000000000000, 1.000000000000000000, 0.000000000000000000 ) ) ;
#33 = DIRECTION ( 'NONE',  ( 1.000000000000000000, 1.836970198721029441E-16, 0.000000000000000000 ) ) ;
#34 = DIRECTION ( 'NONE',  ( -1.000000000000000000, -1.836970198721029441E-16, -0.000000000000000000 ) ) ;
#35 = EDGE_CURVE ( 'NONE', #4, #94, #92, .T. ) ;
#36 = DIRECTION ( 'NONE',  ( -1.000000000000000000, -1.836970198721029441E-16, -0.000000000000000000 ) ) ;
#37 = CC_DESIGN_APPROVAL ( #106, ( #145 ) ) ;
#38 = APPROVAL_DATE_TIME ( #156, #106 ) ;
#39 = APPROVAL_STATUS ( 'not_yet_approved' ) ;
#40 = CALENDAR_DATE ( 2026, 19, 1 ) ;
#41 = CALENDAR_DATE ( 2026, 19, 1 ) ;
#42 = LOCAL_TIME ( 16, 51, 22.00000000000000000, #9 ) ;
#43 = CC_DESIGN_PERSON_AND_ORGANIZATION_ASSIGNMENT ( #56, #67, ( #78 ) ) ;
#44 = ORIENTED_EDGE ( 'NONE', *, *, #161, .F. ) ;
#45 = CARTESIAN_POINT ( 'NONE',  ( -4025.000000000000455, 0.000000000000000000, 0.000000000000000000 ) ) ;
#46 = APPLICATION_CONTEXT ( 'configuration controlled 3d designs of mechanical parts and assemblies' ) ;
#47 = ORIENTED_EDGE ( 'NONE', *, *, #131, .F. ) ;
#48 = APPROVAL_PERSON_ORGANIZATION ( #68, #106, #52 ) ;
#49 = CARTESIAN_POINT ( 'NONE',  ( 4025.000000000000455, 6.000000000001479705, 7.347880794884120722E-16 ) ) ;
#50 = CC_DESIGN_PERSON_AND_ORGANIZATION_ASSIGNMENT ( #99, #151, ( #29 ) ) ;
#51 = ORIENTED_EDGE ( 'NONE', *, *, #35, .F. ) ;
#52 = APPROVAL_ROLE ( '' ) ;
#53 = ORGANIZATION ( 'UNSPECIFIED', 'UNSPECIFIED', '' ) ;
#54 = DIRECTION ( 'NONE',  ( -1.000000000000000000, -1.836970198721029441E-16, -0.000000000000000000 ) ) ;
#55 = FACE_OUTER_BOUND ( 'NONE', #120, .T. ) ;
#56 = PERSON_AND_ORGANIZATION ( #163, #53 ) ;
#57 = ADVANCED_FACE ( 'NONE', ( #96 ), #129, .T. ) ;
#58 = UNCERTAINTY_MEASURE_WITH_UNIT (LENGTH_MEASURE( 1.000000000000000082E-05 ), #172, 'distance_accuracy_value', 'NONE');
#59 = VERTEX_POINT ( 'NONE', #146 ) ;
#60 = CARTESIAN_POINT ( 'NONE',  ( -4025.000000000000455, 0.000000000000000000, 0.000000000000000000 ) ) ;
#61 = CC_DESIGN_PERSON_AND_ORGANIZATION_ASSIGNMENT ( #135, #76, ( #78 ) ) ;
#62 = AXIS2_PLACEMENT_3D ( 'NONE', #112, #87, #111 ) ;
#63 = MANIFOLD_SOLID_BREP ( 'Rod 12 ROD(1)', #101 ) ;
#64 = FACE_OUTER_BOUND ( 'NONE', #81, .T. ) ;
#65 = APPLICATION_PROTOCOL_DEFINITION ( 'international standard', 'config_control_design', 1994, #158 ) ;
#66 = SECURITY_CLASSIFICATION_LEVEL ( 'unclassified' ) ;
#67 = PERSON_AND_ORGANIZATION_ROLE ( 'creator' ) ;
#68 = PERSON_AND_ORGANIZATION ( #163, #53 ) ;
#69 = AXIS2_PLACEMENT_3D ( 'NONE', #138, #25, #113 ) ;
#70 = PERSON_AND_ORGANIZATION ( #163, #53 ) ;
#71 = ADVANCED_FACE ( 'NONE', ( #130 ), #159, .T. ) ;
#72 = LOCAL_TIME ( 16, 51, 22.00000000000000000, #8 ) ;
#73 = VERTEX_POINT ( 'NONE', #123 ) ;
#74 = APPROVAL_ROLE ( '' ) ;
#75 = CC_DESIGN_DATE_AND_TIME_ASSIGNMENT ( #133, #137, ( #145 ) ) ;
#76 = PERSON_AND_ORGANIZATION_ROLE ( 'design_supplier' ) ;
#77 = APPROVAL_STATUS ( 'not_yet_approved' ) ;
#78 = PRODUCT_DEFINITION_FORMATION_WITH_SPECIFIED_SOURCE ( 'ANY', '', #171, .NOT_KNOWN. ) ;
#79 = DATE_AND_TIME ( #41, #98 ) ;
#80 = SHAPE_DEFINITION_REPRESENTATION ( #153, #90 ) ;
#81 = EDGE_LOOP ( 'NONE', ( #141, #97 ) ) ;
#82 = CARTESIAN_POINT ( 'NONE',  ( 4025.000000000000455, -5.999999999998522071, 0.000000000000000000 ) ) ;
#83 = DIRECTION ( 'NONE',  ( 0.000000000000000000, 1.000000000000000000, 0.000000000000000000 ) ) ;
#84 = EDGE_LOOP ( 'NONE', ( #164, #93 ) ) ;
#85 = AXIS2_PLACEMENT_3D ( 'NONE', #60, #108, #83 ) ;
#86 = PERSON_AND_ORGANIZATION_ROLE ( 'creator' ) ;
#87 = DIRECTION ( 'NONE',  ( 0.000000000000000000, 0.000000000000000000, 1.000000000000000000 ) ) ;
#88 = DIRECTION ( 'NONE',  ( 1.000000000000000000, 1.836970198721029441E-16, 0.000000000000000000 ) ) ;
#89 = LOCAL_TIME ( 16, 51, 22.00000000000000000, #28 ) ;
#90 = ADVANCED_BREP_SHAPE_REPRESENTATION ( '3982-37-10_REV_', ( #63, #62 ), #6 ) ;
#91 = EDGE_CURVE ( 'NONE', #73, #59, #105, .T. ) ;
#92 = CIRCLE ( 'NONE', #144, 6.000000000000000888 ) ;
#93 = ORIENTED_EDGE ( 'NONE', *, *, #35, .T. ) ;
#94 = VERTEX_POINT ( 'NONE', #82 ) ;
#95 = PLANE ( 'NONE',  #14 ) ;
#96 = FACE_OUTER_BOUND ( 'NONE', #84, .T. ) ;
#97 = ORIENTED_EDGE ( 'NONE', *, *, #91, .F. ) ;
#98 = LOCAL_TIME ( 16, 51, 22.00000000000000000, #126 ) ;
#99 = PERSON_AND_ORGANIZATION ( #163, #53 ) ;
#100 = MECHANICAL_CONTEXT ( 'NONE', #158, 'mechanical' ) ;
#101 = CLOSED_SHELL ( 'NONE', ( #167, #71, #57, #23 ) ) ;
#102 = PERSON_AND_ORGANIZATION ( #163, #53 ) ;
#103 = APPROVAL_DATE_TIME ( #175, #148 ) ;
#104 = CALENDAR_DATE ( 2026, 19, 1 ) ;
#105 = CIRCLE ( 'NONE', #127, 6.000000000000000888 ) ;
#106 = APPROVAL ( #39, 'UNSPECIFIED' ) ;
#107 = LINE ( 'NONE', #49, #109 ) ;
#108 = DIRECTION ( 'NONE',  ( 1.000000000000000000, 1.836970198721029441E-16, 0.000000000000000000 ) ) ;
#109 = VECTOR ( 'NONE', #36, 1000.000000000000000 ) ;
#110 = DIRECTION ( 'NONE',  ( 1.000000000000000000, 1.836970198721029441E-16, 0.000000000000000000 ) ) ;
#111 = DIRECTION ( 'NONE',  ( 1.000000000000000000, 0.000000000000000000, 0.000000000000000000 ) ) ;
#112 = CARTESIAN_POINT ( 'NONE',  ( 0.000000000000000000, 0.000000000000000000, 0.000000000000000000 ) ) ;
#113 = DIRECTION ( 'NONE',  ( 0.000000000000000000, -1.000000000000000000, 0.000000000000000000 ) ) ;
#114 = CARTESIAN_POINT ( 'NONE',  ( 4025.000000000000455, -5.999999999998522071, 0.000000000000000000 ) ) ;
#115 = COORDINATED_UNIVERSAL_TIME_OFFSET ( 10, 0, .AHEAD. ) ;
#116 = CC_DESIGN_PERSON_AND_ORGANIZATION_ASSIGNMENT ( #152, #168, ( #171 ) ) ;
#117 = CC_DESIGN_APPROVAL ( #148, ( #29 ) ) ;
#118 = DIRECTION ( 'NONE',  ( -1.836970198721029441E-16, 1.000000000000000000, 0.000000000000000000 ) ) ;
#119 = APPROVAL ( #77, 'UNSPECIFIED' ) ;
#120 = EDGE_LOOP ( 'NONE', ( #51, #122, #157, #47 ) ) ;
#121 = VECTOR ( 'NONE', #54, 1000.000000000000000 ) ;
#122 = ORIENTED_EDGE ( 'NONE', *, *, #21, .T. ) ;
#123 = CARTESIAN_POINT ( 'NONE',  ( -4025.000000000000455, 6.000000000000000888, 7.347880794884120722E-16 ) ) ;
#124 =( NAMED_UNIT ( * ) PLANE_ANGLE_UNIT ( ) SI_UNIT ( $, .RADIAN. ) );
#125 = DATE_AND_TIME ( #169, #42 ) ;
#126 = COORDINATED_UNIVERSAL_TIME_OFFSET ( 10, 0, .AHEAD. ) ;
#127 = AXIS2_PLACEMENT_3D ( 'NONE', #45, #142, #32 ) ;
#128 = CC_DESIGN_PERSON_AND_ORGANIZATION_ASSIGNMENT ( #102, #86, ( #145 ) ) ;
#129 = PLANE ( 'NONE',  #24 ) ;
#130 = FACE_OUTER_BOUND ( 'NONE', #17, .T. ) ;
#131 = EDGE_CURVE ( 'NONE', #94, #59, #10, .T. ) ;
#132 = CARTESIAN_POINT ( 'NONE',  ( 4025.000000000000455, 6.000000000001479705, 7.347880794885025940E-16 ) ) ;
#133 = DATE_AND_TIME ( #40, #72 ) ;
#134 = APPROVAL_PERSON_ORGANIZATION ( #70, #148, #26 ) ;
#135 = PERSON_AND_ORGANIZATION ( #163, #53 ) ;
#136 = CARTESIAN_POINT ( 'NONE',  ( 4025.000000000000455, 1.478761009970429009E-12, 0.000000000000000000 ) ) ;
#137 = DATE_TIME_ROLE ( 'creation_date' ) ;
#138 = CARTESIAN_POINT ( 'NONE',  ( 4025.000000000000455, 1.478761009970429009E-12, 0.000000000000000000 ) ) ;
#139 = CIRCLE ( 'NONE', #155, 6.000000000000000888 ) ;
#140 = CC_DESIGN_DATE_AND_TIME_ASSIGNMENT ( #79, #2, ( #29 ) ) ;
#141 = ORIENTED_EDGE ( 'NONE', *, *, #12, .F. ) ;
#142 = DIRECTION ( 'NONE',  ( 1.000000000000000000, 1.836970198721029441E-16, 0.000000000000000000 ) ) ;
#143 = DIRECTION ( 'NONE',  ( 0.000000000000000000, 1.000000000000000000, 0.000000000000000000 ) ) ;
#144 = AXIS2_PLACEMENT_3D ( 'NONE', #1, #160, #143 ) ;
#145 = PRODUCT_DEFINITION ( 'UNKNOWN', '', #78, #174 ) ;
#146 = CARTESIAN_POINT ( 'NONE',  ( -4025.000000000000455, -6.000000000000000000, 0.000000000000000000 ) ) ;
#147 = ORIENTED_EDGE ( 'NONE', *, *, #12, .T. ) ;
#148 = APPROVAL ( #11, 'UNSPECIFIED' ) ;
#149 = APPLICATION_PROTOCOL_DEFINITION ( 'international standard', 'config_control_design', 1994, #46 ) ;
#150 = CC_DESIGN_SECURITY_CLASSIFICATION ( #29, ( #78 ) ) ;
#151 = PERSON_AND_ORGANIZATION_ROLE ( 'classification_officer' ) ;
#152 = PERSON_AND_ORGANIZATION ( #163, #53 ) ;
#153 = PRODUCT_DEFINITION_SHAPE ( 'NONE', 'NONE',  #145 ) ;
#154 = APPROVAL_DATE_TIME ( #125, #119 ) ;
#155 = AXIS2_PLACEMENT_3D ( 'NONE', #136, #88, #7 ) ;
#156 = DATE_AND_TIME ( #173, #15 ) ;
#157 = ORIENTED_EDGE ( 'NONE', *, *, #91, .T. ) ;
#158 = APPLICATION_CONTEXT ( 'configuration controlled 3d designs of mechanical parts and assemblies' ) ;
#159 = CYLINDRICAL_SURFACE ( 'NONE', #165, 6.000000000000000888 ) ;
#160 = DIRECTION ( 'NONE',  ( 1.000000000000000000, 1.836970198721029441E-16, 0.000000000000000000 ) ) ;
#161 = EDGE_CURVE ( 'NONE', #94, #4, #139, .T. ) ;
#162 = CC_DESIGN_APPROVAL ( #119, ( #78 ) ) ;
#163 = PERSON ( 'UNSPECIFIED', 'UNSPECIFIED', 'UNSPECIFIED', ('UNSPECIFIED'), ('UNSPECIFIED'), ('UNSPECIFIED') ) ;
#164 = ORIENTED_EDGE ( 'NONE', *, *, #161, .T. ) ;
#165 = AXIS2_PLACEMENT_3D ( 'NONE', #18, #34, #19 ) ;
#166 = CARTESIAN_POINT ( 'NONE',  ( 4025.000000000000455, 1.478761009970429009E-12, 0.000000000000000000 ) ) ;
#167 = ADVANCED_FACE ( 'NONE', ( #55 ), #22, .T. ) ;
#168 = PERSON_AND_ORGANIZATION_ROLE ( 'design_owner' ) ;
#169 = CALENDAR_DATE ( 2026, 19, 1 ) ;
#170 =( NAMED_UNIT ( * ) SI_UNIT ( $, .STERADIAN. ) SOLID_ANGLE_UNIT ( ) );
#171 = PRODUCT ( '3982-37-10_REV_', '3982-37-10_REV_', '', ( #100 ) ) ;
#172 =( LENGTH_UNIT ( ) NAMED_UNIT ( * ) SI_UNIT ( .MILLI., .METRE. ) );
#173 = CALENDAR_DATE ( 2026, 19, 1 ) ;
#174 = DESIGN_CONTEXT ( 'detailed design', #46, 'design' ) ;
#175 = DATE_AND_TIME ( #104, #89 ) ;
ENDSEC;
END-ISO-10303-21;
