ISO-10303-21;
HEADER;
FILE_DESCRIPTION (( 'STEP AP203' ),
    '1' );
FILE_NAME ('3982-57_REV_.step',
    '2026-01-19T05:56:54',
    ( '' ),
    ( '' ),
    'SwSTEP 2.0',
    'SolidWorks 2025',
    '' );
FILE_SCHEMA (( 'CONFIG_CONTROL_DESIGN' ));
ENDSEC;

DATA;
#1 = DIRECTION ( 'NONE',  ( 1.000000000000000000, 0.000000000000000000, 0.000000000000000000 ) ) ;
#2 = VECTOR ( 'NONE', #210, 1000.000000000000000 ) ;
#3 = CARTESIAN_POINT ( 'NONE',  ( -1622.500000000000000, -95.00000000000031264, 22.50000000000035527 ) ) ;
#4 = ADVANCED_FACE ( 'NONE', ( #362 ), #156, .F. ) ;
#5 = DIRECTION ( 'NONE',  ( -3.061616997868382648E-16, 1.000000000000000000, -4.009138700035287069E-15 ) ) ;
#6 = AXIS2_PLACEMENT_3D ( 'NONE', #218, #5, #124 ) ;
#7 = AXIS2_PLACEMENT_3D ( 'NONE', #74, #338, #314 ) ;
#8 = CARTESIAN_POINT ( 'NONE',  ( 1542.500000000000000, -39.99999999999991473, -22.49999999999986500 ) ) ;
#9 = PRODUCT_RELATED_PRODUCT_CATEGORY ( 'detail', '', ( #194 ) ) ;
#10 = PRODUCT_DEFINITION_SHAPE ( 'NONE', 'NONE',  #169 ) ;
#11 = CYLINDRICAL_SURFACE ( 'NONE', #152, 9.500000000000063949 ) ;
#12 = LINE ( 'NONE', #281, #36 ) ;
#13 = VERTEX_POINT ( 'NONE', #304 ) ;
#14 = CALENDAR_DATE ( 2026, 19, 1 ) ;
#15 = DIRECTION ( 'NONE',  ( -0.000000000000000000, -0.000000000000000000, 1.000000000000000000 ) ) ;
#16 = VECTOR ( 'NONE', #15, 1000.000000000000000 ) ;
#17 = VERTEX_POINT ( 'NONE', #34 ) ;
#18 = COORDINATED_UNIVERSAL_TIME_OFFSET ( 10, 0, .AHEAD. ) ;
#19 = CARTESIAN_POINT ( 'NONE',  ( 1622.500000000000000, 95.00000000000051159, -22.50000000000038014 ) ) ;
#20 = EDGE_CURVE ( 'NONE', #32, #319, #130, .T. ) ;
#21 = APPROVAL_DATE_TIME ( #178, #363 ) ;
#22 = CARTESIAN_POINT ( 'NONE',  ( -1622.500000000000000, 94.99999999999951683, -22.50000000000038014 ) ) ;
#23 = AXIS2_PLACEMENT_3D ( 'NONE', #35, #160, #279 ) ;
#24 = EDGE_LOOP ( 'NONE', ( #295, #142, #321, #300 ) ) ;
#25 = MANIFOLD_SOLID_BREP ( 'M16 Clearance Hole1', #310 ) ;
#26 = DIRECTION ( 'NONE',  ( -0.000000000000000000, -0.000000000000000000, 1.000000000000000000 ) ) ;
#27 = FACE_OUTER_BOUND ( 'NONE', #24, .T. ) ;
#28 = DIRECTION ( 'NONE',  ( 1.000000000000000000, 3.061616997868382648E-16, -0.000000000000000000 ) ) ;
#29 = EDGE_LOOP ( 'NONE', ( #82, #237 ) ) ;
#30 = VECTOR ( 'NONE', #342, 1000.000000000000000 ) ;
#31 = EDGE_CURVE ( 'NONE', #328, #258, #121, .T. ) ;
#32 = VERTEX_POINT ( 'NONE', #86 ) ;
#33 = CC_DESIGN_PERSON_AND_ORGANIZATION_ASSIGNMENT ( #382, #108, ( #166 ) ) ;
#34 = CARTESIAN_POINT ( 'NONE',  ( 1533.000000000000000, -39.99999999999991473, -22.49999999999986500 ) ) ;
#35 = CARTESIAN_POINT ( 'NONE',  ( 0.000000000000000000, 0.000000000000000000, 0.000000000000000000 ) ) ;
#36 = VECTOR ( 'NONE', #309, 1000.000000000000000 ) ;
#37 = LOCAL_TIME ( 16, 56, 54.00000000000000000, #56 ) ;
#38 = ADVANCED_FACE ( 'NONE', ( #27 ), #59, .F. ) ;
#39 = DATE_TIME_ROLE ( 'creation_date' ) ;
#40 = DIRECTION ( 'NONE',  ( 0.000000000000000000, 1.000000000000000000, -3.816391647148975608E-15 ) ) ;
#41 = CC_DESIGN_PERSON_AND_ORGANIZATION_ASSIGNMENT ( #308, #163, ( #194 ) ) ;
#42 = PERSON_AND_ORGANIZATION ( #113, #370 ) ;
#43 = LINE ( 'NONE', #367, #267 ) ;
#44 = EDGE_CURVE ( 'NONE', #324, #239, #66, .T. ) ;
#45 = ORIENTED_EDGE ( 'NONE', *, *, #175, .F. ) ;
#46 = APPROVAL_DATE_TIME ( #201, #322 ) ;
#47 = PLANE ( 'NONE',  #297 ) ;
#48 = EDGE_LOOP ( 'NONE', ( #211, #150, #249, #359 ) ) ;
#49 = PERSON_AND_ORGANIZATION ( #113, #370 ) ;
#50 = DIRECTION ( 'NONE',  ( 1.000000000000000000, 0.000000000000000000, 0.000000000000000000 ) ) ;
#51 = AXIS2_PLACEMENT_3D ( 'NONE', #296, #26, #123 ) ;
#52 = CARTESIAN_POINT ( 'NONE',  ( 1533.000000000000000, 40.00000000000008527, -22.50000000000017053 ) ) ;
#53 = ORIENTED_EDGE ( 'NONE', *, *, #283, .F. ) ;
#54 = CARTESIAN_POINT ( 'NONE',  ( 1622.500000000000000, -94.99999999999948841, -22.49999999999965539 ) ) ;
#55 = ORIENTED_EDGE ( 'NONE', *, *, #104, .T. ) ;
#56 = COORDINATED_UNIVERSAL_TIME_OFFSET ( 10, 0, .AHEAD. ) ;
#57 = LINE ( 'NONE', #323, #225 ) ;
#58 = CIRCLE ( 'NONE', #100, 9.500000000000063949 ) ;
#59 = PLANE ( 'NONE',  #72 ) ;
#60 = CARTESIAN_POINT ( 'NONE',  ( -1622.500000000000000, 94.99999999999951683, -22.50000000000038014 ) ) ;
#61 = ORIENTED_EDGE ( 'NONE', *, *, #144, .F. ) ;
#62 = DESIGN_CONTEXT ( 'detailed design', #252, 'design' ) ;
#63 = DIRECTION ( 'NONE',  ( -0.000000000000000000, -0.000000000000000000, 1.000000000000000000 ) ) ;
#64 = EDGE_CURVE ( 'NONE', #319, #145, #137, .T. ) ;
#65 = CARTESIAN_POINT ( 'NONE',  ( 1542.500000000000000, -39.99999999999991473, 22.49999999999999645 ) ) ;
#66 = CIRCLE ( 'NONE', #247, 9.500000000000063949 ) ;
#67 = LINE ( 'NONE', #302, #136 ) ;
#68 = ORIENTED_EDGE ( 'NONE', *, *, #206, .F. ) ;
#69 = DIRECTION ( 'NONE',  ( -0.000000000000000000, -0.000000000000000000, 1.000000000000000000 ) ) ;
#70 = EDGE_CURVE ( 'NONE', #319, #251, #12, .T. ) ;
#71 = APPROVAL_STATUS ( 'not_yet_approved' ) ;
#72 = AXIS2_PLACEMENT_3D ( 'NONE', #181, #298, #272 ) ;
#73 = ADVANCED_FACE ( 'NONE', ( #335 ), #11, .F. ) ;
#74 = CARTESIAN_POINT ( 'NONE',  ( 1542.500000000000000, -39.99999999999991473, 22.49999999999999645 ) ) ;
#75 = DIRECTION ( 'NONE',  ( -0.000000000000000000, -0.000000000000000000, 1.000000000000000000 ) ) ;
#76 = CARTESIAN_POINT ( 'NONE',  ( -1622.500000000000000, 94.99999999999970157, 22.49999999999963052 ) ) ;
#77 = PLANE ( 'NONE',  #106 ) ;
#78 = PERSON_AND_ORGANIZATION_ROLE ( 'classification_officer' ) ;
#79 = DIRECTION ( 'NONE',  ( -0.000000000000000000, -1.000000000000000000, 3.816391647148975608E-15 ) ) ;
#80 = AXIS2_PLACEMENT_3D ( 'NONE', #65, #301, #186 ) ;
#81 = APPROVAL ( #265, 'UNSPECIFIED' ) ;
#82 = ORIENTED_EDGE ( 'NONE', *, *, #44, .T. ) ;
#83 = CARTESIAN_POINT ( 'NONE',  ( -1622.500000000000000, -95.00000000000048317, -22.49999999999965539 ) ) ;
#84 = EDGE_CURVE ( 'NONE', #258, #251, #255, .T. ) ;
#85 = LINE ( 'NONE', #238, #278 ) ;
#86 = CARTESIAN_POINT ( 'NONE',  ( -1622.500000000000000, -95.00000000000048317, -22.49999999999965539 ) ) ;
#87 = COORDINATED_UNIVERSAL_TIME_OFFSET ( 10, 0, .AHEAD. ) ;
#88 = DIRECTION ( 'NONE',  ( -0.000000000000000000, -0.000000000000000000, 1.000000000000000000 ) ) ;
#89 = APPROVAL_PERSON_ORGANIZATION ( #228, #322, #196 ) ;
#90 = ORIENTED_EDGE ( 'NONE', *, *, #139, .T. ) ;
#91 = DIRECTION ( 'NONE',  ( 1.000000000000000000, 0.000000000000000000, 0.000000000000000000 ) ) ;
#92 = VERTEX_POINT ( 'NONE', #339 ) ;
#93 = CARTESIAN_POINT ( 'NONE',  ( -1622.500000000000000, -95.00000000000048317, -22.49999999999965539 ) ) ;
#94 = CIRCLE ( 'NONE', #365, 9.500000000000063949 ) ;
#95 = CARTESIAN_POINT ( 'NONE',  ( 1552.000000000000000, 40.00000000000008527, -22.50000000000017053 ) ) ;
#96 = EDGE_CURVE ( 'NONE', #13, #187, #161, .T. ) ;
#97 = UNCERTAINTY_MEASURE_WITH_UNIT (LENGTH_MEASURE( 1.000000000000000082E-05 ), #360, 'distance_accuracy_value', 'NONE');
#98 = COORDINATED_UNIVERSAL_TIME_OFFSET ( 10, 0, .AHEAD. ) ;
#99 = CC_DESIGN_PERSON_AND_ORGANIZATION_ASSIGNMENT ( #292, #315, ( #166 ) ) ;
#100 = AXIS2_PLACEMENT_3D ( 'NONE', #179, #293, #50 ) ;
#101 = LOCAL_TIME ( 16, 56, 54.00000000000000000, #98 ) ;
#102 = PERSON_AND_ORGANIZATION ( #113, #370 ) ;
#103 = DIRECTION ( 'NONE',  ( 0.000000000000000000, -1.000000000000000000, 3.652049423109042780E-15 ) ) ;
#104 = EDGE_CURVE ( 'NONE', #324, #352, #43, .T. ) ;
#105 = COORDINATED_UNIVERSAL_TIME_OFFSET ( 10, 0, .AHEAD. ) ;
#106 = AXIS2_PLACEMENT_3D ( 'NONE', #373, #383, #270 ) ;
#107 = EDGE_LOOP ( 'NONE', ( #157, #372 ) ) ;
#108 = PERSON_AND_ORGANIZATION_ROLE ( 'design_supplier' ) ;
#109 = ORIENTED_EDGE ( 'NONE', *, *, #84, .T. ) ;
#110 = DIRECTION ( 'NONE',  ( 0.000000000000000000, -1.000000000000000000, 3.652049423109042780E-15 ) ) ;
#111 = CC_DESIGN_PERSON_AND_ORGANIZATION_ASSIGNMENT ( #49, #78, ( #268 ) ) ;
#112 = ORIENTED_EDGE ( 'NONE', *, *, #64, .F. ) ;
#113 = PERSON ( 'UNSPECIFIED', 'UNSPECIFIED', 'UNSPECIFIED', ('UNSPECIFIED'), ('UNSPECIFIED'), ('UNSPECIFIED') ) ;
#114 = DIRECTION ( 'NONE',  ( -1.000000000000000000, 0.000000000000000000, 0.000000000000000000 ) ) ;
#115 = CIRCLE ( 'NONE', #164, 9.500000000000063949 ) ;
#116 = EDGE_CURVE ( 'NONE', #17, #13, #94, .T. ) ;
#117 = CC_DESIGN_APPROVAL ( #81, ( #268 ) ) ;
#118 = ORIENTED_EDGE ( 'NONE', *, *, #189, .T. ) ;
#119 = DIRECTION ( 'NONE',  ( -1.168432953743421756E-30, 3.816391647148975608E-15, 1.000000000000000000 ) ) ;
#120 = EDGE_CURVE ( 'NONE', #145, #276, #369, .T. ) ;
#121 = LINE ( 'NONE', #384, #326 ) ;
#122 = SECURITY_CLASSIFICATION_LEVEL ( 'unclassified' ) ;
#123 = DIRECTION ( 'NONE',  ( 1.000000000000000000, 0.000000000000000000, 0.000000000000000000 ) ) ;
#124 = DIRECTION ( 'NONE',  ( 0.000000000000000000, 4.009138700035287069E-15, 1.000000000000000000 ) ) ;
#125 = FACE_OUTER_BOUND ( 'NONE', #349, .T. ) ;
#126 = AXIS2_PLACEMENT_3D ( 'NONE', #141, #351, #1 ) ;
#127 = EDGE_LOOP ( 'NONE', ( #109, #264, #177, #90 ) ) ;
#128 = ORIENTED_EDGE ( 'NONE', *, *, #64, .T. ) ;
#129 = DIRECTION ( 'NONE',  ( 0.000000000000000000, -4.009138700035287069E-15, -1.000000000000000000 ) ) ;
#130 = LINE ( 'NONE', #93, #230 ) ;
#131 = APPLICATION_CONTEXT ( 'configuration controlled 3d designs of mechanical parts and assemblies' ) ;
#132 =( NAMED_UNIT ( * ) PLANE_ANGLE_UNIT ( ) SI_UNIT ( $, .RADIAN. ) );
#133 = CC_DESIGN_PERSON_AND_ORGANIZATION_ASSIGNMENT ( #42, #134, ( #169 ) ) ;
#134 = PERSON_AND_ORGANIZATION_ROLE ( 'creator' ) ;
#135 = APPROVAL_ROLE ( '' ) ;
#136 = VECTOR ( 'NONE', #188, 1000.000000000000000 ) ;
#137 = LINE ( 'NONE', #229, #355 ) ;
#138 = CARTESIAN_POINT ( 'NONE',  ( 1622.500000000000000, -94.99999999999948841, -22.49999999999965539 ) ) ;
#139 = EDGE_CURVE ( 'NONE', #32, #258, #226, .T. ) ;
#140 = EDGE_LOOP ( 'NONE', ( #233, #327, #112, #260 ) ) ;
#141 = CARTESIAN_POINT ( 'NONE',  ( 1542.500000000000000, -39.99999999999991473, 22.49999999999999645 ) ) ;
#142 = ORIENTED_EDGE ( 'NONE', *, *, #375, .F. ) ;
#143 = FACE_OUTER_BOUND ( 'NONE', #140, .T. ) ;
#144 = EDGE_CURVE ( 'NONE', #187, #92, #330, .T. ) ;
#145 = VERTEX_POINT ( 'NONE', #195 ) ;
#146 = LINE ( 'NONE', #180, #30 ) ;
#147 = AXIS2_PLACEMENT_3D ( 'NONE', #263, #119, #241 ) ;
#148 = ORIENTED_EDGE ( 'NONE', *, *, #189, .F. ) ;
#149 = FACE_OUTER_BOUND ( 'NONE', #48, .T. ) ;
#150 = ORIENTED_EDGE ( 'NONE', *, *, #139, .F. ) ;
#151 = ADVANCED_FACE ( 'NONE', ( #198 ), #47, .T. ) ;
#152 = AXIS2_PLACEMENT_3D ( 'NONE', #168, #191, #280 ) ;
#153 = ORIENTED_EDGE ( 'NONE', *, *, #269, .F. ) ;
#154 = EDGE_CURVE ( 'NONE', #92, #187, #282, .T. ) ;
#155 = FACE_OUTER_BOUND ( 'NONE', #290, .T. ) ;
#156 = PLANE ( 'NONE',  #6 ) ;
#157 = ORIENTED_EDGE ( 'NONE', *, *, #269, .T. ) ;
#158 = FACE_OUTER_BOUND ( 'NONE', #248, .T. ) ;
#159 = CIRCLE ( 'NONE', #51, 9.500000000000063949 ) ;
#160 = DIRECTION ( 'NONE',  ( 0.000000000000000000, 0.000000000000000000, 1.000000000000000000 ) ) ;
#161 = LINE ( 'NONE', #193, #16 ) ;
#162 = DATE_AND_TIME ( #223, #101 ) ;
#163 = PERSON_AND_ORGANIZATION_ROLE ( 'design_owner' ) ;
#164 = AXIS2_PLACEMENT_3D ( 'NONE', #273, #261, #110 ) ;
#165 = DIRECTION ( 'NONE',  ( -1.168432953743421756E-30, 3.816391647148975608E-15, 1.000000000000000000 ) ) ;
#166 = PRODUCT_DEFINITION_FORMATION_WITH_SPECIFIED_SOURCE ( 'ANY', '', #194, .NOT_KNOWN. ) ;
#167 = VERTEX_POINT ( 'NONE', #316 ) ;
#168 = CARTESIAN_POINT ( 'NONE',  ( 1542.500000000000000, 40.00000000000008527, 22.49999999999999645 ) ) ;
#169 = PRODUCT_DEFINITION ( 'UNKNOWN', '', #166, #62 ) ;
#170 = ORIENTED_EDGE ( 'NONE', *, *, #192, .T. ) ;
#171 = DATE_TIME_ROLE ( 'classification_date' ) ;
#172 = PLANE ( 'NONE',  #216 ) ;
#173 = VECTOR ( 'NONE', #79, 1000.000000000000000 ) ;
#174 = EDGE_LOOP ( 'NONE', ( #61, #341 ) ) ;
#175 = EDGE_CURVE ( 'NONE', #167, #352, #58, .T. ) ;
#176 = DIRECTION ( 'NONE',  ( -0.000000000000000000, -4.009138700035287069E-15, -1.000000000000000000 ) ) ;
#177 = ORIENTED_EDGE ( 'NONE', *, *, #20, .F. ) ;
#178 = DATE_AND_TIME ( #353, #274 ) ;
#179 = CARTESIAN_POINT ( 'NONE',  ( 1542.500000000000000, 40.00000000000008527, 22.49999999999999645 ) ) ;
#180 = CARTESIAN_POINT ( 'NONE',  ( 1533.000000000000000, -39.99999999999991473, 22.49999999999999645 ) ) ;
#181 = CARTESIAN_POINT ( 'NONE',  ( 1622.500000000000000, 0.000000000000000000, 0.000000000000000000 ) ) ;
#182 = FACE_BOUND ( 'NONE', #29, .T. ) ;
#183 = CYLINDRICAL_SURFACE ( 'NONE', #80, 9.500000000000063949 ) ;
#184 = ADVANCED_FACE ( 'NONE', ( #143, #205, #379 ), #172, .F. ) ;
#185 = EDGE_LOOP ( 'NONE', ( #200, #118, #204, #231 ) ) ;
#186 = DIRECTION ( 'NONE',  ( 1.000000000000000000, 0.000000000000000000, 0.000000000000000000 ) ) ;
#187 = VERTEX_POINT ( 'NONE', #236 ) ;
#188 = DIRECTION ( 'NONE',  ( 0.000000000000000000, 1.000000000000000000, -3.816391647148975608E-15 ) ) ;
#189 = EDGE_CURVE ( 'NONE', #239, #167, #85, .T. ) ;
#190 = ORIENTED_EDGE ( 'NONE', *, *, #206, .T. ) ;
#191 = DIRECTION ( 'NONE',  ( -0.000000000000000000, -0.000000000000000000, 1.000000000000000000 ) ) ;
#192 = EDGE_CURVE ( 'NONE', #262, #32, #208, .T. ) ;
#193 = CARTESIAN_POINT ( 'NONE',  ( 1552.000000000000000, -39.99999999999991473, 22.49999999999999645 ) ) ;
#194 = PRODUCT ( '3982-57_REV_', '3982-57_REV_', '', ( #277 ) ) ;
#195 = CARTESIAN_POINT ( 'NONE',  ( -1622.500000000000000, 94.99999999999970157, 22.49999999999963052 ) ) ;
#196 = APPROVAL_ROLE ( '' ) ;
#197 =( GEOMETRIC_REPRESENTATION_CONTEXT ( 3 ) GLOBAL_UNCERTAINTY_ASSIGNED_CONTEXT ( ( #97 ) ) GLOBAL_UNIT_ASSIGNED_CONTEXT ( ( #360, #132, #332 ) ) REPRESENTATION_CONTEXT ( 'NONE', 'WORKASPACE' ) );
#198 = FACE_OUTER_BOUND ( 'NONE', #207, .T. ) ;
#199 = CC_DESIGN_SECURITY_CLASSIFICATION ( #268, ( #166 ) ) ;
#200 = ORIENTED_EDGE ( 'NONE', *, *, #224, .F. ) ;
#201 = DATE_AND_TIME ( #337, #306 ) ;
#202 = DIRECTION ( 'NONE',  ( 1.000000000000000000, 3.061616997868382648E-16, -0.000000000000000000 ) ) ;
#203 = CC_DESIGN_DATE_AND_TIME_ASSIGNMENT ( #378, #171, ( #268 ) ) ;
#204 = ORIENTED_EDGE ( 'NONE', *, *, #175, .T. ) ;
#205 = FACE_BOUND ( 'NONE', #174, .T. ) ;
#206 = EDGE_CURVE ( 'NONE', #145, #262, #348, .T. ) ;
#207 = EDGE_LOOP ( 'NONE', ( #190, #170, #340, #128 ) ) ;
#208 = LINE ( 'NONE', #83, #173 ) ;
#209 = VECTOR ( 'NONE', #202, 1000.000000000000000 ) ;
#210 = DIRECTION ( 'NONE',  ( -0.000000000000000000, -4.009138700035287069E-15, -1.000000000000000000 ) ) ;
#211 = ORIENTED_EDGE ( 'NONE', *, *, #31, .T. ) ;
#212 = CARTESIAN_POINT ( 'NONE',  ( 1622.500000000000000, 95.00000000000069633, 22.49999999999963052 ) ) ;
#213 = EDGE_LOOP ( 'NONE', ( #148, #291, #55, #374 ) ) ;
#214 = APPROVAL_DATE_TIME ( #234, #81 ) ;
#215 = CARTESIAN_POINT ( 'NONE',  ( -1622.500000000000000, -95.00000000000031264, 22.50000000000035527 ) ) ;
#216 = AXIS2_PLACEMENT_3D ( 'NONE', #215, #325, #320 ) ;
#217 = CARTESIAN_POINT ( 'NONE',  ( 1542.500000000000000, -39.99999999999991473, 22.49999999999999645 ) ) ;
#218 = CARTESIAN_POINT ( 'NONE',  ( -1622.500000000000000, -95.00000000000048317, -22.49999999999965539 ) ) ;
#219 = ORIENTED_EDGE ( 'NONE', *, *, #271, .T. ) ;
#220 = CARTESIAN_POINT ( 'NONE',  ( 1542.500000000000000, 40.00000000000008527, 22.49999999999999645 ) ) ;
#221 = AXIS2_PLACEMENT_3D ( 'NONE', #217, #63, #329 ) ;
#222 = CARTESIAN_POINT ( 'NONE',  ( 1552.000000000000000, 40.00000000000008527, 22.49999999999999645 ) ) ;
#223 = CALENDAR_DATE ( 2026, 19, 1 ) ;
#224 = EDGE_CURVE ( 'NONE', #239, #324, #311, .T. ) ;
#225 = VECTOR ( 'NONE', #28, 1000.000000000000000 ) ;
#226 = LINE ( 'NONE', #312, #209 ) ;
#227 = ADVANCED_FACE ( 'NONE', ( #182, #299, #149 ), #77, .F. ) ;
#228 = PERSON_AND_ORGANIZATION ( #113, #370 ) ;
#229 = CARTESIAN_POINT ( 'NONE',  ( -1622.500000000000000, -95.00000000000031264, 22.50000000000035527 ) ) ;
#230 = VECTOR ( 'NONE', #381, 1000.000000000000000 ) ;
#231 = ORIENTED_EDGE ( 'NONE', *, *, #104, .F. ) ;
#232 = EDGE_CURVE ( 'NONE', #262, #328, #57, .T. ) ;
#233 = ORIENTED_EDGE ( 'NONE', *, *, #375, .T. ) ;
#234 = DATE_AND_TIME ( #243, #37 ) ;
#235 = CARTESIAN_POINT ( 'NONE',  ( 1622.500000000000000, -94.99999999999930367, 22.50000000000035527 ) ) ;
#236 = CARTESIAN_POINT ( 'NONE',  ( 1552.000000000000000, -39.99999999999991473, 22.49999999999999645 ) ) ;
#237 = ORIENTED_EDGE ( 'NONE', *, *, #224, .T. ) ;
#238 = CARTESIAN_POINT ( 'NONE',  ( 1533.000000000000000, 40.00000000000008527, 22.49999999999999645 ) ) ;
#239 = VERTEX_POINT ( 'NONE', #52 ) ;
#240 = SHAPE_DEFINITION_REPRESENTATION ( #10, #380 ) ;
#241 = DIRECTION ( 'NONE',  ( 0.000000000000000000, -1.000000000000000000, 3.652049423109042780E-15 ) ) ;
#242 = DIRECTION ( 'NONE',  ( -0.000000000000000000, -1.000000000000000000, 3.816391647148975608E-15 ) ) ;
#243 = CALENDAR_DATE ( 2026, 19, 1 ) ;
#244 = FACE_OUTER_BOUND ( 'NONE', #213, .T. ) ;
#245 = CARTESIAN_POINT ( 'NONE',  ( 1542.500000000000000, 40.00000000000008527, -22.50000000000017053 ) ) ;
#246 = APPLICATION_PROTOCOL_DEFINITION ( 'international standard', 'config_control_design', 1994, #131 ) ;
#247 = AXIS2_PLACEMENT_3D ( 'NONE', #245, #165, #284 ) ;
#248 = EDGE_LOOP ( 'NONE', ( #371, #219, #346, #285 ) ) ;
#249 = ORIENTED_EDGE ( 'NONE', *, *, #192, .F. ) ;
#250 = CARTESIAN_POINT ( 'NONE',  ( 1622.500000000000000, 95.00000000000051159, -22.50000000000038014 ) ) ;
#251 = VERTEX_POINT ( 'NONE', #235 ) ;
#252 = APPLICATION_CONTEXT ( 'configuration controlled 3d designs of mechanical parts and assemblies' ) ;
#253 = APPROVAL_PERSON_ORGANIZATION ( #102, #363, #135 ) ;
#254 = CC_DESIGN_APPROVAL ( #363, ( #166 ) ) ;
#255 = LINE ( 'NONE', #138, #334 ) ;
#256 = EDGE_CURVE ( 'NONE', #276, #328, #289, .T. ) ;
#257 = APPLICATION_PROTOCOL_DEFINITION ( 'international standard', 'config_control_design', 1994, #252 ) ;
#258 = VERTEX_POINT ( 'NONE', #54 ) ;
#259 = VECTOR ( 'NONE', #176, 1000.000000000000000 ) ;
#260 = ORIENTED_EDGE ( 'NONE', *, *, #70, .T. ) ;
#261 = DIRECTION ( 'NONE',  ( -1.168432953743421756E-30, 3.816391647148975608E-15, 1.000000000000000000 ) ) ;
#262 = VERTEX_POINT ( 'NONE', #22 ) ;
#263 = CARTESIAN_POINT ( 'NONE',  ( 1542.500000000000000, 40.00000000000008527, -22.50000000000017053 ) ) ;
#264 = ORIENTED_EDGE ( 'NONE', *, *, #70, .F. ) ;
#265 = APPROVAL_STATUS ( 'not_yet_approved' ) ;
#266 = DIRECTION ( 'NONE',  ( 0.000000000000000000, 0.000000000000000000, 1.000000000000000000 ) ) ;
#267 = VECTOR ( 'NONE', #75, 1000.000000000000000 ) ;
#268 = SECURITY_CLASSIFICATION ( '', '', #122 ) ;
#269 = EDGE_CURVE ( 'NONE', #13, #17, #115, .T. ) ;
#270 = DIRECTION ( 'NONE',  ( 0.000000000000000000, -1.000000000000000000, 3.816391647148975608E-15 ) ) ;
#271 = EDGE_CURVE ( 'NONE', #17, #92, #146, .T. ) ;
#272 = DIRECTION ( 'NONE',  ( 0.000000000000000000, 0.000000000000000000, 1.000000000000000000 ) ) ;
#273 = CARTESIAN_POINT ( 'NONE',  ( 1542.500000000000000, -39.99999999999991473, -22.49999999999986500 ) ) ;
#274 = LOCAL_TIME ( 16, 56, 54.00000000000000000, #18 ) ;
#275 = DIRECTION ( 'NONE',  ( 3.061616997868382648E-16, -1.000000000000000000, 4.009138700035287069E-15 ) ) ;
#276 = VERTEX_POINT ( 'NONE', #212 ) ;
#277 = MECHANICAL_CONTEXT ( 'NONE', #131, 'mechanical' ) ;
#278 = VECTOR ( 'NONE', #88, 1000.000000000000000 ) ;
#279 = DIRECTION ( 'NONE',  ( 1.000000000000000000, 0.000000000000000000, 0.000000000000000000 ) ) ;
#280 = DIRECTION ( 'NONE',  ( 1.000000000000000000, 0.000000000000000000, 0.000000000000000000 ) ) ;
#281 = CARTESIAN_POINT ( 'NONE',  ( -1622.500000000000000, -95.00000000000031264, 22.50000000000035527 ) ) ;
#282 = CIRCLE ( 'NONE', #126, 9.500000000000063949 ) ;
#283 = EDGE_CURVE ( 'NONE', #352, #167, #159, .T. ) ;
#284 = DIRECTION ( 'NONE',  ( 0.000000000000000000, -1.000000000000000000, 3.652049423109042780E-15 ) ) ;
#285 = ORIENTED_EDGE ( 'NONE', *, *, #96, .F. ) ;
#286 = VECTOR ( 'NONE', #368, 1000.000000000000000 ) ;
#287 = ORIENTED_EDGE ( 'NONE', *, *, #256, .T. ) ;
#288 = APPROVAL_ROLE ( '' ) ;
#289 = LINE ( 'NONE', #19, #259 ) ;
#290 = EDGE_LOOP ( 'NONE', ( #287, #358, #68, #331 ) ) ;
#291 = ORIENTED_EDGE ( 'NONE', *, *, #44, .F. ) ;
#292 = PERSON_AND_ORGANIZATION ( #113, #370 ) ;
#293 = DIRECTION ( 'NONE',  ( -0.000000000000000000, -0.000000000000000000, 1.000000000000000000 ) ) ;
#294 = ADVANCED_FACE ( 'NONE', ( #244 ), #354, .F. ) ;
#295 = ORIENTED_EDGE ( 'NONE', *, *, #256, .F. ) ;
#296 = CARTESIAN_POINT ( 'NONE',  ( 1542.500000000000000, 40.00000000000008527, 22.49999999999999645 ) ) ;
#297 = AXIS2_PLACEMENT_3D ( 'NONE', #345, #114, #266 ) ;
#298 = DIRECTION ( 'NONE',  ( -1.000000000000000000, 0.000000000000000000, 0.000000000000000000 ) ) ;
#299 = FACE_BOUND ( 'NONE', #107, .T. ) ;
#300 = ORIENTED_EDGE ( 'NONE', *, *, #31, .F. ) ;
#301 = DIRECTION ( 'NONE',  ( -0.000000000000000000, -0.000000000000000000, 1.000000000000000000 ) ) ;
#302 = CARTESIAN_POINT ( 'NONE',  ( 1622.500000000000000, -94.99999999999930367, 22.50000000000035527 ) ) ;
#303 = PLANE ( 'NONE',  #376 ) ;
#304 = CARTESIAN_POINT ( 'NONE',  ( 1552.000000000000000, -39.99999999999991473, -22.49999999999986500 ) ) ;
#305 = CC_DESIGN_APPROVAL ( #322, ( #169 ) ) ;
#306 = LOCAL_TIME ( 16, 56, 54.00000000000000000, #105 ) ;
#307 = DIRECTION ( 'NONE',  ( 0.000000000000000000, 4.009138700035287069E-15, 1.000000000000000000 ) ) ;
#308 = PERSON_AND_ORGANIZATION ( #113, #370 ) ;
#309 = DIRECTION ( 'NONE',  ( 1.000000000000000000, 3.061616997868382648E-16, -0.000000000000000000 ) ) ;
#310 = CLOSED_SHELL ( 'NONE', ( #73, #361, #184, #385, #227, #4, #151, #38, #336, #294 ) ) ;
#311 = CIRCLE ( 'NONE', #147, 9.500000000000063949 ) ;
#312 = CARTESIAN_POINT ( 'NONE',  ( -1622.500000000000000, -95.00000000000048317, -22.49999999999965539 ) ) ;
#313 = ORIENTED_EDGE ( 'NONE', *, *, #271, .F. ) ;
#314 = DIRECTION ( 'NONE',  ( 1.000000000000000000, 0.000000000000000000, 0.000000000000000000 ) ) ;
#315 = PERSON_AND_ORGANIZATION_ROLE ( 'creator' ) ;
#316 = CARTESIAN_POINT ( 'NONE',  ( 1533.000000000000000, 40.00000000000008527, 22.49999999999999645 ) ) ;
#317 = AXIS2_PLACEMENT_3D ( 'NONE', #220, #69, #91 ) ;
#318 = EDGE_LOOP ( 'NONE', ( #53, #45 ) ) ;
#319 = VERTEX_POINT ( 'NONE', #3 ) ;
#320 = DIRECTION ( 'NONE',  ( 0.000000000000000000, 1.000000000000000000, -3.816391647148975608E-15 ) ) ;
#321 = ORIENTED_EDGE ( 'NONE', *, *, #84, .F. ) ;
#322 = APPROVAL ( #71, 'UNSPECIFIED' ) ;
#323 = CARTESIAN_POINT ( 'NONE',  ( -1622.500000000000000, 94.99999999999951683, -22.50000000000038014 ) ) ;
#324 = VERTEX_POINT ( 'NONE', #95 ) ;
#325 = DIRECTION ( 'NONE',  ( 1.168432953743421756E-30, -3.816391647148975608E-15, -1.000000000000000000 ) ) ;
#326 = VECTOR ( 'NONE', #242, 1000.000000000000000 ) ;
#327 = ORIENTED_EDGE ( 'NONE', *, *, #120, .F. ) ;
#328 = VERTEX_POINT ( 'NONE', #250 ) ;
#329 = DIRECTION ( 'NONE',  ( 1.000000000000000000, 0.000000000000000000, 0.000000000000000000 ) ) ;
#330 = CIRCLE ( 'NONE', #7, 9.500000000000063949 ) ;
#331 = ORIENTED_EDGE ( 'NONE', *, *, #120, .T. ) ;
#332 =( NAMED_UNIT ( * ) SI_UNIT ( $, .STERADIAN. ) SOLID_ANGLE_UNIT ( ) );
#333 = CARTESIAN_POINT ( 'NONE',  ( -1622.500000000000000, 94.99999999999951683, -22.50000000000038014 ) ) ;
#334 = VECTOR ( 'NONE', #307, 1000.000000000000000 ) ;
#335 = FACE_OUTER_BOUND ( 'NONE', #185, .T. ) ;
#336 = ADVANCED_FACE ( 'NONE', ( #125 ), #356, .F. ) ;
#337 = CALENDAR_DATE ( 2026, 19, 1 ) ;
#338 = DIRECTION ( 'NONE',  ( -0.000000000000000000, -0.000000000000000000, 1.000000000000000000 ) ) ;
#339 = CARTESIAN_POINT ( 'NONE',  ( 1533.000000000000000, -39.99999999999991473, 22.49999999999999645 ) ) ;
#340 = ORIENTED_EDGE ( 'NONE', *, *, #20, .T. ) ;
#341 = ORIENTED_EDGE ( 'NONE', *, *, #154, .F. ) ;
#342 = DIRECTION ( 'NONE',  ( -0.000000000000000000, -0.000000000000000000, 1.000000000000000000 ) ) ;
#343 = CC_DESIGN_DATE_AND_TIME_ASSIGNMENT ( #162, #39, ( #169 ) ) ;
#344 = ORIENTED_EDGE ( 'NONE', *, *, #96, .T. ) ;
#345 = CARTESIAN_POINT ( 'NONE',  ( -1622.500000000000000, -9.934947158082902147E-13, 0.000000000000000000 ) ) ;
#346 = ORIENTED_EDGE ( 'NONE', *, *, #154, .T. ) ;
#347 = APPROVAL_PERSON_ORGANIZATION ( #350, #81, #288 ) ;
#348 = LINE ( 'NONE', #60, #2 ) ;
#349 = EDGE_LOOP ( 'NONE', ( #313, #153, #344, #377 ) ) ;
#350 = PERSON_AND_ORGANIZATION ( #113, #370 ) ;
#351 = DIRECTION ( 'NONE',  ( -0.000000000000000000, -0.000000000000000000, 1.000000000000000000 ) ) ;
#352 = VERTEX_POINT ( 'NONE', #222 ) ;
#353 = CALENDAR_DATE ( 2026, 19, 1 ) ;
#354 = CYLINDRICAL_SURFACE ( 'NONE', #317, 9.500000000000063949 ) ;
#355 = VECTOR ( 'NONE', #40, 1000.000000000000000 ) ;
#356 = CYLINDRICAL_SURFACE ( 'NONE', #221, 9.500000000000063949 ) ;
#357 = LOCAL_TIME ( 16, 56, 54.00000000000000000, #87 ) ;
#358 = ORIENTED_EDGE ( 'NONE', *, *, #232, .F. ) ;
#359 = ORIENTED_EDGE ( 'NONE', *, *, #232, .T. ) ;
#360 =( LENGTH_UNIT ( ) NAMED_UNIT ( * ) SI_UNIT ( .MILLI., .METRE. ) );
#361 = ADVANCED_FACE ( 'NONE', ( #158 ), #183, .F. ) ;
#362 = FACE_OUTER_BOUND ( 'NONE', #127, .T. ) ;
#363 = APPROVAL ( #366, 'UNSPECIFIED' ) ;
#364 = DIRECTION ( 'NONE',  ( -1.168432953743421756E-30, 3.816391647148975608E-15, 1.000000000000000000 ) ) ;
#365 = AXIS2_PLACEMENT_3D ( 'NONE', #8, #364, #103 ) ;
#366 = APPROVAL_STATUS ( 'not_yet_approved' ) ;
#367 = CARTESIAN_POINT ( 'NONE',  ( 1552.000000000000000, 40.00000000000008527, 22.49999999999999645 ) ) ;
#368 = DIRECTION ( 'NONE',  ( 1.000000000000000000, 3.061616997868382648E-16, -0.000000000000000000 ) ) ;
#369 = LINE ( 'NONE', #76, #286 ) ;
#370 = ORGANIZATION ( 'UNSPECIFIED', 'UNSPECIFIED', '' ) ;
#371 = ORIENTED_EDGE ( 'NONE', *, *, #116, .F. ) ;
#372 = ORIENTED_EDGE ( 'NONE', *, *, #116, .T. ) ;
#373 = CARTESIAN_POINT ( 'NONE',  ( -1622.500000000000000, -95.00000000000048317, -22.49999999999965539 ) ) ;
#374 = ORIENTED_EDGE ( 'NONE', *, *, #283, .T. ) ;
#375 = EDGE_CURVE ( 'NONE', #251, #276, #67, .T. ) ;
#376 = AXIS2_PLACEMENT_3D ( 'NONE', #333, #275, #129 ) ;
#377 = ORIENTED_EDGE ( 'NONE', *, *, #144, .T. ) ;
#378 = DATE_AND_TIME ( #14, #357 ) ;
#379 = FACE_BOUND ( 'NONE', #318, .T. ) ;
#380 = ADVANCED_BREP_SHAPE_REPRESENTATION ( '3982-57_REV_', ( #25, #23 ), #197 ) ;
#381 = DIRECTION ( 'NONE',  ( 0.000000000000000000, 4.009138700035287069E-15, 1.000000000000000000 ) ) ;
#382 = PERSON_AND_ORGANIZATION ( #113, #370 ) ;
#383 = DIRECTION ( 'NONE',  ( -1.168432953743421756E-30, 3.816391647148975608E-15, 1.000000000000000000 ) ) ;
#384 = CARTESIAN_POINT ( 'NONE',  ( 1622.500000000000000, -94.99999999999948841, -22.49999999999965539 ) ) ;
#385 = ADVANCED_FACE ( 'NONE', ( #155 ), #303, .F. ) ;
ENDSEC;
END-ISO-10303-21;
