ISO-10303-21;
HEADER;
FILE_DESCRIPTION (( 'STEP AP203' ),
    '1' );
FILE_NAME ('3982-59_REV_.step',
    '2026-01-19T05:58:48',
    ( '' ),
    ( '' ),
    'SwSTEP 2.0',
    'SolidWorks 2025',
    '' );
FILE_SCHEMA (( 'CONFIG_CONTROL_DESIGN' ));
ENDSEC;

DATA;
#1 = VECTOR ( 'NONE', #261, 1000.000000000000000 ) ;
#2 = LINE ( 'NONE', #240, #143 ) ;
#3 = CARTESIAN_POINT ( 'NONE',  ( 157.2023472551317980, 39.84778792366994082, 22.49999999999999645 ) ) ;
#4 = APPLICATION_CONTEXT ( 'configuration controlled 3d designs of mechanical parts and assemblies' ) ;
#5 = ORIENTED_EDGE ( 'NONE', *, *, #22, .T. ) ;
#6 = CARTESIAN_POINT ( 'NONE',  ( 157.2023472551317980, 39.84778792366994082, -22.50000000000017053 ) ) ;
#7 = LOCAL_TIME ( 16, 58, 48.00000000000000000, #360 ) ;
#8 = CARTESIAN_POINT ( 'NONE',  ( -359.0000000000000568, 94.99999999999981526, -22.50000000000038014 ) ) ;
#9 = PERSON_AND_ORGANIZATION ( #50, #58 ) ;
#10 = ORIENTED_EDGE ( 'NONE', *, *, #345, .F. ) ;
#11 = APPROVAL ( #94, 'UNSPECIFIED' ) ;
#12 = EDGE_LOOP ( 'NONE', ( #185, #274 ) ) ;
#13 = PERSON_AND_ORGANIZATION_ROLE ( 'creator' ) ;
#14 = ORIENTED_EDGE ( 'NONE', *, *, #199, .F. ) ;
#15 = CIRCLE ( 'NONE', #27, 9.499999999999980460 ) ;
#16 = LINE ( 'NONE', #52, #257 ) ;
#17 = CARTESIAN_POINT ( 'NONE',  ( 157.2023472551317980, 39.84778792366994082, 22.49999999999999645 ) ) ;
#18 = DIRECTION ( 'NONE',  ( 1.168432953743421931E-30, -3.816391647148975608E-15, -1.000000000000000000 ) ) ;
#19 = EDGE_CURVE ( 'NONE', #337, #60, #244, .T. ) ;
#20 = LOCAL_TIME ( 16, 58, 48.00000000000000000, #73 ) ;
#21 = DIRECTION ( 'NONE',  ( 0.000000000000000000, -1.000000000000000000, 3.652049423109075124E-15 ) ) ;
#22 = EDGE_CURVE ( 'NONE', #250, #291, #363, .T. ) ;
#23 = CARTESIAN_POINT ( 'NONE',  ( 147.7023472551318264, 39.84778792366994082, 22.49999999999999645 ) ) ;
#24 = CARTESIAN_POINT ( 'NONE',  ( 359.0000000000000568, -94.99999999999977263, -22.50000000000037659 ) ) ;
#25 = EDGE_CURVE ( 'NONE', #338, #178, #324, .T. ) ;
#26 = AXIS2_PLACEMENT_3D ( 'NONE', #282, #135, #80 ) ;
#27 = AXIS2_PLACEMENT_3D ( 'NONE', #3, #84, #117 ) ;
#28 = CARTESIAN_POINT ( 'NONE',  ( -358.9999999999999432, -95.00000000000018474, -22.49999999999965539 ) ) ;
#29 = ADVANCED_FACE ( 'NONE', ( #248 ), #218, .F. ) ;
#30 = CARTESIAN_POINT ( 'NONE',  ( 342.3771539300757354, 94.99999999999998579, -22.50000000000037659 ) ) ;
#31 = VERTEX_POINT ( 'NONE', #317 ) ;
#32 = FACE_OUTER_BOUND ( 'NONE', #100, .T. ) ;
#33 = ORIENTED_EDGE ( 'NONE', *, *, #19, .T. ) ;
#34 = DIRECTION ( 'NONE',  ( 1.000000000000000000, 3.061616997868382648E-16, -0.000000000000000000 ) ) ;
#35 = ADVANCED_FACE ( 'NONE', ( #49, #231, #83 ), #77, .F. ) ;
#36 = APPROVAL_DATE_TIME ( #38, #11 ) ;
#37 = ORIENTED_EDGE ( 'NONE', *, *, #81, .T. ) ;
#38 = DATE_AND_TIME ( #279, #169 ) ;
#39 = EDGE_LOOP ( 'NONE', ( #336, #86, #365, #307 ) ) ;
#40 = APPROVAL_DATE_TIME ( #340, #335 ) ;
#41 = CLOSED_SHELL ( 'NONE', ( #378, #275, #35, #350, #175, #29, #312, #332, #304, #70 ) ) ;
#42 = ORIENTED_EDGE ( 'NONE', *, *, #120, .T. ) ;
#43 = CC_DESIGN_PERSON_AND_ORGANIZATION_ASSIGNMENT ( #69, #161, ( #234 ) ) ;
#44 = EDGE_LOOP ( 'NONE', ( #5, #37, #14, #330 ) ) ;
#45 = CARTESIAN_POINT ( 'NONE',  ( 0.000000000000000000, 0.000000000000000000, 0.000000000000000000 ) ) ;
#46 = EDGE_LOOP ( 'NONE', ( #272, #148, #160, #115 ) ) ;
#47 = LINE ( 'NONE', #313, #1 ) ;
#48 = AXIS2_PLACEMENT_3D ( 'NONE', #260, #379, #198 ) ;
#49 = FACE_BOUND ( 'NONE', #118, .T. ) ;
#50 = PERSON ( 'UNSPECIFIED', 'UNSPECIFIED', 'UNSPECIFIED', ('UNSPECIFIED'), ('UNSPECIFIED'), ('UNSPECIFIED') ) ;
#51 = CARTESIAN_POINT ( 'NONE',  ( 166.7023472551317695, 39.84778792366994082, 22.49999999999999645 ) ) ;
#52 = CARTESIAN_POINT ( 'NONE',  ( -359.0000000000000568, 94.99999999999981526, -22.50000000000038014 ) ) ;
#53 = AXIS2_PLACEMENT_3D ( 'NONE', #321, #85, #269 ) ;
#54 = CARTESIAN_POINT ( 'NONE',  ( -359.0000000000000568, 95.00000000000000000, 22.49999999999963052 ) ) ;
#55 = DIRECTION ( 'NONE',  ( 1.000000000000000000, 0.000000000000000000, 0.000000000000000000 ) ) ;
#56 = EDGE_CURVE ( 'NONE', #104, #224, #47, .T. ) ;
#57 = CARTESIAN_POINT ( 'NONE',  ( 359.0000000000000568, -94.99999999999977263, 22.50000000000035527 ) ) ;
#58 = ORGANIZATION ( 'UNSPECIFIED', 'UNSPECIFIED', '' ) ;
#59 = DIRECTION ( 'NONE',  ( -1.000000000000000000, -5.843279076974508523E-16, 2.342651628260497432E-30 ) ) ;
#60 = VERTEX_POINT ( 'NONE', #51 ) ;
#61 = LINE ( 'NONE', #87, #66 ) ;
#62 = CARTESIAN_POINT ( 'NONE',  ( 173.6748066749439374, -39.84778792366970634, 22.49999999999999645 ) ) ;
#63 = ORIENTED_EDGE ( 'NONE', *, *, #165, .F. ) ;
#64 = CIRCLE ( 'NONE', #112, 9.499999999999980460 ) ;
#65 = COORDINATED_UNIVERSAL_TIME_OFFSET ( 10, 0, .AHEAD. ) ;
#66 = VECTOR ( 'NONE', #331, 1000.000000000000000 ) ;
#67 = PERSON_AND_ORGANIZATION ( #50, #58 ) ;
#68 = ORIENTED_EDGE ( 'NONE', *, *, #25, .T. ) ;
#69 = PERSON_AND_ORGANIZATION ( #50, #58 ) ;
#70 = ADVANCED_FACE ( 'NONE', ( #139 ), #164, .F. ) ;
#71 = DIRECTION ( 'NONE',  ( -0.000000000000000000, -0.000000000000000000, 1.000000000000000000 ) ) ;
#72 = MANIFOLD_SOLID_BREP ( 'M16 Clearance Hole1', #41 ) ;
#73 = COORDINATED_UNIVERSAL_TIME_OFFSET ( 10, 0, .AHEAD. ) ;
#74 = ORIENTED_EDGE ( 'NONE', *, *, #81, .F. ) ;
#75 = CALENDAR_DATE ( 2026, 19, 1 ) ;
#76 = CARTESIAN_POINT ( 'NONE',  ( 166.7023472551317695, 39.84778792366994082, 22.49999999999999645 ) ) ;
#77 = PLANE ( 'NONE',  #132 ) ;
#78 = DIRECTION ( 'NONE',  ( -0.000000000000000000, -0.000000000000000000, 1.000000000000000000 ) ) ;
#79 = AXIS2_PLACEMENT_3D ( 'NONE', #6, #99, #216 ) ;
#80 = DIRECTION ( 'NONE',  ( 1.000000000000000000, 0.000000000000000000, 0.000000000000000000 ) ) ;
#81 = EDGE_CURVE ( 'NONE', #291, #366, #195, .T. ) ;
#82 = CARTESIAN_POINT ( 'NONE',  ( 157.2023472551317980, 39.84778792366994082, -22.50000000000017053 ) ) ;
#83 = FACE_BOUND ( 'NONE', #370, .T. ) ;
#84 = DIRECTION ( 'NONE',  ( -0.000000000000000000, -0.000000000000000000, 1.000000000000000000 ) ) ;
#85 = DIRECTION ( 'NONE',  ( -0.000000000000000000, -0.000000000000000000, 1.000000000000000000 ) ) ;
#86 = ORIENTED_EDGE ( 'NONE', *, *, #203, .F. ) ;
#87 = CARTESIAN_POINT ( 'NONE',  ( 342.3771539300757354, 94.99999999999998579, 22.49999999999999645 ) ) ;
#88 = ORIENTED_EDGE ( 'NONE', *, *, #236, .F. ) ;
#89 = LOCAL_TIME ( 16, 58, 48.00000000000000000, #223 ) ;
#90 = CYLINDRICAL_SURFACE ( 'NONE', #222, 9.499999999999980460 ) ;
#91 = EDGE_LOOP ( 'NONE', ( #385, #105, #68, #10 ) ) ;
#92 = CARTESIAN_POINT ( 'NONE',  ( 154.6748066749439943, -39.84778792366970634, 22.49999999999999645 ) ) ;
#93 = EDGE_CURVE ( 'NONE', #178, #338, #263, .T. ) ;
#94 = APPROVAL_STATUS ( 'not_yet_approved' ) ;
#95 = CIRCLE ( 'NONE', #180, 9.499999999999980460 ) ;
#96 = APPROVAL_ROLE ( '' ) ;
#97 = VERTEX_POINT ( 'NONE', #230 ) ;
#98 = CC_DESIGN_DATE_AND_TIME_ASSIGNMENT ( #219, #247, ( #227 ) ) ;
#99 = DIRECTION ( 'NONE',  ( -1.168432953743421931E-30, 3.816391647148975608E-15, 1.000000000000000000 ) ) ;
#100 = EDGE_LOOP ( 'NONE', ( #225, #238, #74, #128 ) ) ;
#101 = PERSON_AND_ORGANIZATION_ROLE ( 'classification_officer' ) ;
#102 = ORIENTED_EDGE ( 'NONE', *, *, #56, .F. ) ;
#103 = APPROVAL_ROLE ( '' ) ;
#104 = VERTEX_POINT ( 'NONE', #347 ) ;
#105 = ORIENTED_EDGE ( 'NONE', *, *, #207, .T. ) ;
#106 = DIRECTION ( 'NONE',  ( 1.000000000000000000, 0.000000000000000000, 0.000000000000000000 ) ) ;
#107 = PLANE ( 'NONE',  #245 ) ;
#108 = VECTOR ( 'NONE', #170, 1000.000000000000000 ) ;
#109 = DIRECTION ( 'NONE',  ( -1.168432953743421931E-30, 3.816391647148975608E-15, 1.000000000000000000 ) ) ;
#110 = CARTESIAN_POINT ( 'NONE',  ( -358.9999999999999432, -95.00000000000018474, -22.49999999999965539 ) ) ;
#111 = CARTESIAN_POINT ( 'NONE',  ( -358.9999999999999432, -95.00000000000018474, -22.49999999999965539 ) ) ;
#112 = AXIS2_PLACEMENT_3D ( 'NONE', #200, #137, #320 ) ;
#113 = VECTOR ( 'NONE', #204, 1000.000000000000000 ) ;
#114 = CARTESIAN_POINT ( 'NONE',  ( 164.1748066749439658, -39.84778792366970634, 22.49999999999999645 ) ) ;
#115 = ORIENTED_EDGE ( 'NONE', *, *, #120, .F. ) ;
#116 = CARTESIAN_POINT ( 'NONE',  ( 166.7023472551317695, 39.84778792366994082, -22.50000000000017053 ) ) ;
#117 = DIRECTION ( 'NONE',  ( 1.000000000000000000, 0.000000000000000000, 0.000000000000000000 ) ) ;
#118 = EDGE_LOOP ( 'NONE', ( #341, #217 ) ) ;
#119 = AXIS2_PLACEMENT_3D ( 'NONE', #179, #299, #328 ) ;
#120 = EDGE_CURVE ( 'NONE', #182, #250, #16, .T. ) ;
#121 = DIRECTION ( 'NONE',  ( -0.000000000000000000, -0.000000000000000000, 1.000000000000000000 ) ) ;
#122 = CARTESIAN_POINT ( 'NONE',  ( -359.0000000000000568, 94.99999999999981526, -22.50000000000038014 ) ) ;
#123 = CALENDAR_DATE ( 2026, 19, 1 ) ;
#124 = EDGE_LOOP ( 'NONE', ( #309, #270, #278, #305 ) ) ;
#125 = APPROVAL_ROLE ( '' ) ;
#126 = DIRECTION ( 'NONE',  ( 1.000000000000000000, 3.061616997868382648E-16, -0.000000000000000000 ) ) ;
#127 = PERSON_AND_ORGANIZATION_ROLE ( 'design_supplier' ) ;
#128 = ORIENTED_EDGE ( 'NONE', *, *, #259, .T. ) ;
#129 = APPLICATION_PROTOCOL_DEFINITION ( 'international standard', 'config_control_design', 1994, #4 ) ;
#130 = VERTEX_POINT ( 'NONE', #371 ) ;
#131 = EDGE_CURVE ( 'NONE', #60, #224, #252, .T. ) ;
#132 = AXIS2_PLACEMENT_3D ( 'NONE', #373, #18, #344 ) ;
#133 = ORIENTED_EDGE ( 'NONE', *, *, #242, .F. ) ;
#134 = DIRECTION ( 'NONE',  ( -1.168432953743421931E-30, 3.816391647148975608E-15, 1.000000000000000000 ) ) ;
#135 = DIRECTION ( 'NONE',  ( -0.000000000000000000, -0.000000000000000000, 1.000000000000000000 ) ) ;
#136 = EDGE_CURVE ( 'NONE', #104, #337, #95, .T. ) ;
#137 = DIRECTION ( 'NONE',  ( -1.168432953743421931E-30, 3.816391647148975608E-15, 1.000000000000000000 ) ) ;
#138 = LINE ( 'NONE', #377, #108 ) ;
#139 = FACE_OUTER_BOUND ( 'NONE', #141, .T. ) ;
#140 = DIRECTION ( 'NONE',  ( -0.000000000000000000, -0.000000000000000000, 1.000000000000000000 ) ) ;
#141 = EDGE_LOOP ( 'NONE', ( #102, #352, #33, #188 ) ) ;
#142 = VECTOR ( 'NONE', #184, 1000.000000000000000 ) ;
#143 = VECTOR ( 'NONE', #267, 1000.000000000000000 ) ;
#144 = LINE ( 'NONE', #177, #246 ) ;
#145 = DIRECTION ( 'NONE',  ( 0.08715574274765178209, -0.9961946980917461003, 0.000000000000000000 ) ) ;
#146 = PRODUCT_RELATED_PRODUCT_CATEGORY ( 'detail', '', ( #234 ) ) ;
#147 = CARTESIAN_POINT ( 'NONE',  ( 342.3771539300757354, 94.99999999999998579, -22.50000000000037659 ) ) ;
#148 = ORIENTED_EDGE ( 'NONE', *, *, #259, .F. ) ;
#149 = CIRCLE ( 'NONE', #79, 9.499999999999980460 ) ;
#150 = CARTESIAN_POINT ( 'NONE',  ( 173.6748066749439374, -39.84778792366970634, -22.49999999999986500 ) ) ;
#151 = ORIENTED_EDGE ( 'NONE', *, *, #249, .T. ) ;
#152 =( NAMED_UNIT ( * ) SI_UNIT ( $, .STERADIAN. ) SOLID_ANGLE_UNIT ( ) );
#153 = ORIENTED_EDGE ( 'NONE', *, *, #165, .T. ) ;
#154 = PERSON_AND_ORGANIZATION ( #50, #58 ) ;
#155 = ORIENTED_EDGE ( 'NONE', *, *, #355, .T. ) ;
#156 = VECTOR ( 'NONE', #140, 1000.000000000000000 ) ;
#157 = ORIENTED_EDGE ( 'NONE', *, *, #383, .T. ) ;
#158 = DESIGN_CONTEXT ( 'detailed design', #376, 'design' ) ;
#159 = APPLICATION_PROTOCOL_DEFINITION ( 'international standard', 'config_control_design', 1994, #376 ) ;
#160 = ORIENTED_EDGE ( 'NONE', *, *, #22, .F. ) ;
#161 = PERSON_AND_ORGANIZATION_ROLE ( 'design_owner' ) ;
#162 = ORIENTED_EDGE ( 'NONE', *, *, #355, .F. ) ;
#163 = APPROVAL_PERSON_ORGANIZATION ( #67, #335, #103 ) ;
#164 = CYLINDRICAL_SURFACE ( 'NONE', #48, 9.499999999999980460 ) ;
#165 = EDGE_CURVE ( 'NONE', #130, #182, #289, .T. ) ;
#166 = FACE_BOUND ( 'NONE', #266, .T. ) ;
#167 = LINE ( 'NONE', #197, #232 ) ;
#168 = DIRECTION ( 'NONE',  ( -1.168432953743421931E-30, 3.816391647148975608E-15, 1.000000000000000000 ) ) ;
#169 = LOCAL_TIME ( 16, 58, 48.00000000000000000, #303 ) ;
#170 = DIRECTION ( 'NONE',  ( -0.000000000000000000, -0.000000000000000000, 1.000000000000000000 ) ) ;
#171 = FACE_OUTER_BOUND ( 'NONE', #46, .T. ) ;
#172 = PLANE ( 'NONE',  #215 ) ;
#173 = PRODUCT_DEFINITION_FORMATION_WITH_SPECIFIED_SOURCE ( 'ANY', '', #234, .NOT_KNOWN. ) ;
#174 = PLANE ( 'NONE',  #119 ) ;
#175 = ADVANCED_FACE ( 'NONE', ( #166, #284, #256 ), #107, .F. ) ;
#176 = VERTEX_POINT ( 'NONE', #228 ) ;
#177 = CARTESIAN_POINT ( 'NONE',  ( -359.0000000000000568, 95.00000000000000000, 22.49999999999963052 ) ) ;
#178 = VERTEX_POINT ( 'NONE', #346 ) ;
#179 = CARTESIAN_POINT ( 'NONE',  ( -359.0000000000000568, 94.99999999999981526, -22.50000000000038014 ) ) ;
#180 = AXIS2_PLACEMENT_3D ( 'NONE', #82, #134, #226 ) ;
#181 =( LENGTH_UNIT ( ) NAMED_UNIT ( * ) SI_UNIT ( .MILLI., .METRE. ) );
#182 = VERTEX_POINT ( 'NONE', #54 ) ;
#183 = CALENDAR_DATE ( 2026, 19, 1 ) ;
#184 = DIRECTION ( 'NONE',  ( -0.000000000000000000, -0.000000000000000000, 1.000000000000000000 ) ) ;
#185 = ORIENTED_EDGE ( 'NONE', *, *, #203, .T. ) ;
#186 = LOCAL_TIME ( 16, 58, 48.00000000000000000, #65 ) ;
#187 = MECHANICAL_CONTEXT ( 'NONE', #4, 'mechanical' ) ;
#188 = ORIENTED_EDGE ( 'NONE', *, *, #131, .T. ) ;
#189 = APPROVAL ( #273, 'UNSPECIFIED' ) ;
#190 = DATE_TIME_ROLE ( 'creation_date' ) ;
#191 = CARTESIAN_POINT ( 'NONE',  ( 164.1748066749439658, -39.84778792366970634, 22.49999999999999645 ) ) ;
#192 = DIRECTION ( 'NONE',  ( -3.061616997868382648E-16, 1.000000000000000000, -4.009138700035287069E-15 ) ) ;
#193 = AXIS2_PLACEMENT_3D ( 'NONE', #111, #192, #229 ) ;
#194 = CC_DESIGN_SECURITY_CLASSIFICATION ( #227, ( #173 ) ) ;
#195 = LINE ( 'NONE', #258, #201 ) ;
#196 = APPROVAL_DATE_TIME ( #292, #189 ) ;
#197 = CARTESIAN_POINT ( 'NONE',  ( -358.9999999999999432, -95.00000000000018474, -22.49999999999965539 ) ) ;
#198 = DIRECTION ( 'NONE',  ( 1.000000000000000000, 0.000000000000000000, 0.000000000000000000 ) ) ;
#199 = EDGE_CURVE ( 'NONE', #176, #366, #167, .T. ) ;
#200 = CARTESIAN_POINT ( 'NONE',  ( 164.1748066749439658, -39.84778792366970634, -22.49999999999986500 ) ) ;
#201 = VECTOR ( 'NONE', #318, 1000.000000000000000 ) ;
#202 = CC_DESIGN_APPROVAL ( #189, ( #227 ) ) ;
#203 = EDGE_CURVE ( 'NONE', #302, #97, #64, .T. ) ;
#204 = DIRECTION ( 'NONE',  ( -0.000000000000000000, -0.000000000000000000, 1.000000000000000000 ) ) ;
#205 = EDGE_CURVE ( 'NONE', #97, #302, #334, .T. ) ;
#206 = CARTESIAN_POINT ( 'NONE',  ( 359.0000000000000568, -94.99999999999995737, -22.49999999999965539 ) ) ;
#207 = EDGE_CURVE ( 'NONE', #97, #338, #138, .T. ) ;
#208 = CARTESIAN_POINT ( 'NONE',  ( 157.2023472551317980, 39.84778792366994082, 22.49999999999999645 ) ) ;
#209 = ORIENTED_EDGE ( 'NONE', *, *, #131, .F. ) ;
#210 =( GEOMETRIC_REPRESENTATION_CONTEXT ( 3 ) GLOBAL_UNCERTAINTY_ASSIGNED_CONTEXT ( ( #369 ) ) GLOBAL_UNIT_ASSIGNED_CONTEXT ( ( #181, #241, #152 ) ) REPRESENTATION_CONTEXT ( 'NONE', 'WORKASPACE' ) );
#211 = CARTESIAN_POINT ( 'NONE',  ( -359.0000000000000000, -1.005038158356501817E-14, -8.410119345455183926E-28 ) ) ;
#212 = LINE ( 'NONE', #62, #113 ) ;
#213 = ADVANCED_BREP_SHAPE_REPRESENTATION ( '3982-59_REV_', ( #72, #357 ), #210 ) ;
#214 = PERSON_AND_ORGANIZATION ( #50, #58 ) ;
#215 = AXIS2_PLACEMENT_3D ( 'NONE', #30, #349, #145 ) ;
#216 = DIRECTION ( 'NONE',  ( 0.000000000000000000, -1.000000000000000000, 3.652049423109075124E-15 ) ) ;
#217 = ORIENTED_EDGE ( 'NONE', *, *, #25, .F. ) ;
#218 = PLANE ( 'NONE',  #193 ) ;
#219 = DATE_AND_TIME ( #123, #186 ) ;
#220 = CC_DESIGN_PERSON_AND_ORGANIZATION_ASSIGNMENT ( #154, #101, ( #227 ) ) ;
#221 = ORIENTED_EDGE ( 'NONE', *, *, #342, .F. ) ;
#222 = AXIS2_PLACEMENT_3D ( 'NONE', #114, #121, #55 ) ;
#223 = COORDINATED_UNIVERSAL_TIME_OFFSET ( 10, 0, .AHEAD. ) ;
#224 = VERTEX_POINT ( 'NONE', #23 ) ;
#225 = ORIENTED_EDGE ( 'NONE', *, *, #342, .T. ) ;
#226 = DIRECTION ( 'NONE',  ( 0.000000000000000000, -1.000000000000000000, 3.652049423109075124E-15 ) ) ;
#227 = SECURITY_CLASSIFICATION ( '', '', #333 ) ;
#228 = CARTESIAN_POINT ( 'NONE',  ( -358.9999999999999432, -95.00000000000018474, -22.49999999999965539 ) ) ;
#229 = DIRECTION ( 'NONE',  ( 0.000000000000000000, 4.009138700035287069E-15, 1.000000000000000000 ) ) ;
#230 = CARTESIAN_POINT ( 'NONE',  ( 154.6748066749439943, -39.84778792366970634, -22.49999999999986500 ) ) ;
#231 = FACE_OUTER_BOUND ( 'NONE', #381, .T. ) ;
#232 = VECTOR ( 'NONE', #285, 1000.000000000000000 ) ;
#233 = VECTOR ( 'NONE', #325, 1000.000000000000000 ) ;
#234 = PRODUCT ( '3982-59_REV_', '3982-59_REV_', '', ( #187 ) ) ;
#235 = LINE ( 'NONE', #356, #156 ) ;
#236 = EDGE_CURVE ( 'NONE', #224, #60, #15, .T. ) ;
#237 = CARTESIAN_POINT ( 'NONE',  ( -358.9999999999999432, -95.00000000000000000, 22.50000000000035527 ) ) ;
#238 = ORIENTED_EDGE ( 'NONE', *, *, #249, .F. ) ;
#239 = FACE_OUTER_BOUND ( 'NONE', #91, .T. ) ;
#240 = CARTESIAN_POINT ( 'NONE',  ( -358.9999999999999432, -95.00000000000018474, -22.49999999999965539 ) ) ;
#241 =( NAMED_UNIT ( * ) PLANE_ANGLE_UNIT ( ) SI_UNIT ( $, .RADIAN. ) );
#242 = EDGE_CURVE ( 'NONE', #176, #130, #2, .T. ) ;
#243 = PERSON_AND_ORGANIZATION ( #50, #58 ) ;
#244 = LINE ( 'NONE', #76, #142 ) ;
#245 = AXIS2_PLACEMENT_3D ( 'NONE', #110, #168, #288 ) ;
#246 = VECTOR ( 'NONE', #380, 1000.000000000000000 ) ;
#247 = DATE_TIME_ROLE ( 'classification_date' ) ;
#248 = FACE_OUTER_BOUND ( 'NONE', #251, .T. ) ;
#249 = EDGE_CURVE ( 'NONE', #366, #327, #358, .T. ) ;
#250 = VERTEX_POINT ( 'NONE', #122 ) ;
#251 = EDGE_LOOP ( 'NONE', ( #151, #162, #133, #311 ) ) ;
#252 = CIRCLE ( 'NONE', #300, 9.499999999999980460 ) ;
#253 = EDGE_LOOP ( 'NONE', ( #42, #296, #277, #153 ) ) ;
#254 = CARTESIAN_POINT ( 'NONE',  ( -358.9999999999999432, -95.00000000000000000, 22.50000000000035527 ) ) ;
#255 = PRODUCT_DEFINITION ( 'UNKNOWN', '', #173, #158 ) ;
#256 = FACE_OUTER_BOUND ( 'NONE', #44, .T. ) ;
#257 = VECTOR ( 'NONE', #348, 1000.000000000000000 ) ;
#258 = CARTESIAN_POINT ( 'NONE',  ( 342.3771539300757354, 94.99999999999998579, -22.50000000000037659 ) ) ;
#259 = EDGE_CURVE ( 'NONE', #291, #31, #235, .T. ) ;
#260 = CARTESIAN_POINT ( 'NONE',  ( 157.2023472551317980, 39.84778792366994082, 22.49999999999999645 ) ) ;
#261 = DIRECTION ( 'NONE',  ( -0.000000000000000000, -0.000000000000000000, 1.000000000000000000 ) ) ;
#262 = FACE_OUTER_BOUND ( 'NONE', #39, .T. ) ;
#263 = CIRCLE ( 'NONE', #26, 9.499999999999980460 ) ;
#264 = DIRECTION ( 'NONE',  ( 5.843279076974508523E-16, -1.000000000000000000, 3.816391647148975608E-15 ) ) ;
#265 = DIRECTION ( 'NONE',  ( 1.000000000000000000, 0.000000000000000000, 0.000000000000000000 ) ) ;
#266 = EDGE_LOOP ( 'NONE', ( #157, #368 ) ) ;
#267 = DIRECTION ( 'NONE',  ( 0.000000000000000000, 4.009138700035287069E-15, 1.000000000000000000 ) ) ;
#268 = CC_DESIGN_PERSON_AND_ORGANIZATION_ASSIGNMENT ( #243, #276, ( #255 ) ) ;
#269 = DIRECTION ( 'NONE',  ( 1.000000000000000000, 0.000000000000000000, 0.000000000000000000 ) ) ;
#270 = ORIENTED_EDGE ( 'NONE', *, *, #56, .T. ) ;
#271 = DIRECTION ( 'NONE',  ( 1.000000000000000000, 0.000000000000000000, 0.000000000000000000 ) ) ;
#272 = ORIENTED_EDGE ( 'NONE', *, *, #298, .T. ) ;
#273 = APPROVAL_STATUS ( 'not_yet_approved' ) ;
#274 = ORIENTED_EDGE ( 'NONE', *, *, #205, .T. ) ;
#275 = ADVANCED_FACE ( 'NONE', ( #239 ), #90, .F. ) ;
#276 = PERSON_AND_ORGANIZATION_ROLE ( 'creator' ) ;
#277 = ORIENTED_EDGE ( 'NONE', *, *, #242, .T. ) ;
#278 = ORIENTED_EDGE ( 'NONE', *, *, #236, .T. ) ;
#279 = CALENDAR_DATE ( 2026, 19, 1 ) ;
#280 = DIRECTION ( 'NONE',  ( 1.000000000000000000, 0.000000000000000000, 0.000000000000000000 ) ) ;
#281 = VECTOR ( 'NONE', #264, 1000.000000000000000 ) ;
#282 = CARTESIAN_POINT ( 'NONE',  ( 164.1748066749439658, -39.84778792366970634, 22.49999999999999645 ) ) ;
#283 = PRODUCT_DEFINITION_SHAPE ( 'NONE', 'NONE',  #255 ) ;
#284 = FACE_BOUND ( 'NONE', #12, .T. ) ;
#285 = DIRECTION ( 'NONE',  ( 1.000000000000000000, 3.061616997868382648E-16, -0.000000000000000000 ) ) ;
#286 = CC_DESIGN_PERSON_AND_ORGANIZATION_ASSIGNMENT ( #214, #127, ( #173 ) ) ;
#287 = AXIS2_PLACEMENT_3D ( 'NONE', #375, #109, #21 ) ;
#288 = DIRECTION ( 'NONE',  ( 0.000000000000000000, -1.000000000000000000, 3.816391647148975608E-15 ) ) ;
#289 = LINE ( 'NONE', #254, #314 ) ;
#290 = LINE ( 'NONE', #237, #339 ) ;
#291 = VERTEX_POINT ( 'NONE', #147 ) ;
#292 = DATE_AND_TIME ( #323, #20 ) ;
#293 = LINE ( 'NONE', #28, #281 ) ;
#294 = APPROVAL_PERSON_ORGANIZATION ( #301, #189, #125 ) ;
#295 = DIRECTION ( 'NONE',  ( -0.000000000000000000, -0.000000000000000000, 1.000000000000000000 ) ) ;
#296 = ORIENTED_EDGE ( 'NONE', *, *, #372, .T. ) ;
#297 = PLANE ( 'NONE',  #326 ) ;
#298 = EDGE_CURVE ( 'NONE', #182, #31, #144, .T. ) ;
#299 = DIRECTION ( 'NONE',  ( 3.061616997868382648E-16, -1.000000000000000000, 4.009138700035287069E-15 ) ) ;
#300 = AXIS2_PLACEMENT_3D ( 'NONE', #17, #78, #106 ) ;
#301 = PERSON_AND_ORGANIZATION ( #50, #58 ) ;
#302 = VERTEX_POINT ( 'NONE', #150 ) ;
#303 = COORDINATED_UNIVERSAL_TIME_OFFSET ( 10, 0, .AHEAD. ) ;
#304 = ADVANCED_FACE ( 'NONE', ( #262 ), #351, .F. ) ;
#305 = ORIENTED_EDGE ( 'NONE', *, *, #19, .F. ) ;
#306 = DIRECTION ( 'NONE',  ( 0.000000000000000000, 0.000000000000000000, 1.000000000000000000 ) ) ;
#307 = ORIENTED_EDGE ( 'NONE', *, *, #93, .T. ) ;
#308 = APPROVAL_PERSON_ORGANIZATION ( #310, #11, #96 ) ;
#309 = ORIENTED_EDGE ( 'NONE', *, *, #136, .F. ) ;
#310 = PERSON_AND_ORGANIZATION ( #50, #58 ) ;
#311 = ORIENTED_EDGE ( 'NONE', *, *, #199, .T. ) ;
#312 = ADVANCED_FACE ( 'NONE', ( #384 ), #297, .T. ) ;
#313 = CARTESIAN_POINT ( 'NONE',  ( 147.7023472551318264, 39.84778792366994082, 22.49999999999999645 ) ) ;
#314 = VECTOR ( 'NONE', #315, 1000.000000000000000 ) ;
#315 = DIRECTION ( 'NONE',  ( -5.843279076974508523E-16, 1.000000000000000000, -3.816391647148975608E-15 ) ) ;
#316 = CC_DESIGN_DATE_AND_TIME_ASSIGNMENT ( #359, #190, ( #255 ) ) ;
#317 = CARTESIAN_POINT ( 'NONE',  ( 342.3771539300757354, 94.99999999999998579, 22.49999999999999645 ) ) ;
#318 = DIRECTION ( 'NONE',  ( 0.08715574274765178209, -0.9961946980917461003, 0.000000000000000000 ) ) ;
#319 = AXIS2_PLACEMENT_3D ( 'NONE', #208, #295, #265 ) ;
#320 = DIRECTION ( 'NONE',  ( 0.000000000000000000, -1.000000000000000000, 3.652049423109075124E-15 ) ) ;
#321 = CARTESIAN_POINT ( 'NONE',  ( 164.1748066749439658, -39.84778792366970634, 22.49999999999999645 ) ) ;
#322 = DIRECTION ( 'NONE',  ( 5.843279076974508523E-16, -1.000000000000000000, 0.000000000000000000 ) ) ;
#323 = CALENDAR_DATE ( 2026, 19, 1 ) ;
#324 = CIRCLE ( 'NONE', #374, 9.499999999999980460 ) ;
#325 = DIRECTION ( 'NONE',  ( 0.000000000000000000, 4.009138700035287069E-15, 1.000000000000000000 ) ) ;
#326 = AXIS2_PLACEMENT_3D ( 'NONE', #211, #59, #322 ) ;
#327 = VERTEX_POINT ( 'NONE', #57 ) ;
#328 = DIRECTION ( 'NONE',  ( 0.000000000000000000, -4.009138700035287069E-15, -1.000000000000000000 ) ) ;
#329 = CC_DESIGN_PERSON_AND_ORGANIZATION_ASSIGNMENT ( #9, #13, ( #173 ) ) ;
#330 = ORIENTED_EDGE ( 'NONE', *, *, #372, .F. ) ;
#331 = DIRECTION ( 'NONE',  ( 0.08715574274765178209, -0.9961946980917461003, 0.000000000000000000 ) ) ;
#332 = ADVANCED_FACE ( 'NONE', ( #32 ), #172, .F. ) ;
#333 = SECURITY_CLASSIFICATION_LEVEL ( 'unclassified' ) ;
#334 = CIRCLE ( 'NONE', #287, 9.499999999999980460 ) ;
#335 = APPROVAL ( #367, 'UNSPECIFIED' ) ;
#336 = ORIENTED_EDGE ( 'NONE', *, *, #207, .F. ) ;
#337 = VERTEX_POINT ( 'NONE', #116 ) ;
#338 = VERTEX_POINT ( 'NONE', #92 ) ;
#339 = VECTOR ( 'NONE', #34, 1000.000000000000000 ) ;
#340 = DATE_AND_TIME ( #183, #89 ) ;
#341 = ORIENTED_EDGE ( 'NONE', *, *, #93, .F. ) ;
#342 = EDGE_CURVE ( 'NONE', #31, #327, #61, .T. ) ;
#343 = ORIENTED_EDGE ( 'NONE', *, *, #298, .F. ) ;
#344 = DIRECTION ( 'NONE',  ( 0.000000000000000000, 1.000000000000000000, -3.816391647148975608E-15 ) ) ;
#345 = EDGE_CURVE ( 'NONE', #302, #178, #212, .T. ) ;
#346 = CARTESIAN_POINT ( 'NONE',  ( 173.6748066749439374, -39.84778792366970634, 22.49999999999999645 ) ) ;
#347 = CARTESIAN_POINT ( 'NONE',  ( 147.7023472551318264, 39.84778792366994082, -22.50000000000017053 ) ) ;
#348 = DIRECTION ( 'NONE',  ( -0.000000000000000000, -4.009138700035287069E-15, -1.000000000000000000 ) ) ;
#349 = DIRECTION ( 'NONE',  ( -0.9961946980917461003, -0.08715574274765178209, 0.000000000000000000 ) ) ;
#350 = ADVANCED_FACE ( 'NONE', ( #171 ), #174, .F. ) ;
#351 = CYLINDRICAL_SURFACE ( 'NONE', #53, 9.499999999999980460 ) ;
#352 = ORIENTED_EDGE ( 'NONE', *, *, #383, .F. ) ;
#353 = SHAPE_DEFINITION_REPRESENTATION ( #283, #213 ) ;
#354 = CYLINDRICAL_SURFACE ( 'NONE', #319, 9.499999999999980460 ) ;
#355 = EDGE_CURVE ( 'NONE', #130, #327, #290, .T. ) ;
#356 = CARTESIAN_POINT ( 'NONE',  ( 342.3771539300757354, 94.99999999999998579, -22.50000000000037659 ) ) ;
#357 = AXIS2_PLACEMENT_3D ( 'NONE', #45, #306, #271 ) ;
#358 = LINE ( 'NONE', #206, #233 ) ;
#359 = DATE_AND_TIME ( #75, #7 ) ;
#360 = COORDINATED_UNIVERSAL_TIME_OFFSET ( 10, 0, .AHEAD. ) ;
#361 = VECTOR ( 'NONE', #126, 1000.000000000000000 ) ;
#362 = CC_DESIGN_APPROVAL ( #335, ( #255 ) ) ;
#363 = LINE ( 'NONE', #8, #361 ) ;
#364 = CC_DESIGN_APPROVAL ( #11, ( #173 ) ) ;
#365 = ORIENTED_EDGE ( 'NONE', *, *, #345, .T. ) ;
#366 = VERTEX_POINT ( 'NONE', #24 ) ;
#367 = APPROVAL_STATUS ( 'not_yet_approved' ) ;
#368 = ORIENTED_EDGE ( 'NONE', *, *, #136, .T. ) ;
#369 = UNCERTAINTY_MEASURE_WITH_UNIT (LENGTH_MEASURE( 1.000000000000000082E-05 ), #181, 'distance_accuracy_value', 'NONE');
#370 = EDGE_LOOP ( 'NONE', ( #209, #88 ) ) ;
#371 = CARTESIAN_POINT ( 'NONE',  ( -358.9999999999999432, -95.00000000000000000, 22.50000000000035527 ) ) ;
#372 = EDGE_CURVE ( 'NONE', #250, #176, #293, .T. ) ;
#373 = CARTESIAN_POINT ( 'NONE',  ( -358.9999999999999432, -95.00000000000000000, 22.50000000000035527 ) ) ;
#374 = AXIS2_PLACEMENT_3D ( 'NONE', #191, #71, #280 ) ;
#375 = CARTESIAN_POINT ( 'NONE',  ( 164.1748066749439658, -39.84778792366970634, -22.49999999999986500 ) ) ;
#376 = APPLICATION_CONTEXT ( 'configuration controlled 3d designs of mechanical parts and assemblies' ) ;
#377 = CARTESIAN_POINT ( 'NONE',  ( 154.6748066749439943, -39.84778792366970634, 22.49999999999999645 ) ) ;
#378 = ADVANCED_FACE ( 'NONE', ( #382 ), #354, .F. ) ;
#379 = DIRECTION ( 'NONE',  ( -0.000000000000000000, -0.000000000000000000, 1.000000000000000000 ) ) ;
#380 = DIRECTION ( 'NONE',  ( 1.000000000000000000, 3.061616997868382648E-16, -0.000000000000000000 ) ) ;
#381 = EDGE_LOOP ( 'NONE', ( #155, #221, #343, #63 ) ) ;
#382 = FACE_OUTER_BOUND ( 'NONE', #124, .T. ) ;
#383 = EDGE_CURVE ( 'NONE', #337, #104, #149, .T. ) ;
#384 = FACE_OUTER_BOUND ( 'NONE', #253, .T. ) ;
#385 = ORIENTED_EDGE ( 'NONE', *, *, #205, .F. ) ;
ENDSEC;
END-ISO-10303-21;
