ISO-10303-21;
HEADER;
FILE_DESCRIPTION (( 'STEP AP203' ),
    '1' );
FILE_NAME ('3982-60_REV_.step',
    '2026-01-19T05:56:26',
    ( '' ),
    ( '' ),
    'SwSTEP 2.0',
    'SolidWorks 2025',
    '' );
FILE_SCHEMA (( 'CONFIG_CONTROL_DESIGN' ));
ENDSEC;

DATA;
#1 = DIRECTION ( 'NONE',  ( -0.000000000000000000, -0.000000000000000000, 1.000000000000000000 ) ) ;
#2 = CIRCLE ( 'NONE', #242, 9.499999999999987566 ) ;
#3 = ORIENTED_EDGE ( 'NONE', *, *, #225, .T. ) ;
#4 = EDGE_CURVE ( 'NONE', #246, #244, #26, .T. ) ;
#5 = CARTESIAN_POINT ( 'NONE',  ( -39.82519332505595600, -39.84778792366968503, 22.49999999999999645 ) ) ;
#6 = VERTEX_POINT ( 'NONE', #232 ) ;
#7 = CARTESIAN_POINT ( 'NONE',  ( -30.32519332505597021, -39.84778792366968503, 22.49999999999999645 ) ) ;
#8 = ORIENTED_EDGE ( 'NONE', *, *, #377, .T. ) ;
#9 = CARTESIAN_POINT ( 'NONE',  ( -30.32519332505597021, -39.84778792366968503, 22.49999999999999645 ) ) ;
#10 = ORIENTED_EDGE ( 'NONE', *, *, #281, .T. ) ;
#11 = AXIS2_PLACEMENT_3D ( 'NONE', #63, #149, #327 ) ;
#12 = PERSON_AND_ORGANIZATION ( #351, #348 ) ;
#13 = ORIENTED_EDGE ( 'NONE', *, *, #252, .F. ) ;
#14 = MECHANICAL_CONTEXT ( 'NONE', #216, 'mechanical' ) ;
#15 = CALENDAR_DATE ( 2026, 19, 1 ) ;
#16 = CC_DESIGN_APPROVAL ( #221, ( #129 ) ) ;
#17 = EDGE_CURVE ( 'NONE', #124, #274, #79, .T. ) ;
#18 = PRODUCT_DEFINITION_FORMATION_WITH_SPECIFIED_SOURCE ( 'ANY', '', #62, .NOT_KNOWN. ) ;
#19 = CARTESIAN_POINT ( 'NONE',  ( -46.79765274486809545, 39.84778792366996214, -22.50000000000017053 ) ) ;
#20 = AXIS2_PLACEMENT_3D ( 'NONE', #175, #366, #31 ) ;
#21 = FACE_OUTER_BOUND ( 'NONE', #40, .T. ) ;
#22 = DIRECTION ( 'NONE',  ( 1.000000000000000000, 3.061616997868382648E-16, -0.000000000000000000 ) ) ;
#23 = CARTESIAN_POINT ( 'NONE',  ( -463.4999999999999432, -95.00000000000019895, -22.49999999999965539 ) ) ;
#24 = DIRECTION ( 'NONE',  ( -1.168432953743421756E-30, 3.816391647148975608E-15, 1.000000000000000000 ) ) ;
#25 = PLANE ( 'NONE',  #342 ) ;
#26 = LINE ( 'NONE', #358, #374 ) ;
#27 = CARTESIAN_POINT ( 'NONE',  ( -20.82519332505598086, -39.84778792366968503, 22.49999999999999645 ) ) ;
#28 = EDGE_CURVE ( 'NONE', #61, #32, #308, .T. ) ;
#29 = VECTOR ( 'NONE', #365, 1000.000000000000000 ) ;
#30 = LOCAL_TIME ( 16, 56, 26.00000000000000000, #316 ) ;
#31 = DIRECTION ( 'NONE',  ( 1.000000000000000000, 0.000000000000000000, 0.000000000000000000 ) ) ;
#32 = VERTEX_POINT ( 'NONE', #138 ) ;
#33 = DIRECTION ( 'NONE',  ( 3.061616997868382648E-16, -1.000000000000000000, 4.009138700035287858E-15 ) ) ;
#34 = DIRECTION ( 'NONE',  ( 1.000000000000000000, 0.000000000000000000, 0.000000000000000000 ) ) ;
#35 = APPLICATION_CONTEXT ( 'configuration controlled 3d designs of mechanical parts and assemblies' ) ;
#36 = CARTESIAN_POINT ( 'NONE',  ( -20.82519332505598086, -39.84778792366968503, 22.49999999999999645 ) ) ;
#37 = ORIENTED_EDGE ( 'NONE', *, *, #260, .T. ) ;
#38 = PERSON_AND_ORGANIZATION_ROLE ( 'design_owner' ) ;
#39 = CC_DESIGN_PERSON_AND_ORGANIZATION_ASSIGNMENT ( #12, #161, ( #129 ) ) ;
#40 = EDGE_LOOP ( 'NONE', ( #86, #184, #268, #177 ) ) ;
#41 = VECTOR ( 'NONE', #179, 1000.000000000000000 ) ;
#42 = PERSON_AND_ORGANIZATION ( #351, #348 ) ;
#43 = DATE_AND_TIME ( #70, #367 ) ;
#44 = PERSON_AND_ORGANIZATION_ROLE ( 'design_supplier' ) ;
#45 = APPROVAL_DATE_TIME ( #344, #306 ) ;
#46 = APPROVAL_PERSON_ORGANIZATION ( #100, #221, #157 ) ;
#47 = UNCERTAINTY_MEASURE_WITH_UNIT (LENGTH_MEASURE( 1.000000000000000082E-05 ), #146, 'distance_accuracy_value', 'NONE');
#48 = ADVANCED_FACE ( 'NONE', ( #355 ), #234, .F. ) ;
#49 = CARTESIAN_POINT ( 'NONE',  ( -27.79765274486811677, 39.84778792366996214, 22.49999999999999645 ) ) ;
#50 = CARTESIAN_POINT ( 'NONE',  ( 446.8771539300758491, 94.99999999999998579, -22.50000000000037659 ) ) ;
#51 = VECTOR ( 'NONE', #164, 1000.000000000000000 ) ;
#52 = CARTESIAN_POINT ( 'NONE',  ( -463.4999999999999432, -95.00000000000019895, -22.49999999999965539 ) ) ;
#53 = ORIENTED_EDGE ( 'NONE', *, *, #330, .T. ) ;
#54 = CARTESIAN_POINT ( 'NONE',  ( -37.29765274486810256, 39.84778792366996214, 22.49999999999999645 ) ) ;
#55 = CARTESIAN_POINT ( 'NONE',  ( -463.4999999999999432, -95.00000000000001421, 22.50000000000035527 ) ) ;
#56 = DIRECTION ( 'NONE',  ( 0.000000000000000000, -1.000000000000000000, 3.652049423109071968E-15 ) ) ;
#57 = ORIENTED_EDGE ( 'NONE', *, *, #28, .F. ) ;
#58 = FACE_OUTER_BOUND ( 'NONE', #341, .T. ) ;
#59 = ORIENTED_EDGE ( 'NONE', *, *, #166, .F. ) ;
#60 = CARTESIAN_POINT ( 'NONE',  ( -463.5000000000000568, 94.99999999999980105, -22.50000000000038014 ) ) ;
#61 = VERTEX_POINT ( 'NONE', #266 ) ;
#62 = PRODUCT ( '3982-60_REV_', '3982-60_REV_', '', ( #14 ) ) ;
#63 = CARTESIAN_POINT ( 'NONE',  ( -37.29765274486810256, 39.84778792366996214, -22.50000000000017053 ) ) ;
#64 =( NAMED_UNIT ( * ) PLANE_ANGLE_UNIT ( ) SI_UNIT ( $, .RADIAN. ) );
#65 = DIRECTION ( 'NONE',  ( 1.000000000000000000, 0.000000000000000000, 0.000000000000000000 ) ) ;
#66 = APPROVAL_PERSON_ORGANIZATION ( #42, #306, #98 ) ;
#67 = EDGE_LOOP ( 'NONE', ( #223, #141 ) ) ;
#68 = VERTEX_POINT ( 'NONE', #271 ) ;
#69 = EDGE_LOOP ( 'NONE', ( #10, #205, #284, #220 ) ) ;
#70 = CALENDAR_DATE ( 2026, 19, 1 ) ;
#71 = EDGE_LOOP ( 'NONE', ( #251, #106, #92, #214 ) ) ;
#72 = COORDINATED_UNIVERSAL_TIME_OFFSET ( 10, 0, .AHEAD. ) ;
#73 = ADVANCED_FACE ( 'NONE', ( #383 ), #115, .F. ) ;
#74 = DIRECTION ( 'NONE',  ( 0.000000000000000000, 0.000000000000000000, 1.000000000000000000 ) ) ;
#75 = CARTESIAN_POINT ( 'NONE',  ( -463.5000000000000568, 94.99999999999998579, 22.49999999999963052 ) ) ;
#76 = CC_DESIGN_PERSON_AND_ORGANIZATION_ASSIGNMENT ( #255, #253, ( #235 ) ) ;
#77 = FACE_BOUND ( 'NONE', #340, .T. ) ;
#78 = CARTESIAN_POINT ( 'NONE',  ( 446.8771539300758491, 94.99999999999998579, -22.50000000000037659 ) ) ;
#79 = LINE ( 'NONE', #169, #158 ) ;
#80 = AXIS2_PLACEMENT_3D ( 'NONE', #304, #144, #140 ) ;
#81 = DIRECTION ( 'NONE',  ( 1.000000000000000000, 3.061616997868382648E-16, -0.000000000000000000 ) ) ;
#82 = ORIENTED_EDGE ( 'NONE', *, *, #364, .T. ) ;
#83 = ADVANCED_FACE ( 'NONE', ( #183, #188, #325 ), #261, .F. ) ;
#84 = LINE ( 'NONE', #27, #328 ) ;
#85 = DIRECTION ( 'NONE',  ( -1.168432953743421756E-30, 3.816391647148975608E-15, 1.000000000000000000 ) ) ;
#86 = ORIENTED_EDGE ( 'NONE', *, *, #152, .F. ) ;
#87 = PRODUCT_DEFINITION_SHAPE ( 'NONE', 'NONE',  #129 ) ;
#88 = ORIENTED_EDGE ( 'NONE', *, *, #180, .T. ) ;
#89 = ORIENTED_EDGE ( 'NONE', *, *, #372, .F. ) ;
#90 = CARTESIAN_POINT ( 'NONE',  ( -463.4999999999999432, -95.00000000000019895, -22.49999999999965539 ) ) ;
#91 = DIRECTION ( 'NONE',  ( 0.000000000000000000, -1.000000000000000000, 3.652049423109071968E-15 ) ) ;
#92 = ORIENTED_EDGE ( 'NONE', *, *, #225, .F. ) ;
#93 = LOCAL_TIME ( 16, 56, 26.00000000000000000, #101 ) ;
#94 = APPROVAL_ROLE ( '' ) ;
#95 = VERTEX_POINT ( 'NONE', #381 ) ;
#96 = APPROVAL_DATE_TIME ( #228, #153 ) ;
#97 = ORIENTED_EDGE ( 'NONE', *, *, #364, .F. ) ;
#98 = APPROVAL_ROLE ( '' ) ;
#99 = LOCAL_TIME ( 16, 56, 26.00000000000000000, #291 ) ;
#100 = PERSON_AND_ORGANIZATION ( #351, #348 ) ;
#101 = COORDINATED_UNIVERSAL_TIME_OFFSET ( 10, 0, .AHEAD. ) ;
#102 = EDGE_CURVE ( 'NONE', #117, #244, #262, .T. ) ;
#103 = CLOSED_SHELL ( 'NONE', ( #352, #264, #207, #273, #83, #48, #132, #181, #73, #211 ) ) ;
#104 = DIRECTION ( 'NONE',  ( 1.000000000000000000, 3.061616997868382648E-16, -0.000000000000000000 ) ) ;
#105 = DIRECTION ( 'NONE',  ( 0.000000000000000000, -1.000000000000000000, 3.816391647148975608E-15 ) ) ;
#106 = ORIENTED_EDGE ( 'NONE', *, *, #102, .F. ) ;
#107 = ORIENTED_EDGE ( 'NONE', *, *, #109, .F. ) ;
#108 = CARTESIAN_POINT ( 'NONE',  ( -30.32519332505597021, -39.84778792366968503, 22.49999999999999645 ) ) ;
#109 = EDGE_CURVE ( 'NONE', #6, #263, #250, .T. ) ;
#110 = DIRECTION ( 'NONE',  ( -0.000000000000000000, -4.009138700035287069E-15, -1.000000000000000000 ) ) ;
#111 = VECTOR ( 'NONE', #104, 1000.000000000000000 ) ;
#112 = CARTESIAN_POINT ( 'NONE',  ( -27.79765274486811677, 39.84778792366996214, -22.50000000000017053 ) ) ;
#113 = AXIS2_PLACEMENT_3D ( 'NONE', #285, #74, #125 ) ;
#114 = DIRECTION ( 'NONE',  ( -1.000000000000000000, -5.843279076974508523E-16, 2.342651628260497432E-30 ) ) ;
#115 = CYLINDRICAL_SURFACE ( 'NONE', #269, 9.499999999999987566 ) ;
#116 = LINE ( 'NONE', #333, #126 ) ;
#117 = VERTEX_POINT ( 'NONE', #354 ) ;
#118 = LINE ( 'NONE', #360, #29 ) ;
#119 = VECTOR ( 'NONE', #230, 1000.000000000000000 ) ;
#120 = EDGE_LOOP ( 'NONE', ( #53, #209 ) ) ;
#121 = LINE ( 'NONE', #363, #259 ) ;
#122 = DIRECTION ( 'NONE',  ( 1.000000000000000000, 0.000000000000000000, 0.000000000000000000 ) ) ;
#123 = EDGE_CURVE ( 'NONE', #350, #312, #174, .T. ) ;
#124 = VERTEX_POINT ( 'NONE', #346 ) ;
#125 = DIRECTION ( 'NONE',  ( 1.000000000000000000, 0.000000000000000000, 0.000000000000000000 ) ) ;
#126 = VECTOR ( 'NONE', #241, 1000.000000000000000 ) ;
#127 = PERSON_AND_ORGANIZATION_ROLE ( 'creator' ) ;
#128 = ORIENTED_EDGE ( 'NONE', *, *, #123, .F. ) ;
#129 = PRODUCT_DEFINITION ( 'UNKNOWN', '', #18, #227 ) ;
#130 = AXIS2_PLACEMENT_3D ( 'NONE', #23, #170, #105 ) ;
#131 = COORDINATED_UNIVERSAL_TIME_OFFSET ( 10, 0, .AHEAD. ) ;
#132 = ADVANCED_FACE ( 'NONE', ( #299 ), #25, .T. ) ;
#133 = CARTESIAN_POINT ( 'NONE',  ( -463.5000000000000000, -1.297591048463059594E-14, -1.085819029698740711E-27 ) ) ;
#134 = AXIS2_PLACEMENT_3D ( 'NONE', #185, #239, #307 ) ;
#135 = FACE_BOUND ( 'NONE', #238, .T. ) ;
#136 = EDGE_CURVE ( 'NONE', #368, #246, #137, .T. ) ;
#137 = LINE ( 'NONE', #52, #289 ) ;
#138 = CARTESIAN_POINT ( 'NONE',  ( -20.82519332505598086, -39.84778792366968503, -22.49999999999986500 ) ) ;
#139 = DIRECTION ( 'NONE',  ( 5.843279076974508523E-16, -1.000000000000000000, 0.000000000000000000 ) ) ;
#140 = DIRECTION ( 'NONE',  ( 0.000000000000000000, 4.009138700035287858E-15, 1.000000000000000000 ) ) ;
#141 = ORIENTED_EDGE ( 'NONE', *, *, #28, .T. ) ;
#142 = AXIS2_PLACEMENT_3D ( 'NONE', #50, #258, #353 ) ;
#143 = CARTESIAN_POINT ( 'NONE',  ( -37.29765274486810256, 39.84778792366996214, 22.49999999999999645 ) ) ;
#144 = DIRECTION ( 'NONE',  ( -3.061616997868382648E-16, 1.000000000000000000, -4.009138700035287858E-15 ) ) ;
#145 = EDGE_LOOP ( 'NONE', ( #315, #159, #171, #13 ) ) ;
#146 =( LENGTH_UNIT ( ) NAMED_UNIT ( * ) SI_UNIT ( .MILLI., .METRE. ) );
#147 = ORIENTED_EDGE ( 'NONE', *, *, #102, .T. ) ;
#148 = ORIENTED_EDGE ( 'NONE', *, *, #286, .T. ) ;
#149 = DIRECTION ( 'NONE',  ( -1.168432953743421756E-30, 3.816391647148975608E-15, 1.000000000000000000 ) ) ;
#150 = ORIENTED_EDGE ( 'NONE', *, *, #281, .F. ) ;
#151 = CARTESIAN_POINT ( 'NONE',  ( -46.79765274486809545, 39.84778792366996214, 22.49999999999999645 ) ) ;
#152 = EDGE_CURVE ( 'NONE', #254, #263, #265, .T. ) ;
#153 = APPROVAL ( #288, 'UNSPECIFIED' ) ;
#154 = CYLINDRICAL_SURFACE ( 'NONE', #229, 9.499999999999987566 ) ;
#155 = EDGE_LOOP ( 'NONE', ( #219, #148, #338, #8 ) ) ;
#156 = LINE ( 'NONE', #5, #210 ) ;
#157 = APPROVAL_ROLE ( '' ) ;
#158 = VECTOR ( 'NONE', #110, 1000.000000000000000 ) ;
#159 = ORIENTED_EDGE ( 'NONE', *, *, #152, .T. ) ;
#160 = APPROVAL_STATUS ( 'not_yet_approved' ) ;
#161 = PERSON_AND_ORGANIZATION_ROLE ( 'creator' ) ;
#162 = APPROVAL_DATE_TIME ( #339, #221 ) ;
#163 = VECTOR ( 'NONE', #292, 1000.000000000000000 ) ;
#164 = DIRECTION ( 'NONE',  ( 0.08715574274765151841, -0.9961946980917461003, 0.000000000000000000 ) ) ;
#165 = FACE_OUTER_BOUND ( 'NONE', #71, .T. ) ;
#166 = EDGE_CURVE ( 'NONE', #274, #95, #168, .T. ) ;
#167 = VECTOR ( 'NONE', #309, 1000.000000000000000 ) ;
#168 = LINE ( 'NONE', #379, #111 ) ;
#169 = CARTESIAN_POINT ( 'NONE',  ( -463.5000000000000568, 94.99999999999980105, -22.50000000000038014 ) ) ;
#170 = DIRECTION ( 'NONE',  ( -1.168432953743421756E-30, 3.816391647148975608E-15, 1.000000000000000000 ) ) ;
#171 = ORIENTED_EDGE ( 'NONE', *, *, #376, .T. ) ;
#172 = ORIENTED_EDGE ( 'NONE', *, *, #180, .F. ) ;
#173 = FACE_OUTER_BOUND ( 'NONE', #331, .T. ) ;
#174 = CIRCLE ( 'NONE', #362, 9.499999999999987566 ) ;
#175 = CARTESIAN_POINT ( 'NONE',  ( -37.29765274486810256, 39.84778792366996214, 22.49999999999999645 ) ) ;
#176 = VERTEX_POINT ( 'NONE', #112 ) ;
#177 = ORIENTED_EDGE ( 'NONE', *, *, #109, .T. ) ;
#178 = CARTESIAN_POINT ( 'NONE',  ( -39.82519332505595600, -39.84778792366968503, 22.49999999999999645 ) ) ;
#179 = DIRECTION ( 'NONE',  ( 1.000000000000000000, 3.061616997868382648E-16, -0.000000000000000000 ) ) ;
#180 = EDGE_CURVE ( 'NONE', #95, #68, #237, .T. ) ;
#181 = ADVANCED_FACE ( 'NONE', ( #173 ), #385, .F. ) ;
#182 = CARTESIAN_POINT ( 'NONE',  ( -463.4999999999999432, -95.00000000000019895, -22.49999999999965539 ) ) ;
#183 = FACE_BOUND ( 'NONE', #120, .T. ) ;
#184 = ORIENTED_EDGE ( 'NONE', *, *, #330, .F. ) ;
#185 = CARTESIAN_POINT ( 'NONE',  ( -37.29765274486810256, 39.84778792366996214, 22.49999999999999645 ) ) ;
#186 = EDGE_LOOP ( 'NONE', ( #335, #88, #371, #189 ) ) ;
#187 = PERSON_AND_ORGANIZATION ( #351, #348 ) ;
#188 = FACE_BOUND ( 'NONE', #67, .T. ) ;
#189 = ORIENTED_EDGE ( 'NONE', *, *, #286, .F. ) ;
#190 = PERSON_AND_ORGANIZATION ( #351, #348 ) ;
#191 = PRODUCT_RELATED_PRODUCT_CATEGORY ( 'detail', '', ( #62 ) ) ;
#192 = CIRCLE ( 'NONE', #20, 9.499999999999987566 ) ;
#193 = CIRCLE ( 'NONE', #361, 9.499999999999987566 ) ;
#194 = ORIENTED_EDGE ( 'NONE', *, *, #17, .F. ) ;
#195 = DATE_AND_TIME ( #373, #318 ) ;
#196 = APPLICATION_PROTOCOL_DEFINITION ( 'international standard', 'config_control_design', 1994, #35 ) ;
#197 = APPROVAL_PERSON_ORGANIZATION ( #187, #153, #94 ) ;
#198 = AXIS2_PLACEMENT_3D ( 'NONE', #212, #33, #208 ) ;
#199 = DIRECTION ( 'NONE',  ( -0.000000000000000000, -0.000000000000000000, 1.000000000000000000 ) ) ;
#200 = CARTESIAN_POINT ( 'NONE',  ( -46.79765274486809545, 39.84778792366996214, 22.49999999999999645 ) ) ;
#201 = DIRECTION ( 'NONE',  ( -0.000000000000000000, -0.000000000000000000, 1.000000000000000000 ) ) ;
#202 = ORIENTED_EDGE ( 'NONE', *, *, #226, .F. ) ;
#203 = AXIS2_PLACEMENT_3D ( 'NONE', #301, #294, #233 ) ;
#204 = CYLINDRICAL_SURFACE ( 'NONE', #336, 9.499999999999987566 ) ;
#205 = ORIENTED_EDGE ( 'NONE', *, *, #4, .F. ) ;
#206 = PLANE ( 'NONE',  #203 ) ;
#207 = ADVANCED_FACE ( 'NONE', ( #165, #77, #135 ), #206, .F. ) ;
#208 = DIRECTION ( 'NONE',  ( 0.000000000000000000, -4.009138700035287858E-15, -1.000000000000000000 ) ) ;
#209 = ORIENTED_EDGE ( 'NONE', *, *, #319, .T. ) ;
#210 = VECTOR ( 'NONE', #247, 1000.000000000000000 ) ;
#211 = ADVANCED_FACE ( 'NONE', ( #21 ), #204, .F. ) ;
#212 = CARTESIAN_POINT ( 'NONE',  ( -463.5000000000000568, 94.99999999999980105, -22.50000000000038014 ) ) ;
#213 = CARTESIAN_POINT ( 'NONE',  ( -463.4999999999999432, -95.00000000000001421, 22.50000000000035527 ) ) ;
#214 = ORIENTED_EDGE ( 'NONE', *, *, #377, .F. ) ;
#215 = CC_DESIGN_APPROVAL ( #153, ( #18 ) ) ;
#216 = APPLICATION_CONTEXT ( 'configuration controlled 3d designs of mechanical parts and assemblies' ) ;
#217 = CARTESIAN_POINT ( 'NONE',  ( -30.32519332505597021, -39.84778792366968503, -22.49999999999986500 ) ) ;
#218 = VECTOR ( 'NONE', #382, 1000.000000000000000 ) ;
#219 = ORIENTED_EDGE ( 'NONE', *, *, #17, .T. ) ;
#220 = ORIENTED_EDGE ( 'NONE', *, *, #345, .T. ) ;
#221 = APPROVAL ( #375, 'UNSPECIFIED' ) ;
#222 = DATE_TIME_ROLE ( 'classification_date' ) ;
#223 = ORIENTED_EDGE ( 'NONE', *, *, #372, .T. ) ;
#224 = SECURITY_CLASSIFICATION_LEVEL ( 'unclassified' ) ;
#225 = EDGE_CURVE ( 'NONE', #124, #117, #296, .T. ) ;
#226 = EDGE_CURVE ( 'NONE', #32, #350, #84, .T. ) ;
#227 = DESIGN_CONTEXT ( 'detailed design', #35, 'design' ) ;
#228 = DATE_AND_TIME ( #15, #30 ) ;
#229 = AXIS2_PLACEMENT_3D ( 'NONE', #7, #1, #34 ) ;
#230 = DIRECTION ( 'NONE',  ( 0.08715574274765151841, -0.9961946980917461003, 0.000000000000000000 ) ) ;
#231 = DIRECTION ( 'NONE',  ( 0.000000000000000000, 4.009138700035287069E-15, 1.000000000000000000 ) ) ;
#232 = CARTESIAN_POINT ( 'NONE',  ( -27.79765274486811677, 39.84778792366996214, 22.49999999999999645 ) ) ;
#233 = DIRECTION ( 'NONE',  ( 0.000000000000000000, 1.000000000000000000, -3.816391647148975608E-15 ) ) ;
#234 = PLANE ( 'NONE',  #80 ) ;
#235 = SECURITY_CLASSIFICATION ( '', '', #224 ) ;
#236 = VECTOR ( 'NONE', #81, 1000.000000000000000 ) ;
#237 = LINE ( 'NONE', #78, #119 ) ;
#238 = EDGE_LOOP ( 'NONE', ( #107, #279 ) ) ;
#239 = DIRECTION ( 'NONE',  ( -0.000000000000000000, -0.000000000000000000, 1.000000000000000000 ) ) ;
#240 = CARTESIAN_POINT ( 'NONE',  ( -30.32519332505597021, -39.84778792366968503, 22.49999999999999645 ) ) ;
#241 = DIRECTION ( 'NONE',  ( 5.843279076974508523E-16, -1.000000000000000000, 3.816391647148975608E-15 ) ) ;
#242 = AXIS2_PLACEMENT_3D ( 'NONE', #311, #245, #91 ) ;
#243 = CYLINDRICAL_SURFACE ( 'NONE', #134, 9.499999999999987566 ) ;
#244 = VERTEX_POINT ( 'NONE', #326 ) ;
#245 = DIRECTION ( 'NONE',  ( -1.168432953743421756E-30, 3.816391647148975608E-15, 1.000000000000000000 ) ) ;
#246 = VERTEX_POINT ( 'NONE', #55 ) ;
#247 = DIRECTION ( 'NONE',  ( -0.000000000000000000, -0.000000000000000000, 1.000000000000000000 ) ) ;
#248 = ORIENTED_EDGE ( 'NONE', *, *, #123, .T. ) ;
#249 = SHAPE_DEFINITION_REPRESENTATION ( #87, #298 ) ;
#250 = CIRCLE ( 'NONE', #384, 9.499999999999987566 ) ;
#251 = ORIENTED_EDGE ( 'NONE', *, *, #4, .T. ) ;
#252 = EDGE_CURVE ( 'NONE', #176, #6, #320, .T. ) ;
#253 = PERSON_AND_ORGANIZATION_ROLE ( 'classification_officer' ) ;
#254 = VERTEX_POINT ( 'NONE', #19 ) ;
#255 = PERSON_AND_ORGANIZATION ( #351, #348 ) ;
#256 = AXIS2_PLACEMENT_3D ( 'NONE', #297, #24, #56 ) ;
#257 = CALENDAR_DATE ( 2026, 19, 1 ) ;
#258 = DIRECTION ( 'NONE',  ( -0.9961946980917461003, -0.08715574274765151841, 0.000000000000000000 ) ) ;
#259 = VECTOR ( 'NONE', #357, 1000.000000000000000 ) ;
#260 = EDGE_CURVE ( 'NONE', #312, #350, #317, .T. ) ;
#261 = PLANE ( 'NONE',  #130 ) ;
#262 = LINE ( 'NONE', #378, #51 ) ;
#263 = VERTEX_POINT ( 'NONE', #151 ) ;
#264 = ADVANCED_FACE ( 'NONE', ( #58 ), #154, .F. ) ;
#265 = LINE ( 'NONE', #200, #218 ) ;
#266 = CARTESIAN_POINT ( 'NONE',  ( -39.82519332505595600, -39.84778792366968503, -22.49999999999986500 ) ) ;
#267 = CC_DESIGN_APPROVAL ( #306, ( #235 ) ) ;
#268 = ORIENTED_EDGE ( 'NONE', *, *, #252, .T. ) ;
#269 = AXIS2_PLACEMENT_3D ( 'NONE', #240, #334, #65 ) ;
#270 = DIRECTION ( 'NONE',  ( 1.000000000000000000, 0.000000000000000000, 0.000000000000000000 ) ) ;
#271 = CARTESIAN_POINT ( 'NONE',  ( 463.5000000000000568, -94.99999999999974420, -22.50000000000037659 ) ) ;
#272 = ORIENTED_EDGE ( 'NONE', *, *, #323, .T. ) ;
#273 = ADVANCED_FACE ( 'NONE', ( #276 ), #332, .F. ) ;
#274 = VERTEX_POINT ( 'NONE', #60 ) ;
#275 = CC_DESIGN_PERSON_AND_ORGANIZATION_ASSIGNMENT ( #190, #38, ( #62 ) ) ;
#276 = FACE_OUTER_BOUND ( 'NONE', #369, .T. ) ;
#277 = EDGE_LOOP ( 'NONE', ( #300, #89, #313, #248 ) ) ;
#278 = DIRECTION ( 'NONE',  ( -0.000000000000000000, -0.000000000000000000, 1.000000000000000000 ) ) ;
#279 = ORIENTED_EDGE ( 'NONE', *, *, #376, .F. ) ;
#280 = FACE_OUTER_BOUND ( 'NONE', #145, .T. ) ;
#281 = EDGE_CURVE ( 'NONE', #68, #244, #118, .T. ) ;
#282 = ORIENTED_EDGE ( 'NONE', *, *, #260, .F. ) ;
#283 = DATE_TIME_ROLE ( 'creation_date' ) ;
#284 = ORIENTED_EDGE ( 'NONE', *, *, #136, .F. ) ;
#285 = CARTESIAN_POINT ( 'NONE',  ( 0.000000000000000000, 0.000000000000000000, 0.000000000000000000 ) ) ;
#286 = EDGE_CURVE ( 'NONE', #274, #368, #116, .T. ) ;
#287 = PERSON_AND_ORGANIZATION ( #351, #348 ) ;
#288 = APPROVAL_STATUS ( 'not_yet_approved' ) ;
#289 = VECTOR ( 'NONE', #231, 1000.000000000000000 ) ;
#290 =( GEOMETRIC_REPRESENTATION_CONTEXT ( 3 ) GLOBAL_UNCERTAINTY_ASSIGNED_CONTEXT ( ( #47 ) ) GLOBAL_UNIT_ASSIGNED_CONTEXT ( ( #146, #64, #337 ) ) REPRESENTATION_CONTEXT ( 'NONE', 'WORKASPACE' ) );
#291 = COORDINATED_UNIVERSAL_TIME_OFFSET ( 10, 0, .AHEAD. ) ;
#292 = DIRECTION ( 'NONE',  ( -0.000000000000000000, -0.000000000000000000, 1.000000000000000000 ) ) ;
#293 = CC_DESIGN_DATE_AND_TIME_ASSIGNMENT ( #43, #283, ( #129 ) ) ;
#294 = DIRECTION ( 'NONE',  ( 1.168432953743421756E-30, -3.816391647148975608E-15, -1.000000000000000000 ) ) ;
#295 = MANIFOLD_SOLID_BREP ( 'M16 Clearance Hole1', #103 ) ;
#296 = LINE ( 'NONE', #75, #236 ) ;
#297 = CARTESIAN_POINT ( 'NONE',  ( -30.32519332505597021, -39.84778792366968503, -22.49999999999986500 ) ) ;
#298 = ADVANCED_BREP_SHAPE_REPRESENTATION ( '3982-60_REV_', ( #295, #113 ), #290 ) ;
#299 = FACE_OUTER_BOUND ( 'NONE', #155, .T. ) ;
#300 = ORIENTED_EDGE ( 'NONE', *, *, #323, .F. ) ;
#301 = CARTESIAN_POINT ( 'NONE',  ( -463.4999999999999432, -95.00000000000001421, 22.50000000000035527 ) ) ;
#302 = AXIS2_PLACEMENT_3D ( 'NONE', #9, #278, #122 ) ;
#303 = DIRECTION ( 'NONE',  ( 0.000000000000000000, -1.000000000000000000, 3.652049423109071968E-15 ) ) ;
#304 = CARTESIAN_POINT ( 'NONE',  ( -463.4999999999999432, -95.00000000000019895, -22.49999999999965539 ) ) ;
#305 = LINE ( 'NONE', #213, #167 ) ;
#306 = APPROVAL ( #160, 'UNSPECIFIED' ) ;
#307 = DIRECTION ( 'NONE',  ( 1.000000000000000000, 0.000000000000000000, 0.000000000000000000 ) ) ;
#308 = CIRCLE ( 'NONE', #256, 9.499999999999987566 ) ;
#309 = DIRECTION ( 'NONE',  ( -5.843279076974508523E-16, 1.000000000000000000, -3.816391647148975608E-15 ) ) ;
#310 = CC_DESIGN_PERSON_AND_ORGANIZATION_ASSIGNMENT ( #287, #44, ( #18 ) ) ;
#311 = CARTESIAN_POINT ( 'NONE',  ( -37.29765274486810256, 39.84778792366996214, -22.50000000000017053 ) ) ;
#312 = VERTEX_POINT ( 'NONE', #178 ) ;
#313 = ORIENTED_EDGE ( 'NONE', *, *, #226, .T. ) ;
#314 = PERSON_AND_ORGANIZATION ( #351, #348 ) ;
#315 = ORIENTED_EDGE ( 'NONE', *, *, #319, .F. ) ;
#316 = COORDINATED_UNIVERSAL_TIME_OFFSET ( 10, 0, .AHEAD. ) ;
#317 = CIRCLE ( 'NONE', #302, 9.499999999999987566 ) ;
#318 = LOCAL_TIME ( 16, 56, 26.00000000000000000, #72 ) ;
#319 = EDGE_CURVE ( 'NONE', #254, #176, #347, .T. ) ;
#320 = LINE ( 'NONE', #49, #163 ) ;
#321 = DIRECTION ( 'NONE',  ( -0.000000000000000000, -0.000000000000000000, 1.000000000000000000 ) ) ;
#322 = DIRECTION ( 'NONE',  ( 1.000000000000000000, 0.000000000000000000, 0.000000000000000000 ) ) ;
#323 = EDGE_CURVE ( 'NONE', #61, #312, #156, .T. ) ;
#324 = CC_DESIGN_SECURITY_CLASSIFICATION ( #235, ( #18 ) ) ;
#325 = FACE_OUTER_BOUND ( 'NONE', #186, .T. ) ;
#326 = CARTESIAN_POINT ( 'NONE',  ( 463.5000000000000568, -94.99999999999974420, 22.50000000000035527 ) ) ;
#327 = DIRECTION ( 'NONE',  ( 0.000000000000000000, -1.000000000000000000, 3.652049423109071968E-15 ) ) ;
#328 = VECTOR ( 'NONE', #199, 1000.000000000000000 ) ;
#329 = LINE ( 'NONE', #182, #41 ) ;
#330 = EDGE_CURVE ( 'NONE', #176, #254, #2, .T. ) ;
#331 = EDGE_LOOP ( 'NONE', ( #147, #150, #172, #82 ) ) ;
#332 = PLANE ( 'NONE',  #198 ) ;
#333 = CARTESIAN_POINT ( 'NONE',  ( -463.4999999999999432, -95.00000000000019895, -22.49999999999965539 ) ) ;
#334 = DIRECTION ( 'NONE',  ( -0.000000000000000000, -0.000000000000000000, 1.000000000000000000 ) ) ;
#335 = ORIENTED_EDGE ( 'NONE', *, *, #166, .T. ) ;
#336 = AXIS2_PLACEMENT_3D ( 'NONE', #143, #201, #322 ) ;
#337 =( NAMED_UNIT ( * ) SI_UNIT ( $, .STERADIAN. ) SOLID_ANGLE_UNIT ( ) );
#338 = ORIENTED_EDGE ( 'NONE', *, *, #136, .T. ) ;
#339 = DATE_AND_TIME ( #370, #93 ) ;
#340 = EDGE_LOOP ( 'NONE', ( #128, #282 ) ) ;
#341 = EDGE_LOOP ( 'NONE', ( #57, #272, #37, #202 ) ) ;
#342 = AXIS2_PLACEMENT_3D ( 'NONE', #133, #114, #139 ) ;
#343 = APPLICATION_PROTOCOL_DEFINITION ( 'international standard', 'config_control_design', 1994, #216 ) ;
#344 = DATE_AND_TIME ( #257, #99 ) ;
#345 = EDGE_CURVE ( 'NONE', #368, #68, #329, .T. ) ;
#346 = CARTESIAN_POINT ( 'NONE',  ( -463.5000000000000568, 94.99999999999998579, 22.49999999999963052 ) ) ;
#347 = CIRCLE ( 'NONE', #11, 9.499999999999987566 ) ;
#348 = ORGANIZATION ( 'UNSPECIFIED', 'UNSPECIFIED', '' ) ;
#349 = DIRECTION ( 'NONE',  ( 1.000000000000000000, 0.000000000000000000, 0.000000000000000000 ) ) ;
#350 = VERTEX_POINT ( 'NONE', #36 ) ;
#351 = PERSON ( 'UNSPECIFIED', 'UNSPECIFIED', 'UNSPECIFIED', ('UNSPECIFIED'), ('UNSPECIFIED'), ('UNSPECIFIED') ) ;
#352 = ADVANCED_FACE ( 'NONE', ( #280 ), #243, .F. ) ;
#353 = DIRECTION ( 'NONE',  ( 0.08715574274765151841, -0.9961946980917461003, 0.000000000000000000 ) ) ;
#354 = CARTESIAN_POINT ( 'NONE',  ( 446.8771539300758491, 94.99999999999998579, 22.49999999999999645 ) ) ;
#355 = FACE_OUTER_BOUND ( 'NONE', #69, .T. ) ;
#356 = DIRECTION ( 'NONE',  ( -0.000000000000000000, -0.000000000000000000, 1.000000000000000000 ) ) ;
#357 = DIRECTION ( 'NONE',  ( -0.000000000000000000, -0.000000000000000000, 1.000000000000000000 ) ) ;
#358 = CARTESIAN_POINT ( 'NONE',  ( -463.4999999999999432, -95.00000000000001421, 22.50000000000035527 ) ) ;
#359 = CC_DESIGN_PERSON_AND_ORGANIZATION_ASSIGNMENT ( #314, #127, ( #18 ) ) ;
#360 = CARTESIAN_POINT ( 'NONE',  ( 463.5000000000000568, -94.99999999999991473, -22.49999999999965539 ) ) ;
#361 = AXIS2_PLACEMENT_3D ( 'NONE', #217, #85, #303 ) ;
#362 = AXIS2_PLACEMENT_3D ( 'NONE', #108, #321, #349 ) ;
#363 = CARTESIAN_POINT ( 'NONE',  ( 446.8771539300758491, 94.99999999999998579, -22.50000000000037659 ) ) ;
#364 = EDGE_CURVE ( 'NONE', #95, #117, #121, .T. ) ;
#365 = DIRECTION ( 'NONE',  ( 0.000000000000000000, 4.009138700035287069E-15, 1.000000000000000000 ) ) ;
#366 = DIRECTION ( 'NONE',  ( -0.000000000000000000, -0.000000000000000000, 1.000000000000000000 ) ) ;
#367 = LOCAL_TIME ( 16, 56, 26.00000000000000000, #131 ) ;
#368 = VERTEX_POINT ( 'NONE', #90 ) ;
#369 = EDGE_LOOP ( 'NONE', ( #3, #97, #59, #194 ) ) ;
#370 = CALENDAR_DATE ( 2026, 19, 1 ) ;
#371 = ORIENTED_EDGE ( 'NONE', *, *, #345, .F. ) ;
#372 = EDGE_CURVE ( 'NONE', #32, #61, #193, .T. ) ;
#373 = CALENDAR_DATE ( 2026, 19, 1 ) ;
#374 = VECTOR ( 'NONE', #22, 1000.000000000000000 ) ;
#375 = APPROVAL_STATUS ( 'not_yet_approved' ) ;
#376 = EDGE_CURVE ( 'NONE', #263, #6, #192, .T. ) ;
#377 = EDGE_CURVE ( 'NONE', #246, #124, #305, .T. ) ;
#378 = CARTESIAN_POINT ( 'NONE',  ( 446.8771539300758491, 94.99999999999998579, 22.49999999999999645 ) ) ;
#379 = CARTESIAN_POINT ( 'NONE',  ( -463.5000000000000568, 94.99999999999980105, -22.50000000000038014 ) ) ;
#380 = CC_DESIGN_DATE_AND_TIME_ASSIGNMENT ( #195, #222, ( #235 ) ) ;
#381 = CARTESIAN_POINT ( 'NONE',  ( 446.8771539300758491, 94.99999999999998579, -22.50000000000037659 ) ) ;
#382 = DIRECTION ( 'NONE',  ( -0.000000000000000000, -0.000000000000000000, 1.000000000000000000 ) ) ;
#383 = FACE_OUTER_BOUND ( 'NONE', #277, .T. ) ;
#384 = AXIS2_PLACEMENT_3D ( 'NONE', #54, #356, #270 ) ;
#385 = PLANE ( 'NONE',  #142 ) ;
ENDSEC;
END-ISO-10303-21;
