ISO-10303-21;
HEADER;
FILE_DESCRIPTION (( 'STEP AP203' ),
    '1' );
FILE_NAME ('3991-20_REV_.step',
    '2026-01-28T00:17:55',
    ( '' ),
    ( '' ),
    'SwSTEP 2.0',
    'SolidWorks 2025',
    '' );
FILE_SCHEMA (( 'CONFIG_CONTROL_DESIGN' ));
ENDSEC;

DATA;
#1 = DIRECTION ( 'NONE',  ( -0.000000000000000000, -0.000000000000000000, -1.000000000000000000 ) ) ;
#2 =( NAMED_UNIT ( * ) SI_UNIT ( $, .STERADIAN. ) SOLID_ANGLE_UNIT ( ) );
#3 = DESIGN_CONTEXT ( 'detailed design', #37, 'design' ) ;
#4 = CARTESIAN_POINT ( 'NONE',  ( 0.000000000000000000, 0.000000000000000000, -28.26794919243107884 ) ) ;
#5 = DIRECTION ( 'NONE',  ( 0.000000000000000000, 0.000000000000000000, 1.000000000000000000 ) ) ;
#6 = APPROVAL_STATUS ( 'not_yet_approved' ) ;
#7 = ORIENTED_EDGE ( 'NONE', *, *, #132, .T. ) ;
#8 = VECTOR ( 'NONE', #203, 1000.000000000000114 ) ;
#9 = CC_DESIGN_APPROVAL ( #295, ( #69 ) ) ;
#10 = APPLICATION_PROTOCOL_DEFINITION ( 'international standard', 'config_control_design', 1994, #106 ) ;
#11 = EDGE_CURVE ( 'NONE', #110, #135, #48, .T. ) ;
#12 = ORIENTED_EDGE ( 'NONE', *, *, #119, .T. ) ;
#13 = ORIENTED_EDGE ( 'NONE', *, *, #125, .F. ) ;
#14 = EDGE_CURVE ( 'NONE', #59, #38, #243, .T. ) ;
#15 = CIRCLE ( 'NONE', #239, 14.00000000000000000 ) ;
#16 = LOCAL_TIME ( 11, 17, 55.00000000000000000, #290 ) ;
#17 = VERTEX_POINT ( 'NONE', #200 ) ;
#18 = PERSON_AND_ORGANIZATION_ROLE ( 'classification_officer' ) ;
#19 = CARTESIAN_POINT ( 'NONE',  ( 0.000000000000000000, 0.000000000000000000, -28.26794919243107884 ) ) ;
#20 = COORDINATED_UNIVERSAL_TIME_OFFSET ( 10, 0, .AHEAD. ) ;
#21 = ORIENTED_EDGE ( 'NONE', *, *, #11, .F. ) ;
#22 = DIRECTION ( 'NONE',  ( 1.000000000000000000, 0.000000000000000000, 0.000000000000000000 ) ) ;
#23 = LINE ( 'NONE', #230, #193 ) ;
#24 = EDGE_CURVE ( 'NONE', #149, #67, #273, .T. ) ;
#25 = CARTESIAN_POINT ( 'NONE',  ( 0.000000000000000000, 0.000000000000000000, 30.00000000000000000 ) ) ;
#26 = DIRECTION ( 'NONE',  ( 1.000000000000000000, 0.000000000000000000, 0.000000000000000000 ) ) ;
#27 =( NAMED_UNIT ( * ) PLANE_ANGLE_UNIT ( ) SI_UNIT ( $, .RADIAN. ) );
#28 = FACE_OUTER_BOUND ( 'NONE', #40, .T. ) ;
#29 = FACE_OUTER_BOUND ( 'NONE', #145, .T. ) ;
#30 = AXIS2_PLACEMENT_3D ( 'NONE', #291, #89, #71 ) ;
#31 = DIRECTION ( 'NONE',  ( 0.000000000000000000, 0.000000000000000000, 1.000000000000000000 ) ) ;
#32 = COORDINATED_UNIVERSAL_TIME_OFFSET ( 10, 0, .AHEAD. ) ;
#33 = PERSON_AND_ORGANIZATION ( #245, #227 ) ;
#34 = ORIENTED_EDGE ( 'NONE', *, *, #285, .T. ) ;
#35 = AXIS2_PLACEMENT_3D ( 'NONE', #118, #188, #26 ) ;
#36 = CC_DESIGN_DATE_AND_TIME_ASSIGNMENT ( #54, #143, ( #215 ) ) ;
#37 = APPLICATION_CONTEXT ( 'configuration controlled 3d designs of mechanical parts and assemblies' ) ;
#38 = VERTEX_POINT ( 'NONE', #253 ) ;
#39 = APPROVAL_STATUS ( 'not_yet_approved' ) ;
#40 = EDGE_LOOP ( 'NONE', ( #131, #124 ) ) ;
#41 = CALENDAR_DATE ( 2026, 28, 1 ) ;
#42 = ORIENTED_EDGE ( 'NONE', *, *, #220, .T. ) ;
#43 = CARTESIAN_POINT ( 'NONE',  ( 0.000000000000000000, 0.000000000000000000, 30.00000000000000000 ) ) ;
#44 = AXIS2_PLACEMENT_3D ( 'NONE', #25, #129, #109 ) ;
#45 = CARTESIAN_POINT ( 'NONE',  ( 0.000000000000000000, 0.000000000000000000, 30.00000000000000000 ) ) ;
#46 = ORIENTED_EDGE ( 'NONE', *, *, #201, .T. ) ;
#47 = DIRECTION ( 'NONE',  ( -1.000000000000000000, 0.000000000000000000, 0.000000000000000000 ) ) ;
#48 = CIRCLE ( 'NONE', #186, 14.00000000000000000 ) ;
#49 = DIRECTION ( 'NONE',  ( -0.000000000000000000, -0.000000000000000000, -1.000000000000000000 ) ) ;
#50 = DIRECTION ( 'NONE',  ( 0.000000000000000000, 0.000000000000000000, 1.000000000000000000 ) ) ;
#51 = DIRECTION ( 'NONE',  ( 1.000000000000000000, 0.000000000000000000, 0.000000000000000000 ) ) ;
#52 = CIRCLE ( 'NONE', #35, 33.99999999999997868 ) ;
#53 = DATE_AND_TIME ( #249, #168 ) ;
#54 = DATE_AND_TIME ( #41, #176 ) ;
#55 = PERSON_AND_ORGANIZATION ( #245, #227 ) ;
#56 = ORIENTED_EDGE ( 'NONE', *, *, #229, .T. ) ;
#57 = AXIS2_PLACEMENT_3D ( 'NONE', #228, #86, #107 ) ;
#58 = CC_DESIGN_APPROVAL ( #235, ( #215 ) ) ;
#59 = VERTEX_POINT ( 'NONE', #175 ) ;
#60 = ORIENTED_EDGE ( 'NONE', *, *, #287, .F. ) ;
#61 = ORIENTED_EDGE ( 'NONE', *, *, #132, .F. ) ;
#62 = ADVANCED_BREP_SHAPE_REPRESENTATION ( '3991-20_REV_', ( #262, #252 ), #134 ) ;
#63 = AXIS2_PLACEMENT_3D ( 'NONE', #210, #31, #92 ) ;
#64 = PERSON_AND_ORGANIZATION ( #245, #227 ) ;
#65 = DIRECTION ( 'NONE',  ( -1.000000000000000000, 0.000000000000000000, 0.000000000000000000 ) ) ;
#66 = DIRECTION ( 'NONE',  ( 0.000000000000000000, 0.000000000000000000, 1.000000000000000000 ) ) ;
#67 = VERTEX_POINT ( 'NONE', #151 ) ;
#68 = CONICAL_SURFACE ( 'NONE', #180, 35.00000000000000711, 0.5235987755983005920 ) ;
#69 = PRODUCT_DEFINITION_FORMATION_WITH_SPECIFIED_SOURCE ( 'ANY', '', #97, .NOT_KNOWN. ) ;
#70 = CARTESIAN_POINT ( 'NONE',  ( -35.00000000000000711, 4.286263797015736496E-15, -28.26794919243107884 ) ) ;
#71 = DIRECTION ( 'NONE',  ( 1.000000000000000000, 0.000000000000000000, 0.000000000000000000 ) ) ;
#72 = FACE_BOUND ( 'NONE', #104, .T. ) ;
#73 = CARTESIAN_POINT ( 'NONE',  ( 14.00000000000000000, 1.714505518806294638E-15, 30.00000000000000000 ) ) ;
#74 = CARTESIAN_POINT ( 'NONE',  ( 0.000000000000000000, 0.000000000000000000, -28.26794919243107884 ) ) ;
#75 = CARTESIAN_POINT ( 'NONE',  ( 0.000000000000000000, 0.000000000000000000, 30.00000000000000000 ) ) ;
#76 = APPROVAL_DATE_TIME ( #264, #205 ) ;
#77 = CLOSED_SHELL ( 'NONE', ( #238, #275, #100, #259, #185, #114, #94, #240 ) ) ;
#78 = PERSON_AND_ORGANIZATION ( #245, #227 ) ;
#79 = CC_DESIGN_PERSON_AND_ORGANIZATION_ASSIGNMENT ( #173, #128, ( #87 ) ) ;
#80 = AXIS2_PLACEMENT_3D ( 'NONE', #19, #297, #272 ) ;
#81 = MECHANICAL_CONTEXT ( 'NONE', #106, 'mechanical' ) ;
#82 = PERSON_AND_ORGANIZATION ( #245, #227 ) ;
#83 = CARTESIAN_POINT ( 'NONE',  ( 14.00000000000000000, 1.714505518806294638E-15, -30.00000000000000000 ) ) ;
#84 = VECTOR ( 'NONE', #1, 1000.000000000000000 ) ;
#85 = CARTESIAN_POINT ( 'NONE',  ( -14.00000000000000000, 0.000000000000000000, 30.00000000000000000 ) ) ;
#86 = DIRECTION ( 'NONE',  ( -0.000000000000000000, -0.000000000000000000, -1.000000000000000000 ) ) ;
#87 = PRODUCT_DEFINITION ( 'UNKNOWN', '', #69, #3 ) ;
#88 = ORIENTED_EDGE ( 'NONE', *, *, #161, .T. ) ;
#89 = DIRECTION ( 'NONE',  ( 0.000000000000000000, 0.000000000000000000, 1.000000000000000000 ) ) ;
#90 = DIRECTION ( 'NONE',  ( -0.000000000000000000, -0.000000000000000000, 1.000000000000000000 ) ) ;
#91 = CARTESIAN_POINT ( 'NONE',  ( 33.99999999999997868, 0.000000000000000000, -30.00000000000000000 ) ) ;
#92 = DIRECTION ( 'NONE',  ( 1.000000000000000000, 0.000000000000000000, -0.000000000000000000 ) ) ;
#93 = CARTESIAN_POINT ( 'NONE',  ( 35.00000000000000711, 4.286263797015737285E-15, -28.26794919243107884 ) ) ;
#94 = ADVANCED_FACE ( 'NONE', ( #222 ), #152, .F. ) ;
#95 =( LENGTH_UNIT ( ) NAMED_UNIT ( * ) SI_UNIT ( .MILLI., .METRE. ) );
#96 = PERSON_AND_ORGANIZATION ( #245, #227 ) ;
#97 = PRODUCT ( '3991-20_REV_', '3991-20_REV_', '', ( #81 ) ) ;
#98 = VECTOR ( 'NONE', #138, 1000.000000000000000 ) ;
#99 = ORIENTED_EDGE ( 'NONE', *, *, #242, .T. ) ;
#100 = ADVANCED_FACE ( 'NONE', ( #251 ), #136, .T. ) ;
#101 = CALENDAR_DATE ( 2026, 28, 1 ) ;
#102 = EDGE_LOOP ( 'NONE', ( #177, #46, #21, #192 ) ) ;
#103 = EDGE_LOOP ( 'NONE', ( #105, #88, #172, #146 ) ) ;
#104 = EDGE_LOOP ( 'NONE', ( #154, #169 ) ) ;
#105 = ORIENTED_EDGE ( 'NONE', *, *, #201, .F. ) ;
#106 = APPLICATION_CONTEXT ( 'configuration controlled 3d designs of mechanical parts and assemblies' ) ;
#107 = DIRECTION ( 'NONE',  ( -1.000000000000000000, 0.000000000000000000, 0.000000000000000000 ) ) ;
#108 = DATE_AND_TIME ( #101, #190 ) ;
#109 = DIRECTION ( 'NONE',  ( 1.000000000000000000, 0.000000000000000000, 0.000000000000000000 ) ) ;
#110 = VERTEX_POINT ( 'NONE', #202 ) ;
#111 = ORIENTED_EDGE ( 'NONE', *, *, #287, .T. ) ;
#112 = DIRECTION ( 'NONE',  ( 1.000000000000000000, 0.000000000000000000, 0.000000000000000000 ) ) ;
#113 = UNCERTAINTY_MEASURE_WITH_UNIT (LENGTH_MEASURE( 1.000000000000000082E-05 ), #95, 'distance_accuracy_value', 'NONE');
#114 = ADVANCED_FACE ( 'NONE', ( #153 ), #179, .T. ) ;
#115 = VECTOR ( 'NONE', #204, 1000.000000000000114 ) ;
#116 = CYLINDRICAL_SURFACE ( 'NONE', #283, 14.00000000000000000 ) ;
#117 = LINE ( 'NONE', #73, #126 ) ;
#118 = CARTESIAN_POINT ( 'NONE',  ( 0.000000000000000000, 0.000000000000000000, -30.00000000000000000 ) ) ;
#119 = EDGE_CURVE ( 'NONE', #17, #246, #274, .T. ) ;
#120 = APPROVAL_DATE_TIME ( #108, #235 ) ;
#121 = PRODUCT_DEFINITION_SHAPE ( 'NONE', 'NONE',  #87 ) ;
#122 = EDGE_CURVE ( 'NONE', #59, #246, #23, .T. ) ;
#123 = CONICAL_SURFACE ( 'NONE', #189, 35.00000000000000711, 0.5235987755983005920 ) ;
#124 = ORIENTED_EDGE ( 'NONE', *, *, #125, .T. ) ;
#125 = EDGE_CURVE ( 'NONE', #38, #59, #213, .T. ) ;
#126 = VECTOR ( 'NONE', #237, 1000.000000000000000 ) ;
#127 = LOCAL_TIME ( 11, 17, 55.00000000000000000, #268 ) ;
#128 = PERSON_AND_ORGANIZATION_ROLE ( 'creator' ) ;
#129 = DIRECTION ( 'NONE',  ( 0.000000000000000000, 0.000000000000000000, 1.000000000000000000 ) ) ;
#130 = PERSON_AND_ORGANIZATION_ROLE ( 'design_owner' ) ;
#131 = ORIENTED_EDGE ( 'NONE', *, *, #14, .T. ) ;
#132 = EDGE_CURVE ( 'NONE', #191, #246, #209, .T. ) ;
#133 = DIRECTION ( 'NONE',  ( 0.000000000000000000, 0.000000000000000000, 1.000000000000000000 ) ) ;
#134 =( GEOMETRIC_REPRESENTATION_CONTEXT ( 3 ) GLOBAL_UNCERTAINTY_ASSIGNED_CONTEXT ( ( #113 ) ) GLOBAL_UNIT_ASSIGNED_CONTEXT ( ( #95, #27, #2 ) ) REPRESENTATION_CONTEXT ( 'NONE', 'WORKASPACE' ) );
#135 = VERTEX_POINT ( 'NONE', #83 ) ;
#136 = CYLINDRICAL_SURFACE ( 'NONE', #57, 35.00000000000000711 ) ;
#137 = PLANE ( 'NONE',  #265 ) ;
#138 = DIRECTION ( 'NONE',  ( -0.000000000000000000, -0.000000000000000000, -1.000000000000000000 ) ) ;
#139 = LINE ( 'NONE', #142, #98 ) ;
#140 = LINE ( 'NONE', #256, #115 ) ;
#141 = CC_DESIGN_PERSON_AND_ORGANIZATION_ASSIGNMENT ( #55, #221, ( #69 ) ) ;
#142 = CARTESIAN_POINT ( 'NONE',  ( 35.00000000000000711, 4.286263797015737285E-15, 30.00000000000000000 ) ) ;
#143 = DATE_TIME_ROLE ( 'classification_date' ) ;
#144 = APPROVAL_ROLE ( '' ) ;
#145 = EDGE_LOOP ( 'NONE', ( #224, #241, #255, #299 ) ) ;
#146 = ORIENTED_EDGE ( 'NONE', *, *, #220, .F. ) ;
#147 = APPROVAL_ROLE ( '' ) ;
#148 = AXIS2_PLACEMENT_3D ( 'NONE', #45, #197, #65 ) ;
#149 = VERTEX_POINT ( 'NONE', #85 ) ;
#150 = COORDINATED_UNIVERSAL_TIME_OFFSET ( 10, 0, .AHEAD. ) ;
#151 = CARTESIAN_POINT ( 'NONE',  ( 14.00000000000000000, 1.714505518806294638E-15, 30.00000000000000000 ) ) ;
#152 = CYLINDRICAL_SURFACE ( 'NONE', #279, 14.00000000000000000 ) ;
#153 = FACE_OUTER_BOUND ( 'NONE', #276, .T. ) ;
#154 = ORIENTED_EDGE ( 'NONE', *, *, #24, .F. ) ;
#155 = CARTESIAN_POINT ( 'NONE',  ( 0.000000000000000000, 0.000000000000000000, -30.00000000000000000 ) ) ;
#156 = EDGE_LOOP ( 'NONE', ( #13, #34, #7, #288 ) ) ;
#157 = CARTESIAN_POINT ( 'NONE',  ( 0.000000000000000000, 0.000000000000000000, 30.00000000000000000 ) ) ;
#158 = CARTESIAN_POINT ( 'NONE',  ( -35.00000000000000711, 0.000000000000000000, -28.26794919243107884 ) ) ;
#159 = CIRCLE ( 'NONE', #298, 33.99999999999997868 ) ;
#160 = DIRECTION ( 'NONE',  ( -0.000000000000000000, -0.000000000000000000, 1.000000000000000000 ) ) ;
#161 = EDGE_CURVE ( 'NONE', #67, #149, #15, .T. ) ;
#162 = EDGE_CURVE ( 'NONE', #149, #110, #182, .T. ) ;
#163 = CARTESIAN_POINT ( 'NONE',  ( -14.00000000000000000, 0.000000000000000000, 30.00000000000000000 ) ) ;
#164 = APPROVAL_ROLE ( '' ) ;
#165 = CIRCLE ( 'NONE', #292, 35.00000000000000711 ) ;
#166 = PERSON_AND_ORGANIZATION_ROLE ( 'creator' ) ;
#167 = EDGE_LOOP ( 'NONE', ( #56, #111 ) ) ;
#168 = LOCAL_TIME ( 11, 17, 55.00000000000000000, #32 ) ;
#169 = ORIENTED_EDGE ( 'NONE', *, *, #161, .F. ) ;
#170 = CC_DESIGN_PERSON_AND_ORGANIZATION_ASSIGNMENT ( #96, #166, ( #69 ) ) ;
#171 = DIRECTION ( 'NONE',  ( 1.000000000000000000, 0.000000000000000000, 0.000000000000000000 ) ) ;
#172 = ORIENTED_EDGE ( 'NONE', *, *, #162, .T. ) ;
#173 = PERSON_AND_ORGANIZATION ( #245, #227 ) ;
#174 = CC_DESIGN_PERSON_AND_ORGANIZATION_ASSIGNMENT ( #33, #130, ( #97 ) ) ;
#175 = CARTESIAN_POINT ( 'NONE',  ( -35.00000000000000711, 0.000000000000000000, 30.00000000000000000 ) ) ;
#176 = LOCAL_TIME ( 11, 17, 55.00000000000000000, #150 ) ;
#177 = ORIENTED_EDGE ( 'NONE', *, *, #24, .T. ) ;
#178 = VERTEX_POINT ( 'NONE', #91 ) ;
#179 = CYLINDRICAL_SURFACE ( 'NONE', #148, 35.00000000000000711 ) ;
#180 = AXIS2_PLACEMENT_3D ( 'NONE', #4, #160, #277 ) ;
#181 = DIRECTION ( 'NONE',  ( 1.000000000000000000, 0.000000000000000000, 0.000000000000000000 ) ) ;
#182 = LINE ( 'NONE', #163, #84 ) ;
#183 = DIRECTION ( 'NONE',  ( 0.000000000000000000, 0.000000000000000000, 1.000000000000000000 ) ) ;
#184 = CARTESIAN_POINT ( 'NONE',  ( 0.000000000000000000, 0.000000000000000000, -30.00000000000000000 ) ) ;
#185 = ADVANCED_FACE ( 'NONE', ( #208, #281 ), #207, .F. ) ;
#186 = AXIS2_PLACEMENT_3D ( 'NONE', #250, #66, #181 ) ;
#187 = FACE_OUTER_BOUND ( 'NONE', #102, .T. ) ;
#188 = DIRECTION ( 'NONE',  ( -0.000000000000000000, -0.000000000000000000, -1.000000000000000000 ) ) ;
#189 = AXIS2_PLACEMENT_3D ( 'NONE', #74, #90, #258 ) ;
#190 = LOCAL_TIME ( 11, 17, 55.00000000000000000, #20 ) ;
#191 = VERTEX_POINT ( 'NONE', #93 ) ;
#192 = ORIENTED_EDGE ( 'NONE', *, *, #162, .F. ) ;
#193 = VECTOR ( 'NONE', #296, 1000.000000000000000 ) ;
#194 = CC_DESIGN_APPROVAL ( #205, ( #87 ) ) ;
#195 = CARTESIAN_POINT ( 'NONE',  ( 0.000000000000000000, 0.000000000000000000, 0.000000000000000000 ) ) ;
#196 = APPLICATION_PROTOCOL_DEFINITION ( 'international standard', 'config_control_design', 1994, #37 ) ;
#197 = DIRECTION ( 'NONE',  ( -0.000000000000000000, -0.000000000000000000, -1.000000000000000000 ) ) ;
#198 = CALENDAR_DATE ( 2026, 28, 1 ) ;
#199 = CARTESIAN_POINT ( 'NONE',  ( 0.000000000000000000, 0.000000000000000000, 30.00000000000000000 ) ) ;
#200 = CARTESIAN_POINT ( 'NONE',  ( -33.99999999999997868, 4.225031457058366556E-15, -30.00000000000000000 ) ) ;
#201 = EDGE_CURVE ( 'NONE', #67, #135, #117, .T. ) ;
#202 = CARTESIAN_POINT ( 'NONE',  ( -14.00000000000000000, 0.000000000000000000, -30.00000000000000000 ) ) ;
#203 = DIRECTION ( 'NONE',  ( -0.5000000000000014433, 6.123233995736783292E-17, 0.8660254037844378194 ) ) ;
#204 = DIRECTION ( 'NONE',  ( 0.5000000000000014433, 0.000000000000000000, 0.8660254037844378194 ) ) ;
#205 = APPROVAL ( #39, 'UNSPECIFIED' ) ;
#206 = CC_DESIGN_DATE_AND_TIME_ASSIGNMENT ( #223, #289, ( #87 ) ) ;
#207 = PLANE ( 'NONE',  #63 ) ;
#208 = FACE_OUTER_BOUND ( 'NONE', #167, .T. ) ;
#209 = CIRCLE ( 'NONE', #80, 35.00000000000000711 ) ;
#210 = CARTESIAN_POINT ( 'NONE',  ( 0.000000000000000000, 0.000000000000000000, -30.00000000000000000 ) ) ;
#211 = SHAPE_DEFINITION_REPRESENTATION ( #121, #62 ) ;
#212 = ORIENTED_EDGE ( 'NONE', *, *, #285, .F. ) ;
#213 = CIRCLE ( 'NONE', #248, 35.00000000000000711 ) ;
#214 = EDGE_CURVE ( 'NONE', #178, #191, #140, .T. ) ;
#215 = SECURITY_CLASSIFICATION ( '', '', #263 ) ;
#216 = ORIENTED_EDGE ( 'NONE', *, *, #214, .F. ) ;
#217 = PRODUCT_RELATED_PRODUCT_CATEGORY ( 'detail', '', ( #97 ) ) ;
#218 = EDGE_LOOP ( 'NONE', ( #60, #12, #61, #216 ) ) ;
#219 = EDGE_LOOP ( 'NONE', ( #271, #42 ) ) ;
#220 = EDGE_CURVE ( 'NONE', #135, #110, #225, .T. ) ;
#221 = PERSON_AND_ORGANIZATION_ROLE ( 'design_supplier' ) ;
#222 = FACE_OUTER_BOUND ( 'NONE', #103, .T. ) ;
#223 = DATE_AND_TIME ( #198, #127 ) ;
#224 = ORIENTED_EDGE ( 'NONE', *, *, #119, .F. ) ;
#225 = CIRCLE ( 'NONE', #233, 14.00000000000000000 ) ;
#226 = CARTESIAN_POINT ( 'NONE',  ( 0.000000000000000000, 0.000000000000000000, 30.00000000000000000 ) ) ;
#227 = ORGANIZATION ( 'UNSPECIFIED', 'UNSPECIFIED', '' ) ;
#228 = CARTESIAN_POINT ( 'NONE',  ( 0.000000000000000000, 0.000000000000000000, 30.00000000000000000 ) ) ;
#229 = EDGE_CURVE ( 'NONE', #178, #17, #159, .T. ) ;
#230 = CARTESIAN_POINT ( 'NONE',  ( -35.00000000000000711, 0.000000000000000000, 30.00000000000000000 ) ) ;
#231 = CARTESIAN_POINT ( 'NONE',  ( 0.000000000000000000, 0.000000000000000000, -28.26794919243107884 ) ) ;
#232 = DIRECTION ( 'NONE',  ( -0.000000000000000000, -0.000000000000000000, 1.000000000000000000 ) ) ;
#233 = AXIS2_PLACEMENT_3D ( 'NONE', #184, #183, #236 ) ;
#234 = APPROVAL_PERSON_ORGANIZATION ( #82, #205, #164 ) ;
#235 = APPROVAL ( #6, 'UNSPECIFIED' ) ;
#236 = DIRECTION ( 'NONE',  ( 1.000000000000000000, 0.000000000000000000, 0.000000000000000000 ) ) ;
#237 = DIRECTION ( 'NONE',  ( -0.000000000000000000, -0.000000000000000000, -1.000000000000000000 ) ) ;
#238 = ADVANCED_FACE ( 'NONE', ( #280 ), #123, .T. ) ;
#239 = AXIS2_PLACEMENT_3D ( 'NONE', #43, #133, #22 ) ;
#240 = ADVANCED_FACE ( 'NONE', ( #29 ), #68, .T. ) ;
#241 = ORIENTED_EDGE ( 'NONE', *, *, #229, .F. ) ;
#242 = EDGE_CURVE ( 'NONE', #246, #191, #165, .T. ) ;
#243 = CIRCLE ( 'NONE', #30, 35.00000000000000711 ) ;
#244 = CC_DESIGN_PERSON_AND_ORGANIZATION_ASSIGNMENT ( #64, #18, ( #215 ) ) ;
#245 = PERSON ( 'UNSPECIFIED', 'UNSPECIFIED', 'UNSPECIFIED', ('UNSPECIFIED'), ('UNSPECIFIED'), ('UNSPECIFIED') ) ;
#246 = VERTEX_POINT ( 'NONE', #158 ) ;
#247 = APPROVAL_DATE_TIME ( #53, #295 ) ;
#248 = AXIS2_PLACEMENT_3D ( 'NONE', #226, #294, #112 ) ;
#249 = CALENDAR_DATE ( 2026, 28, 1 ) ;
#250 = CARTESIAN_POINT ( 'NONE',  ( 0.000000000000000000, 0.000000000000000000, -30.00000000000000000 ) ) ;
#251 = FACE_OUTER_BOUND ( 'NONE', #156, .T. ) ;
#252 = AXIS2_PLACEMENT_3D ( 'NONE', #195, #5, #171 ) ;
#253 = CARTESIAN_POINT ( 'NONE',  ( 35.00000000000000711, 4.286263797015737285E-15, 30.00000000000000000 ) ) ;
#254 = DIRECTION ( 'NONE',  ( -1.000000000000000000, 0.000000000000000000, 0.000000000000000000 ) ) ;
#255 = ORIENTED_EDGE ( 'NONE', *, *, #214, .T. ) ;
#256 = CARTESIAN_POINT ( 'NONE',  ( 35.00000000000000711, 0.000000000000000000, -28.26794919243107884 ) ) ;
#257 = DIRECTION ( 'NONE',  ( 1.000000000000000000, 0.000000000000000000, -0.000000000000000000 ) ) ;
#258 = DIRECTION ( 'NONE',  ( 1.000000000000000000, 0.000000000000000000, 0.000000000000000000 ) ) ;
#259 = ADVANCED_FACE ( 'NONE', ( #28, #72 ), #137, .T. ) ;
#260 = DIRECTION ( 'NONE',  ( 1.000000000000000000, 0.000000000000000000, 0.000000000000000000 ) ) ;
#261 = PERSON_AND_ORGANIZATION ( #245, #227 ) ;
#262 = MANIFOLD_SOLID_BREP ( 'Chamfer1', #77 ) ;
#263 = SECURITY_CLASSIFICATION_LEVEL ( 'unclassified' ) ;
#264 = DATE_AND_TIME ( #282, #16 ) ;
#265 = AXIS2_PLACEMENT_3D ( 'NONE', #157, #50, #257 ) ;
#266 = ORIENTED_EDGE ( 'NONE', *, *, #122, .T. ) ;
#267 = ORIENTED_EDGE ( 'NONE', *, *, #14, .F. ) ;
#268 = COORDINATED_UNIVERSAL_TIME_OFFSET ( 10, 0, .AHEAD. ) ;
#269 = CC_DESIGN_SECURITY_CLASSIFICATION ( #215, ( #69 ) ) ;
#270 = DIRECTION ( 'NONE',  ( -0.000000000000000000, -0.000000000000000000, -1.000000000000000000 ) ) ;
#271 = ORIENTED_EDGE ( 'NONE', *, *, #11, .T. ) ;
#272 = DIRECTION ( 'NONE',  ( 1.000000000000000000, 0.000000000000000000, 0.000000000000000000 ) ) ;
#273 = CIRCLE ( 'NONE', #44, 14.00000000000000000 ) ;
#274 = LINE ( 'NONE', #70, #8 ) ;
#275 = ADVANCED_FACE ( 'NONE', ( #187 ), #116, .F. ) ;
#276 = EDGE_LOOP ( 'NONE', ( #212, #267, #266, #99 ) ) ;
#277 = DIRECTION ( 'NONE',  ( 1.000000000000000000, 0.000000000000000000, 0.000000000000000000 ) ) ;
#278 = DIRECTION ( 'NONE',  ( -0.000000000000000000, -0.000000000000000000, -1.000000000000000000 ) ) ;
#279 = AXIS2_PLACEMENT_3D ( 'NONE', #199, #270, #254 ) ;
#280 = FACE_OUTER_BOUND ( 'NONE', #218, .T. ) ;
#281 = FACE_BOUND ( 'NONE', #219, .T. ) ;
#282 = CALENDAR_DATE ( 2026, 28, 1 ) ;
#283 = AXIS2_PLACEMENT_3D ( 'NONE', #75, #49, #47 ) ;
#284 = APPROVAL_PERSON_ORGANIZATION ( #78, #235, #144 ) ;
#285 = EDGE_CURVE ( 'NONE', #38, #191, #139, .T. ) ;
#286 = APPROVAL_STATUS ( 'not_yet_approved' ) ;
#287 = EDGE_CURVE ( 'NONE', #17, #178, #52, .T. ) ;
#288 = ORIENTED_EDGE ( 'NONE', *, *, #122, .F. ) ;
#289 = DATE_TIME_ROLE ( 'creation_date' ) ;
#290 = COORDINATED_UNIVERSAL_TIME_OFFSET ( 10, 0, .AHEAD. ) ;
#291 = CARTESIAN_POINT ( 'NONE',  ( 0.000000000000000000, 0.000000000000000000, 30.00000000000000000 ) ) ;
#292 = AXIS2_PLACEMENT_3D ( 'NONE', #231, #232, #51 ) ;
#293 = APPROVAL_PERSON_ORGANIZATION ( #261, #295, #147 ) ;
#294 = DIRECTION ( 'NONE',  ( 0.000000000000000000, 0.000000000000000000, 1.000000000000000000 ) ) ;
#295 = APPROVAL ( #286, 'UNSPECIFIED' ) ;
#296 = DIRECTION ( 'NONE',  ( -0.000000000000000000, -0.000000000000000000, -1.000000000000000000 ) ) ;
#297 = DIRECTION ( 'NONE',  ( -0.000000000000000000, -0.000000000000000000, 1.000000000000000000 ) ) ;
#298 = AXIS2_PLACEMENT_3D ( 'NONE', #155, #278, #260 ) ;
#299 = ORIENTED_EDGE ( 'NONE', *, *, #242, .F. ) ;
ENDSEC;
END-ISO-10303-21;
