ISO-10303-21;
HEADER;
FILE_DESCRIPTION (( 'STEP AP203' ),
    '1' );
FILE_NAME ('3991-30_REV_.step',
    '2026-01-28T00:18:04',
    ( '' ),
    ( '' ),
    'SwSTEP 2.0',
    'SolidWorks 2025',
    '' );
FILE_SCHEMA (( 'CONFIG_CONTROL_DESIGN' ));
ENDSEC;

DATA;
#1 = APPROVAL_PERSON_ORGANIZATION ( #163, #7, #83 ) ;
#2 = VERTEX_POINT ( 'NONE', #283 ) ;
#3 = DIRECTION ( 'NONE',  ( 1.000000000000000000, 3.061616997868382648E-16, -0.000000000000000000 ) ) ;
#4 = DIRECTION ( 'NONE',  ( -1.000000000000000000, -3.061616997868382648E-16, 0.000000000000000000 ) ) ;
#5 = CARTESIAN_POINT ( 'NONE',  ( 48.00000000000000711, -12.48999999999998067, 0.000000000000000000 ) ) ;
#6 = AXIS2_PLACEMENT_3D ( 'NONE', #119, #232, #265 ) ;
#7 = APPROVAL ( #271, 'UNSPECIFIED' ) ;
#8 = VECTOR ( 'NONE', #167, 1000.000000000000000 ) ;
#9 = CC_DESIGN_PERSON_AND_ORGANIZATION_ASSIGNMENT ( #169, #306, ( #44 ) ) ;
#10 = VECTOR ( 'NONE', #316, 1000.000000000000000 ) ;
#11 = VERTEX_POINT ( 'NONE', #148 ) ;
#12 = ORIENTED_EDGE ( 'NONE', *, *, #122, .F. ) ;
#13 = PRODUCT ( '3991-30_REV_', '3991-30_REV_', '', ( #219 ) ) ;
#14 = CIRCLE ( 'NONE', #142, 8.050000000000000711 ) ;
#15 = DIRECTION ( 'NONE',  ( -6.039072153095928939E-16, 1.000000000000000000, 0.000000000000000000 ) ) ;
#16 = EDGE_CURVE ( 'NONE', #109, #2, #36, .T. ) ;
#17 = ADVANCED_BREP_SHAPE_REPRESENTATION ( '3991-30_REV_', ( #222, #247 ), #123 ) ;
#18 = LINE ( 'NONE', #47, #339 ) ;
#19 = CIRCLE ( 'NONE', #133, 12.49000000000000021 ) ;
#20 = PLANE ( 'NONE',  #103 ) ;
#21 = CC_DESIGN_PERSON_AND_ORGANIZATION_ASSIGNMENT ( #159, #26, ( #329 ) ) ;
#22 = FACE_OUTER_BOUND ( 'NONE', #127, .T. ) ;
#23 = CARTESIAN_POINT ( 'NONE',  ( -49.00000000000000000, 8.049999999999986500, 0.000000000000000000 ) ) ;
#24 = AXIS2_PLACEMENT_3D ( 'NONE', #39, #182, #347 ) ;
#25 = FACE_OUTER_BOUND ( 'NONE', #139, .T. ) ;
#26 = PERSON_AND_ORGANIZATION_ROLE ( 'creator' ) ;
#27 = APPROVAL ( #104, 'UNSPECIFIED' ) ;
#28 = CIRCLE ( 'NONE', #149, 11.48999999999998245 ) ;
#29 = EDGE_LOOP ( 'NONE', ( #326, #31, #80, #63 ) ) ;
#30 = CARTESIAN_POINT ( 'NONE',  ( 48.00000000000000000, 1.959434878635764895E-14, 0.000000000000000000 ) ) ;
#31 = ORIENTED_EDGE ( 'NONE', *, *, #208, .T. ) ;
#32 = VERTEX_POINT ( 'NONE', #115 ) ;
#33 = DATE_AND_TIME ( #203, #345 ) ;
#34 = EDGE_LOOP ( 'NONE', ( #137, #81 ) ) ;
#35 = PERSON_AND_ORGANIZATION ( #231, #307 ) ;
#36 = LINE ( 'NONE', #91, #174 ) ;
#37 = DATE_AND_TIME ( #327, #71 ) ;
#38 = DIRECTION ( 'NONE',  ( 0.000000000000000000, 1.000000000000000000, 0.000000000000000000 ) ) ;
#39 = CARTESIAN_POINT ( 'NONE',  ( 49.00000000000000000, 1.990051048614448682E-14, 0.000000000000000000 ) ) ;
#40 = DIRECTION ( 'NONE',  ( 5.555559570782408784E-16, -1.000000000000000000, 0.000000000000000000 ) ) ;
#41 = ORIENTED_EDGE ( 'NONE', *, *, #208, .F. ) ;
#42 = EDGE_CURVE ( 'NONE', #11, #264, #55, .T. ) ;
#43 = CIRCLE ( 'NONE', #272, 11.49000000000001087 ) ;
#44 = PRODUCT_DEFINITION_FORMATION_WITH_SPECIFIED_SOURCE ( 'ANY', '', #13, .NOT_KNOWN. ) ;
#45 = CARTESIAN_POINT ( 'NONE',  ( -48.00000000000000711, -9.797174393178826052E-15, 0.000000000000000000 ) ) ;
#46 = UNCERTAINTY_MEASURE_WITH_UNIT (LENGTH_MEASURE( 1.000000000000000082E-05 ), #317, 'distance_accuracy_value', 'NONE');
#47 = CARTESIAN_POINT ( 'NONE',  ( -49.00000000000000000, -8.050000000000013145, 9.858406733136194415E-16 ) ) ;
#48 = DIRECTION ( 'NONE',  ( 0.000000000000000000, 1.000000000000000000, 0.000000000000000000 ) ) ;
#49 = PERSON_AND_ORGANIZATION ( #231, #307 ) ;
#50 = AXIS2_PLACEMENT_3D ( 'NONE', #126, #185, #183 ) ;
#51 = APPLICATION_PROTOCOL_DEFINITION ( 'international standard', 'config_control_design', 1994, #105 ) ;
#52 = CARTESIAN_POINT ( 'NONE',  ( -48.99999999999999289, -11.49000000000002153, 1.468351512177677361E-15 ) ) ;
#53 = ORIENTED_EDGE ( 'NONE', *, *, #192, .T. ) ;
#54 = ORIENTED_EDGE ( 'NONE', *, *, #156, .F. ) ;
#55 = CIRCLE ( 'NONE', #24, 11.48999999999998245 ) ;
#56 = EDGE_CURVE ( 'NONE', #264, #11, #28, .T. ) ;
#57 = VECTOR ( 'NONE', #309, 1000.000000000000000 ) ;
#58 = EDGE_LOOP ( 'NONE', ( #146, #54 ) ) ;
#59 =( NAMED_UNIT ( * ) SI_UNIT ( $, .STERADIAN. ) SOLID_ANGLE_UNIT ( ) );
#60 = COORDINATED_UNIVERSAL_TIME_OFFSET ( 10, 0, .AHEAD. ) ;
#61 = DIRECTION ( 'NONE',  ( 1.000000000000000000, 3.061616997868382648E-16, 0.000000000000000000 ) ) ;
#62 = EDGE_LOOP ( 'NONE', ( #337, #225, #204, #41 ) ) ;
#63 = ORIENTED_EDGE ( 'NONE', *, *, #135, .T. ) ;
#64 = ORIENTED_EDGE ( 'NONE', *, *, #270, .F. ) ;
#65 = FACE_OUTER_BOUND ( 'NONE', #194, .T. ) ;
#66 = ORIENTED_EDGE ( 'NONE', *, *, #16, .T. ) ;
#67 = ORIENTED_EDGE ( 'NONE', *, *, #308, .F. ) ;
#68 = EDGE_CURVE ( 'NONE', #279, #290, #197, .T. ) ;
#69 = DESIGN_CONTEXT ( 'detailed design', #218, 'design' ) ;
#70 = VECTOR ( 'NONE', #125, 1000.000000000000000 ) ;
#71 = LOCAL_TIME ( 11, 18, 4.000000000000000000, #333 ) ;
#72 = DIRECTION ( 'NONE',  ( 0.000000000000000000, 1.000000000000000000, 0.000000000000000000 ) ) ;
#73 = DIRECTION ( 'NONE',  ( 1.000000000000000000, 3.061616997868382648E-16, -0.000000000000000000 ) ) ;
#74 = CARTESIAN_POINT ( 'NONE',  ( -49.00000000000000711, 12.48999999999998956, 0.000000000000000000 ) ) ;
#75 = EDGE_CURVE ( 'NONE', #162, #229, #266, .T. ) ;
#76 = CONICAL_SURFACE ( 'NONE', #50, 12.49000000000000021, 0.7853981633974560506 ) ;
#77 = DATE_AND_TIME ( #132, #199 ) ;
#78 = FACE_OUTER_BOUND ( 'NONE', #112, .T. ) ;
#79 = ADVANCED_FACE ( 'NONE', ( #348 ), #87, .T. ) ;
#80 = ORIENTED_EDGE ( 'NONE', *, *, #75, .T. ) ;
#81 = ORIENTED_EDGE ( 'NONE', *, *, #308, .T. ) ;
#82 = CC_DESIGN_PERSON_AND_ORGANIZATION_ASSIGNMENT ( #35, #138, ( #294 ) ) ;
#83 = APPROVAL_ROLE ( '' ) ;
#84 = ORIENTED_EDGE ( 'NONE', *, *, #256, .F. ) ;
#85 = COORDINATED_UNIVERSAL_TIME_OFFSET ( 10, 0, .AHEAD. ) ;
#86 = CC_DESIGN_PERSON_AND_ORGANIZATION_ASSIGNMENT ( #49, #160, ( #13 ) ) ;
#87 = CONICAL_SURFACE ( 'NONE', #230, 11.49000000000001087, 0.7853981633974457255 ) ;
#88 = CONICAL_SURFACE ( 'NONE', #134, 12.49000000000000021, 0.7853981633974560506 ) ;
#89 = PERSON_AND_ORGANIZATION ( #231, #307 ) ;
#90 = CARTESIAN_POINT ( 'NONE',  ( -48.99999999999999289, -12.49000000000000909, 1.529583852135044146E-15 ) ) ;
#91 = CARTESIAN_POINT ( 'NONE',  ( -48.99999999999999289, -11.49000000000002153, 1.407119172220309984E-15 ) ) ;
#92 = EDGE_CURVE ( 'NONE', #249, #109, #43, .T. ) ;
#93 = CARTESIAN_POINT ( 'NONE',  ( -49.00000000000000711, 11.49000000000000021, 0.000000000000000000 ) ) ;
#94 = CARTESIAN_POINT ( 'NONE',  ( -49.00000000000000000, -1.010333609296566392E-14, 0.000000000000000000 ) ) ;
#95 = CARTESIAN_POINT ( 'NONE',  ( -48.00000000000000711, -9.797174393178826052E-15, 0.000000000000000000 ) ) ;
#96 = CARTESIAN_POINT ( 'NONE',  ( -49.00000000000000000, -1.010333609296566077E-14, 0.000000000000000000 ) ) ;
#97 = AXIS2_PLACEMENT_3D ( 'NONE', #175, #312, #334 ) ;
#98 = DIRECTION ( 'NONE',  ( 5.555559570782408784E-16, -1.000000000000000000, 0.000000000000000000 ) ) ;
#99 = PRODUCT_DEFINITION_SHAPE ( 'NONE', 'NONE',  #329 ) ;
#100 = DIRECTION ( 'NONE',  ( -1.000000000000000000, -3.061616997868373280E-16, -0.000000000000000000 ) ) ;
#101 = CARTESIAN_POINT ( 'NONE',  ( 49.00000000000000000, 1.990051048614448682E-14, 0.000000000000000000 ) ) ;
#102 = ADVANCED_FACE ( 'NONE', ( #25 ), #108, .T. ) ;
#103 = AXIS2_PLACEMENT_3D ( 'NONE', #101, #4, #188 ) ;
#104 = APPROVAL_STATUS ( 'not_yet_approved' ) ;
#105 = APPLICATION_CONTEXT ( 'configuration controlled 3d designs of mechanical parts and assemblies' ) ;
#106 = ORIENTED_EDGE ( 'NONE', *, *, #42, .T. ) ;
#107 = FACE_BOUND ( 'NONE', #305, .T. ) ;
#108 = CYLINDRICAL_SURFACE ( 'NONE', #210, 12.49000000000000021 ) ;
#109 = VERTEX_POINT ( 'NONE', #52 ) ;
#110 = PERSON_AND_ORGANIZATION ( #231, #307 ) ;
#111 = DIRECTION ( 'NONE',  ( 5.555559570782408784E-16, -1.000000000000000000, 0.000000000000000000 ) ) ;
#112 = EDGE_LOOP ( 'NONE', ( #84, #195, #223, #227 ) ) ;
#113 = PERSON_AND_ORGANIZATION_ROLE ( 'design_supplier' ) ;
#114 = CIRCLE ( 'NONE', #273, 8.050000000000000711 ) ;
#115 = CARTESIAN_POINT ( 'NONE',  ( -49.00000000000000000, 8.049999999999986500, 0.000000000000000000 ) ) ;
#116 = CC_DESIGN_DATE_AND_TIME_ASSIGNMENT ( #77, #268, ( #329 ) ) ;
#117 = DIRECTION ( 'NONE',  ( 5.555559570782408784E-16, -1.000000000000000000, 0.000000000000000000 ) ) ;
#118 = CIRCLE ( 'NONE', #233, 11.49000000000001087 ) ;
#119 = CARTESIAN_POINT ( 'NONE',  ( -49.00000000000000000, -1.313433692085536199E-14, 0.000000000000000000 ) ) ;
#120 = DIRECTION ( 'NONE',  ( 5.555559570782408784E-16, -1.000000000000000000, 0.000000000000000000 ) ) ;
#121 = EDGE_CURVE ( 'NONE', #32, #279, #161, .T. ) ;
#122 = EDGE_CURVE ( 'NONE', #11, #323, #245, .T. ) ;
#123 =( GEOMETRIC_REPRESENTATION_CONTEXT ( 3 ) GLOBAL_UNCERTAINTY_ASSIGNED_CONTEXT ( ( #46 ) ) GLOBAL_UNIT_ASSIGNED_CONTEXT ( ( #317, #319, #59 ) ) REPRESENTATION_CONTEXT ( 'NONE', 'WORKASPACE' ) );
#124 = FACE_BOUND ( 'NONE', #58, .T. ) ;
#125 = DIRECTION ( 'NONE',  ( 1.000000000000000000, 3.061616997868382648E-16, -0.000000000000000000 ) ) ;
#126 = CARTESIAN_POINT ( 'NONE',  ( 48.00000000000000000, 1.959434878635764895E-14, 0.000000000000000000 ) ) ;
#127 = EDGE_LOOP ( 'NONE', ( #287, #335, #200, #190 ) ) ;
#128 = APPROVAL_PERSON_ORGANIZATION ( #89, #318, #250 ) ;
#129 = ADVANCED_FACE ( 'NONE', ( #164, #107 ), #136, .T. ) ;
#130 = DIRECTION ( 'NONE',  ( 1.000000000000000000, 0.000000000000000000, 0.000000000000000000 ) ) ;
#131 = EDGE_LOOP ( 'NONE', ( #324, #152, #284, #172 ) ) ;
#132 = CALENDAR_DATE ( 2026, 28, 1 ) ;
#133 = AXIS2_PLACEMENT_3D ( 'NONE', #45, #346, #40 ) ;
#134 = AXIS2_PLACEMENT_3D ( 'NONE', #239, #237, #98 ) ;
#135 = EDGE_CURVE ( 'NONE', #229, #323, #251, .T. ) ;
#136 = PLANE ( 'NONE',  #97 ) ;
#137 = ORIENTED_EDGE ( 'NONE', *, *, #92, .T. ) ;
#138 = PERSON_AND_ORGANIZATION_ROLE ( 'classification_officer' ) ;
#139 = EDGE_LOOP ( 'NONE', ( #260, #278, #220, #140 ) ) ;
#140 = ORIENTED_EDGE ( 'NONE', *, *, #75, .F. ) ;
#141 = SHAPE_DEFINITION_REPRESENTATION ( #99, #17 ) ;
#142 = AXIS2_PLACEMENT_3D ( 'NONE', #180, #291, #342 ) ;
#143 = DIRECTION ( 'NONE',  ( 0.7071067811865495711, -0.7071067811865454633, 8.659560562354910671E-17 ) ) ;
#144 = EDGE_CURVE ( 'NONE', #249, #162, #289, .T. ) ;
#145 = ORIENTED_EDGE ( 'NONE', *, *, #144, .F. ) ;
#146 = ORIENTED_EDGE ( 'NONE', *, *, #68, .F. ) ;
#147 = FACE_OUTER_BOUND ( 'NONE', #131, .T. ) ;
#148 = CARTESIAN_POINT ( 'NONE',  ( 49.00000000000000711, -11.48999999999996291, 0.000000000000000000 ) ) ;
#149 = AXIS2_PLACEMENT_3D ( 'NONE', #235, #73, #297 ) ;
#150 = CC_DESIGN_APPROVAL ( #7, ( #329 ) ) ;
#151 = DIRECTION ( 'NONE',  ( 1.000000000000000000, 3.061616997868382648E-16, -0.000000000000000000 ) ) ;
#152 = ORIENTED_EDGE ( 'NONE', *, *, #192, .F. ) ;
#153 = DIRECTION ( 'NONE',  ( 1.000000000000000000, 3.061616997868382648E-16, 0.000000000000000000 ) ) ;
#154 = LINE ( 'NONE', #205, #10 ) ;
#155 = EDGE_CURVE ( 'NONE', #2, #323, #341, .T. ) ;
#156 = EDGE_CURVE ( 'NONE', #290, #279, #114, .T. ) ;
#157 = CARTESIAN_POINT ( 'NONE',  ( -49.00000000000000000, -1.313433692085536199E-14, 0.000000000000000000 ) ) ;
#158 = CIRCLE ( 'NONE', #238, 12.49000000000000021 ) ;
#159 = PERSON_AND_ORGANIZATION ( #231, #307 ) ;
#160 = PERSON_AND_ORGANIZATION_ROLE ( 'design_owner' ) ;
#161 = LINE ( 'NONE', #23, #8 ) ;
#162 = VERTEX_POINT ( 'NONE', #293 ) ;
#163 = PERSON_AND_ORGANIZATION ( #231, #307 ) ;
#164 = FACE_OUTER_BOUND ( 'NONE', #34, .T. ) ;
#165 = VERTEX_POINT ( 'NONE', #177 ) ;
#166 = CALENDAR_DATE ( 2026, 28, 1 ) ;
#167 = DIRECTION ( 'NONE',  ( 1.000000000000000000, 3.061616997868382648E-16, -0.000000000000000000 ) ) ;
#168 = AXIS2_PLACEMENT_3D ( 'NONE', #236, #207, #344 ) ;
#169 = PERSON_AND_ORGANIZATION ( #231, #307 ) ;
#170 = ORIENTED_EDGE ( 'NONE', *, *, #286, .T. ) ;
#171 = EDGE_CURVE ( 'NONE', #323, #229, #176, .T. ) ;
#172 = ORIENTED_EDGE ( 'NONE', *, *, #68, .T. ) ;
#173 = APPROVAL_STATUS ( 'not_yet_approved' ) ;
#174 = VECTOR ( 'NONE', #143, 1000.000000000000000 ) ;
#175 = CARTESIAN_POINT ( 'NONE',  ( -49.00000000000000000, -1.010333609296566392E-14, 0.000000000000000000 ) ) ;
#176 = CIRCLE ( 'NONE', #262, 12.49000000000000021 ) ;
#177 = CARTESIAN_POINT ( 'NONE',  ( -49.00000000000000000, -8.050000000000013145, 9.858406733136212164E-16 ) ) ;
#178 = FACE_OUTER_BOUND ( 'NONE', #29, .T. ) ;
#179 = CYLINDRICAL_SURFACE ( 'NONE', #168, 12.49000000000000021 ) ;
#180 = CARTESIAN_POINT ( 'NONE',  ( -49.00000000000000000, -1.313433692085536199E-14, 0.000000000000000000 ) ) ;
#181 = DIRECTION ( 'NONE',  ( 1.000000000000000000, 3.061616997868379197E-16, 0.000000000000000000 ) ) ;
#182 = DIRECTION ( 'NONE',  ( 1.000000000000000000, 3.061616997868382648E-16, -0.000000000000000000 ) ) ;
#183 = DIRECTION ( 'NONE',  ( 5.555559570782408784E-16, -1.000000000000000000, 0.000000000000000000 ) ) ;
#184 = AXIS2_PLACEMENT_3D ( 'NONE', #315, #263, #15 ) ;
#185 = DIRECTION ( 'NONE',  ( -1.000000000000000000, -3.061616997868373280E-16, -0.000000000000000000 ) ) ;
#186 = CC_DESIGN_DATE_AND_TIME_ASSIGNMENT ( #277, #226, ( #294 ) ) ;
#187 = CYLINDRICAL_SURFACE ( 'NONE', #217, 8.050000000000000711 ) ;
#188 = DIRECTION ( 'NONE',  ( 3.061616997868382648E-16, -1.000000000000000000, 0.000000000000000000 ) ) ;
#189 = DIRECTION ( 'NONE',  ( 1.000000000000000000, 3.061616997868382648E-16, -0.000000000000000000 ) ) ;
#190 = ORIENTED_EDGE ( 'NONE', *, *, #121, .F. ) ;
#191 = LOCAL_TIME ( 11, 18, 4.000000000000000000, #304 ) ;
#192 = EDGE_CURVE ( 'NONE', #32, #165, #253, .T. ) ;
#193 = DIRECTION ( 'NONE',  ( -5.555559570782408784E-16, 1.000000000000000000, 0.000000000000000000 ) ) ;
#194 = EDGE_LOOP ( 'NONE', ( #255, #248, #276, #12 ) ) ;
#195 = ORIENTED_EDGE ( 'NONE', *, *, #42, .F. ) ;
#196 = CARTESIAN_POINT ( 'NONE',  ( -49.00000000000000000, -1.010333609296566392E-14, 0.000000000000000000 ) ) ;
#197 = CIRCLE ( 'NONE', #338, 8.050000000000000711 ) ;
#198 = SECURITY_CLASSIFICATION_LEVEL ( 'unclassified' ) ;
#199 = LOCAL_TIME ( 11, 18, 4.000000000000000000, #269 ) ;
#200 = ORIENTED_EDGE ( 'NONE', *, *, #156, .T. ) ;
#201 = APPROVAL_DATE_TIME ( #37, #318 ) ;
#202 = CARTESIAN_POINT ( 'NONE',  ( -49.00000000000000711, 11.49000000000000021, 0.000000000000000000 ) ) ;
#203 = CALENDAR_DATE ( 2026, 28, 1 ) ;
#204 = ORIENTED_EDGE ( 'NONE', *, *, #144, .T. ) ;
#205 = CARTESIAN_POINT ( 'NONE',  ( 47.99999999999999289, 12.49000000000001798, 1.529583852135044146E-15 ) ) ;
#206 = ADVANCED_FACE ( 'NONE', ( #178 ), #179, .T. ) ;
#207 = DIRECTION ( 'NONE',  ( 1.000000000000000000, 3.061616997868382648E-16, -0.000000000000000000 ) ) ;
#208 = EDGE_CURVE ( 'NONE', #2, #162, #158, .T. ) ;
#209 = FACE_OUTER_BOUND ( 'NONE', #62, .T. ) ;
#210 = AXIS2_PLACEMENT_3D ( 'NONE', #196, #189, #193 ) ;
#211 = APPROVAL_PERSON_ORGANIZATION ( #349, #27, #281 ) ;
#212 = CYLINDRICAL_SURFACE ( 'NONE', #303, 8.050000000000000711 ) ;
#213 = ORIENTED_EDGE ( 'NONE', *, *, #56, .T. ) ;
#214 = FACE_OUTER_BOUND ( 'NONE', #330, .T. ) ;
#215 = CARTESIAN_POINT ( 'NONE',  ( 49.00000000000000000, 1.686950965825478559E-14, 0.000000000000000000 ) ) ;
#216 = CARTESIAN_POINT ( 'NONE',  ( -49.00000000000000000, -1.313433692085536199E-14, 0.000000000000000000 ) ) ;
#217 = AXIS2_PLACEMENT_3D ( 'NONE', #216, #3, #244 ) ;
#218 = APPLICATION_CONTEXT ( 'configuration controlled 3d designs of mechanical parts and assemblies' ) ;
#219 = MECHANICAL_CONTEXT ( 'NONE', #105, 'mechanical' ) ;
#220 = ORIENTED_EDGE ( 'NONE', *, *, #171, .T. ) ;
#221 = ADVANCED_FACE ( 'NONE', ( #65 ), #88, .T. ) ;
#222 = MANIFOLD_SOLID_BREP ( 'Chamfer1', #298 ) ;
#223 = ORIENTED_EDGE ( 'NONE', *, *, #122, .T. ) ;
#224 = PRODUCT_RELATED_PRODUCT_CATEGORY ( 'detail', '', ( #13 ) ) ;
#225 = ORIENTED_EDGE ( 'NONE', *, *, #92, .F. ) ;
#226 = DATE_TIME_ROLE ( 'classification_date' ) ;
#227 = ORIENTED_EDGE ( 'NONE', *, *, #135, .F. ) ;
#228 = CALENDAR_DATE ( 2026, 28, 1 ) ;
#229 = VERTEX_POINT ( 'NONE', #340 ) ;
#230 = AXIS2_PLACEMENT_3D ( 'NONE', #94, #181, #314 ) ;
#231 = PERSON ( 'UNSPECIFIED', 'UNSPECIFIED', 'UNSPECIFIED', ('UNSPECIFIED'), ('UNSPECIFIED'), ('UNSPECIFIED') ) ;
#232 = DIRECTION ( 'NONE',  ( 1.000000000000000000, 3.061616997868382648E-16, 0.000000000000000000 ) ) ;
#233 = AXIS2_PLACEMENT_3D ( 'NONE', #295, #301, #321 ) ;
#234 = CARTESIAN_POINT ( 'NONE',  ( 48.00000000000000000, 1.959434878635764895E-14, 0.000000000000000000 ) ) ;
#235 = CARTESIAN_POINT ( 'NONE',  ( 49.00000000000000000, 1.990051048614448682E-14, 0.000000000000000000 ) ) ;
#236 = CARTESIAN_POINT ( 'NONE',  ( -49.00000000000000000, -1.010333609296566392E-14, 0.000000000000000000 ) ) ;
#237 = DIRECTION ( 'NONE',  ( -1.000000000000000000, -3.061616997868373280E-16, -0.000000000000000000 ) ) ;
#238 = AXIS2_PLACEMENT_3D ( 'NONE', #95, #288, #120 ) ;
#239 = CARTESIAN_POINT ( 'NONE',  ( 48.00000000000000000, 1.959434878635764895E-14, 0.000000000000000000 ) ) ;
#240 = CC_DESIGN_PERSON_AND_ORGANIZATION_ASSIGNMENT ( #110, #113, ( #44 ) ) ;
#241 = DATE_AND_TIME ( #166, #191 ) ;
#242 = DIRECTION ( 'NONE',  ( -1.000000000000000000, -3.061616997868382648E-16, 0.000000000000000000 ) ) ;
#243 = CC_DESIGN_APPROVAL ( #27, ( #44 ) ) ;
#244 = DIRECTION ( 'NONE',  ( 0.000000000000000000, 1.000000000000000000, 0.000000000000000000 ) ) ;
#245 = LINE ( 'NONE', #5, #252 ) ;
#246 = CARTESIAN_POINT ( 'NONE',  ( 48.00000000000000711, -12.48999999999998067, 1.529583852135044146E-15 ) ) ;
#247 = AXIS2_PLACEMENT_3D ( 'NONE', #300, #274, #130 ) ;
#248 = ORIENTED_EDGE ( 'NONE', *, *, #256, .T. ) ;
#249 = VERTEX_POINT ( 'NONE', #93 ) ;
#250 = APPROVAL_ROLE ( '' ) ;
#251 = CIRCLE ( 'NONE', #320, 12.49000000000000021 ) ;
#252 = VECTOR ( 'NONE', #302, 1000.000000000000000 ) ;
#253 = CIRCLE ( 'NONE', #6, 8.050000000000000711 ) ;
#254 = CARTESIAN_POINT ( 'NONE',  ( 49.00000000000000000, 1.686950965825478559E-14, 0.000000000000000000 ) ) ;
#255 = ORIENTED_EDGE ( 'NONE', *, *, #56, .F. ) ;
#256 = EDGE_CURVE ( 'NONE', #264, #229, #154, .T. ) ;
#257 = EDGE_LOOP ( 'NONE', ( #67, #66, #64, #145 ) ) ;
#258 = DIRECTION ( 'NONE',  ( 1.000000000000000000, 3.061616997868382648E-16, -0.000000000000000000 ) ) ;
#259 = DIRECTION ( 'NONE',  ( 1.000000000000000000, 3.061616997868382648E-16, -0.000000000000000000 ) ) ;
#260 = ORIENTED_EDGE ( 'NONE', *, *, #270, .T. ) ;
#261 = CARTESIAN_POINT ( 'NONE',  ( 49.00000000000000000, 8.050000000000016698, 0.000000000000000000 ) ) ;
#262 = AXIS2_PLACEMENT_3D ( 'NONE', #234, #100, #117 ) ;
#263 = DIRECTION ( 'NONE',  ( 1.000000000000000000, 3.061616997868379197E-16, 0.000000000000000000 ) ) ;
#264 = VERTEX_POINT ( 'NONE', #296 ) ;
#265 = DIRECTION ( 'NONE',  ( 0.000000000000000000, 1.000000000000000000, 0.000000000000000000 ) ) ;
#266 = LINE ( 'NONE', #74, #70 ) ;
#267 = CC_DESIGN_SECURITY_CLASSIFICATION ( #294, ( #44 ) ) ;
#268 = DATE_TIME_ROLE ( 'creation_date' ) ;
#269 = COORDINATED_UNIVERSAL_TIME_OFFSET ( 10, 0, .AHEAD. ) ;
#270 = EDGE_CURVE ( 'NONE', #162, #2, #19, .T. ) ;
#271 = APPROVAL_STATUS ( 'not_yet_approved' ) ;
#272 = AXIS2_PLACEMENT_3D ( 'NONE', #96, #242, #328 ) ;
#273 = AXIS2_PLACEMENT_3D ( 'NONE', #254, #61, #38 ) ;
#274 = DIRECTION ( 'NONE',  ( 0.000000000000000000, 0.000000000000000000, 1.000000000000000000 ) ) ;
#275 = APPROVAL_DATE_TIME ( #241, #7 ) ;
#276 = ORIENTED_EDGE ( 'NONE', *, *, #171, .F. ) ;
#277 = DATE_AND_TIME ( #228, #311 ) ;
#278 = ORIENTED_EDGE ( 'NONE', *, *, #155, .T. ) ;
#279 = VERTEX_POINT ( 'NONE', #261 ) ;
#280 = ADVANCED_FACE ( 'NONE', ( #147 ), #212, .F. ) ;
#281 = APPROVAL_ROLE ( '' ) ;
#282 = EDGE_CURVE ( 'NONE', #165, #290, #18, .T. ) ;
#283 = CARTESIAN_POINT ( 'NONE',  ( -48.00000000000000000, -12.49000000000001087, 1.529583852135046316E-15 ) ) ;
#284 = ORIENTED_EDGE ( 'NONE', *, *, #121, .T. ) ;
#285 = CC_DESIGN_APPROVAL ( #318, ( #294 ) ) ;
#286 = EDGE_CURVE ( 'NONE', #165, #32, #14, .T. ) ;
#287 = ORIENTED_EDGE ( 'NONE', *, *, #286, .F. ) ;
#288 = DIRECTION ( 'NONE',  ( 1.000000000000000000, 3.061616997868379197E-16, 0.000000000000000000 ) ) ;
#289 = LINE ( 'NONE', #202, #57 ) ;
#290 = VERTEX_POINT ( 'NONE', #313 ) ;
#291 = DIRECTION ( 'NONE',  ( 1.000000000000000000, 3.061616997868382648E-16, 0.000000000000000000 ) ) ;
#292 = ADVANCED_FACE ( 'NONE', ( #209 ), #299, .T. ) ;
#293 = CARTESIAN_POINT ( 'NONE',  ( -48.00000000000001421, 12.48999999999998956, 0.000000000000000000 ) ) ;
#294 = SECURITY_CLASSIFICATION ( '', '', #198 ) ;
#295 = CARTESIAN_POINT ( 'NONE',  ( -49.00000000000000000, -1.010333609296566077E-14, 0.000000000000000000 ) ) ;
#296 = CARTESIAN_POINT ( 'NONE',  ( 48.99999999999999289, 11.49000000000000199, 1.468351512177675389E-15 ) ) ;
#297 = DIRECTION ( 'NONE',  ( 6.039072153095943730E-16, -1.000000000000000000, 0.000000000000000000 ) ) ;
#298 = CLOSED_SHELL ( 'NONE', ( #221, #79, #331, #102, #206, #129, #343, #280, #292, #325 ) ) ;
#299 = CONICAL_SURFACE ( 'NONE', #184, 11.49000000000001087, 0.7853981633974457255 ) ;
#300 = CARTESIAN_POINT ( 'NONE',  ( 0.000000000000000000, 0.000000000000000000, 0.000000000000000000 ) ) ;
#301 = DIRECTION ( 'NONE',  ( -1.000000000000000000, -3.061616997868382648E-16, 0.000000000000000000 ) ) ;
#302 = DIRECTION ( 'NONE',  ( -0.7071067811865417996, -0.7071067811865532349, 0.000000000000000000 ) ) ;
#303 = AXIS2_PLACEMENT_3D ( 'NONE', #157, #151, #72 ) ;
#304 = COORDINATED_UNIVERSAL_TIME_OFFSET ( 10, 0, .AHEAD. ) ;
#305 = EDGE_LOOP ( 'NONE', ( #53, #170 ) ) ;
#306 = PERSON_AND_ORGANIZATION_ROLE ( 'creator' ) ;
#307 = ORGANIZATION ( 'UNSPECIFIED', 'UNSPECIFIED', '' ) ;
#308 = EDGE_CURVE ( 'NONE', #109, #249, #118, .T. ) ;
#309 = DIRECTION ( 'NONE',  ( 0.7071067811865491270, 0.7071067811865459074, 0.000000000000000000 ) ) ;
#310 = APPROVAL_DATE_TIME ( #33, #27 ) ;
#311 = LOCAL_TIME ( 11, 18, 4.000000000000000000, #85 ) ;
#312 = DIRECTION ( 'NONE',  ( -1.000000000000000000, -3.061616997868382648E-16, 0.000000000000000000 ) ) ;
#313 = CARTESIAN_POINT ( 'NONE',  ( 49.00000000000000000, -8.049999999999982947, 9.858406733136194415E-16 ) ) ;
#314 = DIRECTION ( 'NONE',  ( -6.039072153095928939E-16, 1.000000000000000000, 0.000000000000000000 ) ) ;
#315 = CARTESIAN_POINT ( 'NONE',  ( -49.00000000000000000, -1.010333609296566392E-14, 0.000000000000000000 ) ) ;
#316 = DIRECTION ( 'NONE',  ( -0.7071067811865422437, 0.7071067811865527908, 8.659560562355000651E-17 ) ) ;
#317 =( LENGTH_UNIT ( ) NAMED_UNIT ( * ) SI_UNIT ( .MILLI., .METRE. ) );
#318 = APPROVAL ( #173, 'UNSPECIFIED' ) ;
#319 =( NAMED_UNIT ( * ) PLANE_ANGLE_UNIT ( ) SI_UNIT ( $, .RADIAN. ) );
#320 = AXIS2_PLACEMENT_3D ( 'NONE', #30, #336, #111 ) ;
#321 = DIRECTION ( 'NONE',  ( 6.039072153095928939E-16, -1.000000000000000000, 0.000000000000000000 ) ) ;
#322 = APPLICATION_PROTOCOL_DEFINITION ( 'international standard', 'config_control_design', 1994, #218 ) ;
#323 = VERTEX_POINT ( 'NONE', #246 ) ;
#324 = ORIENTED_EDGE ( 'NONE', *, *, #282, .F. ) ;
#325 = ADVANCED_FACE ( 'NONE', ( #78 ), #76, .T. ) ;
#326 = ORIENTED_EDGE ( 'NONE', *, *, #155, .F. ) ;
#327 = CALENDAR_DATE ( 2026, 28, 1 ) ;
#328 = DIRECTION ( 'NONE',  ( 6.039072153095928939E-16, -1.000000000000000000, 0.000000000000000000 ) ) ;
#329 = PRODUCT_DEFINITION ( 'UNKNOWN', '', #44, #69 ) ;
#330 = EDGE_LOOP ( 'NONE', ( #106, #213 ) ) ;
#331 = ADVANCED_FACE ( 'NONE', ( #22 ), #187, .F. ) ;
#332 = VECTOR ( 'NONE', #259, 1000.000000000000000 ) ;
#333 = COORDINATED_UNIVERSAL_TIME_OFFSET ( 10, 0, .AHEAD. ) ;
#334 = DIRECTION ( 'NONE',  ( 3.061616997868382648E-16, -1.000000000000000000, 0.000000000000000000 ) ) ;
#335 = ORIENTED_EDGE ( 'NONE', *, *, #282, .T. ) ;
#336 = DIRECTION ( 'NONE',  ( -1.000000000000000000, -3.061616997868373280E-16, -0.000000000000000000 ) ) ;
#337 = ORIENTED_EDGE ( 'NONE', *, *, #16, .F. ) ;
#338 = AXIS2_PLACEMENT_3D ( 'NONE', #215, #153, #48 ) ;
#339 = VECTOR ( 'NONE', #258, 1000.000000000000000 ) ;
#340 = CARTESIAN_POINT ( 'NONE',  ( 47.99999999999999289, 12.49000000000001798, 0.000000000000000000 ) ) ;
#341 = LINE ( 'NONE', #90, #332 ) ;
#342 = DIRECTION ( 'NONE',  ( 0.000000000000000000, 1.000000000000000000, 0.000000000000000000 ) ) ;
#343 = ADVANCED_FACE ( 'NONE', ( #214, #124 ), #20, .F. ) ;
#344 = DIRECTION ( 'NONE',  ( -5.555559570782408784E-16, 1.000000000000000000, 0.000000000000000000 ) ) ;
#345 = LOCAL_TIME ( 11, 18, 4.000000000000000000, #60 ) ;
#346 = DIRECTION ( 'NONE',  ( 1.000000000000000000, 3.061616997868379197E-16, 0.000000000000000000 ) ) ;
#347 = DIRECTION ( 'NONE',  ( 6.039072153095943730E-16, -1.000000000000000000, 0.000000000000000000 ) ) ;
#348 = FACE_OUTER_BOUND ( 'NONE', #257, .T. ) ;
#349 = PERSON_AND_ORGANIZATION ( #231, #307 ) ;
ENDSEC;
END-ISO-10303-21;
