ISO-10303-21;
HEADER;
FILE_DESCRIPTION (( 'STEP AP203' ),
    '1' );
FILE_NAME ('3991-35_REV_.step',
    '2026-01-28T00:25:42',
    ( '' ),
    ( '' ),
    'SwSTEP 2.0',
    'SolidWorks 2025',
    '' );
FILE_SCHEMA (( 'CONFIG_CONTROL_DESIGN' ));
ENDSEC;

DATA;
#1 = EDGE_LOOP ( 'NONE', ( #139, #28, #301, #7 ) ) ;
#2 = EDGE_CURVE ( 'NONE', #106, #269, #270, .T. ) ;
#3 = APPROVAL_ROLE ( '' ) ;
#4 = ORIENTED_EDGE ( 'NONE', *, *, #273, .F. ) ;
#5 = AXIS2_PLACEMENT_3D ( 'NONE', #289, #232, #318 ) ;
#6 = ORIENTED_EDGE ( 'NONE', *, *, #145, .F. ) ;
#7 = ORIENTED_EDGE ( 'NONE', *, *, #111, .F. ) ;
#8 = EDGE_LOOP ( 'NONE', ( #194, #203 ) ) ;
#9 = CIRCLE ( 'NONE', #109, 17.48999999999999844 ) ;
#10 = LOCAL_TIME ( 11, 25, 42.00000000000000000, #285 ) ;
#11 = DIRECTION ( 'NONE',  ( -1.000000000000000000, -3.061616997868389058E-16, -0.000000000000000000 ) ) ;
#12 = PERSON_AND_ORGANIZATION_ROLE ( 'design_owner' ) ;
#13 = DIRECTION ( 'NONE',  ( 1.000000000000000000, 3.061616997868382155E-16, -0.000000000000000000 ) ) ;
#14 = EDGE_CURVE ( 'NONE', #134, #85, #46, .T. ) ;
#15 = APPROVAL_STATUS ( 'not_yet_approved' ) ;
#16 = DIRECTION ( 'NONE',  ( -1.000000000000000000, -3.061616997868389058E-16, -0.000000000000000000 ) ) ;
#17 = DIRECTION ( 'NONE',  ( 3.061616997868382155E-16, -1.000000000000000000, 0.000000000000000000 ) ) ;
#18 =( GEOMETRIC_REPRESENTATION_CONTEXT ( 3 ) GLOBAL_UNCERTAINTY_ASSIGNED_CONTEXT ( ( #169 ) ) GLOBAL_UNIT_ASSIGNED_CONTEXT ( ( #248, #159, #265 ) ) REPRESENTATION_CONTEXT ( 'NONE', 'WORKASPACE' ) );
#19 = ORIENTED_EDGE ( 'NONE', *, *, #114, .T. ) ;
#20 = DIRECTION ( 'NONE',  ( 1.000000000000000000, 3.061616997868382648E-16, -0.000000000000000000 ) ) ;
#21 = CARTESIAN_POINT ( 'NONE',  ( 9.500000000000001776, 4.776122516674676300E-15, 0.000000000000000000 ) ) ;
#22 = DIRECTION ( 'NONE',  ( 1.000000000000000000, 3.061616997868382648E-16, 0.000000000000000000 ) ) ;
#23 = LINE ( 'NONE', #75, #278 ) ;
#24 = CC_DESIGN_APPROVAL ( #88, ( #258 ) ) ;
#25 = ORIENTED_EDGE ( 'NONE', *, *, #199, .T. ) ;
#26 = ORIENTED_EDGE ( 'NONE', *, *, #199, .F. ) ;
#27 = APPROVAL_STATUS ( 'not_yet_approved' ) ;
#28 = ORIENTED_EDGE ( 'NONE', *, *, #330, .T. ) ;
#29 = ORIENTED_EDGE ( 'NONE', *, *, #149, .F. ) ;
#30 = VERTEX_POINT ( 'NONE', #249 ) ;
#31 = LINE ( 'NONE', #92, #230 ) ;
#32 = CALENDAR_DATE ( 2026, 28, 1 ) ;
#33 = CIRCLE ( 'NONE', #290, 16.98999999999999133 ) ;
#34 = AXIS2_PLACEMENT_3D ( 'NONE', #198, #225, #87 ) ;
#35 = DIRECTION ( 'NONE',  ( 0.7071067811865429098, -0.7071067811865522357, 8.659560562354994488E-17 ) ) ;
#36 = PRODUCT ( '3991-35_REV_', '3991-35_REV_', '', ( #279 ) ) ;
#37 = CARTESIAN_POINT ( 'NONE',  ( -9.500000000000005329, -1.040949779275252506E-15, 0.000000000000000000 ) ) ;
#38 = DIRECTION ( 'NONE',  ( 2.975511965654900834E-16, -1.000000000000000000, 0.000000000000000000 ) ) ;
#39 = SHAPE_DEFINITION_REPRESENTATION ( #335, #179 ) ;
#40 = DIRECTION ( 'NONE',  ( -1.000000000000000000, -3.061616997868389058E-16, -0.000000000000000000 ) ) ;
#41 = AXIS2_PLACEMENT_3D ( 'NONE', #187, #142, #295 ) ;
#42 = APPROVAL ( #215, 'UNSPECIFIED' ) ;
#43 = DIRECTION ( 'NONE',  ( 1.000000000000000000, 3.061616997868377718E-16, 0.000000000000000000 ) ) ;
#44 = DIRECTION ( 'NONE',  ( 0.7071067811865424657, 0.7071067811865526798, 0.000000000000000000 ) ) ;
#45 = CARTESIAN_POINT ( 'NONE',  ( 9.500000000000007105, -16.98999999999999133, 0.000000000000000000 ) ) ;
#46 = CIRCLE ( 'NONE', #116, 17.48999999999999844 ) ;
#47 = CIRCLE ( 'NONE', #260, 12.55000000000000071 ) ;
#48 = DIRECTION ( 'NONE',  ( 1.000000000000000000, 3.061616997868382155E-16, -0.000000000000000000 ) ) ;
#49 = FACE_OUTER_BOUND ( 'NONE', #1, .T. ) ;
#50 = CC_DESIGN_DATE_AND_TIME_ASSIGNMENT ( #320, #331, ( #258 ) ) ;
#51 = PERSON_AND_ORGANIZATION ( #163, #184 ) ;
#52 = ORIENTED_EDGE ( 'NONE', *, *, #111, .T. ) ;
#53 = AXIS2_PLACEMENT_3D ( 'NONE', #274, #251, #17 ) ;
#54 = PERSON_AND_ORGANIZATION ( #163, #184 ) ;
#55 = ORIENTED_EDGE ( 'NONE', *, *, #168, .T. ) ;
#56 = APPROVAL_ROLE ( '' ) ;
#57 = EDGE_LOOP ( 'NONE', ( #82, #302 ) ) ;
#58 = EDGE_CURVE ( 'NONE', #192, #245, #191, .T. ) ;
#59 = PRODUCT_DEFINITION_FORMATION_WITH_SPECIFIED_SOURCE ( 'ANY', '', #36, .NOT_KNOWN. ) ;
#60 = ORIENTED_EDGE ( 'NONE', *, *, #149, .T. ) ;
#61 = FACE_BOUND ( 'NONE', #332, .T. ) ;
#62 = CARTESIAN_POINT ( 'NONE',  ( -9.500000000000001776, -7.164183775012018789E-15, 0.000000000000000000 ) ) ;
#63 = ADVANCED_FACE ( 'NONE', ( #172 ), #309, .F. ) ;
#64 = CARTESIAN_POINT ( 'NONE',  ( 9.000000000000001776, -1.500192328955511284E-15, 0.000000000000000000 ) ) ;
#65 = VECTOR ( 'NONE', #48, 1000.000000000000000 ) ;
#66 = CARTESIAN_POINT ( 'NONE',  ( 9.499999999999996447, 16.98999999999999133, 2.111291081730036100E-15 ) ) ;
#67 = CARTESIAN_POINT ( 'NONE',  ( -9.000000000000026645, 17.48999999999999133, 0.000000000000000000 ) ) ;
#68 = DATE_TIME_ROLE ( 'classification_date' ) ;
#69 = CARTESIAN_POINT ( 'NONE',  ( 9.000000000000007105, -17.48999999999999844, 2.141907251708720676E-15 ) ) ;
#70 = PRODUCT_RELATED_PRODUCT_CATEGORY ( 'detail', '', ( #36 ) ) ;
#71 = CARTESIAN_POINT ( 'NONE',  ( -9.500000000000005329, -1.040949779275252506E-15, 0.000000000000000000 ) ) ;
#72 = VECTOR ( 'NONE', #292, 1000.000000000000000 ) ;
#73 = DATE_AND_TIME ( #176, #10 ) ;
#74 = DIRECTION ( 'NONE',  ( 1.000000000000000000, 3.061616997868382155E-16, -0.000000000000000000 ) ) ;
#75 = CARTESIAN_POINT ( 'NONE',  ( -9.499999999999996447, -17.49000000000000554, 2.141907251708720676E-15 ) ) ;
#76 = DIRECTION ( 'NONE',  ( -3.063078533213900616E-16, 1.000000000000000000, 0.000000000000000000 ) ) ;
#77 = AXIS2_PLACEMENT_3D ( 'NONE', #150, #256, #97 ) ;
#78 = CYLINDRICAL_SURFACE ( 'NONE', #110, 17.48999999999999844 ) ;
#79 = FACE_OUTER_BOUND ( 'NONE', #157, .T. ) ;
#80 = EDGE_LOOP ( 'NONE', ( #90, #326, #29, #125 ) ) ;
#81 = DATE_AND_TIME ( #162, #209 ) ;
#82 = ORIENTED_EDGE ( 'NONE', *, *, #104, .T. ) ;
#83 = ORIENTED_EDGE ( 'NONE', *, *, #2, .F. ) ;
#84 = VERTEX_POINT ( 'NONE', #66 ) ;
#85 = VERTEX_POINT ( 'NONE', #69 ) ;
#86 = LOCAL_TIME ( 11, 25, 42.00000000000000000, #211 ) ;
#87 = DIRECTION ( 'NONE',  ( 3.063078533213900616E-16, -1.000000000000000000, 0.000000000000000000 ) ) ;
#88 = APPROVAL ( #27, 'UNSPECIFIED' ) ;
#89 = PERSON_AND_ORGANIZATION_ROLE ( 'creator' ) ;
#90 = ORIENTED_EDGE ( 'NONE', *, *, #294, .F. ) ;
#91 = DIRECTION ( 'NONE',  ( 3.063078533213900616E-16, -1.000000000000000000, 0.000000000000000000 ) ) ;
#92 = CARTESIAN_POINT ( 'NONE',  ( -9.499999999999996447, -16.99000000000001975, 2.080674911751354679E-15 ) ) ;
#93 = CIRCLE ( 'NONE', #206, 16.99000000000001265 ) ;
#94 = CARTESIAN_POINT ( 'NONE',  ( 8.999999999999996447, 17.48999999999999844, 0.000000000000000000 ) ) ;
#95 = DESIGN_CONTEXT ( 'detailed design', #300, 'design' ) ;
#96 = CARTESIAN_POINT ( 'NONE',  ( 9.500000000000001776, 4.776122516674676300E-15, 0.000000000000000000 ) ) ;
#97 = DIRECTION ( 'NONE',  ( 3.061616997868382155E-16, -1.000000000000000000, 0.000000000000000000 ) ) ;
#98 = CARTESIAN_POINT ( 'NONE',  ( 9.500000000000001776, -1.347111479062091757E-15, 0.000000000000000000 ) ) ;
#99 = CC_DESIGN_APPROVAL ( #160, ( #221 ) ) ;
#100 = FACE_OUTER_BOUND ( 'NONE', #167, .T. ) ;
#101 = LINE ( 'NONE', #210, #65 ) ;
#102 = VECTOR ( 'NONE', #126, 1000.000000000000000 ) ;
#103 = PERSON_AND_ORGANIZATION ( #163, #184 ) ;
#104 = EDGE_CURVE ( 'NONE', #268, #84, #33, .T. ) ;
#105 = PERSON_AND_ORGANIZATION ( #163, #184 ) ;
#106 = VERTEX_POINT ( 'NONE', #337 ) ;
#107 = CALENDAR_DATE ( 2026, 28, 1 ) ;
#108 = EDGE_LOOP ( 'NONE', ( #266, #113, #55, #334 ) ) ;
#109 = AXIS2_PLACEMENT_3D ( 'NONE', #303, #281, #306 ) ;
#110 = AXIS2_PLACEMENT_3D ( 'NONE', #186, #263, #261 ) ;
#111 = EDGE_CURVE ( 'NONE', #115, #106, #247, .T. ) ;
#112 = ORIENTED_EDGE ( 'NONE', *, *, #336, .F. ) ;
#113 = ORIENTED_EDGE ( 'NONE', *, *, #104, .F. ) ;
#114 = EDGE_CURVE ( 'NONE', #192, #119, #31, .T. ) ;
#115 = VERTEX_POINT ( 'NONE', #141 ) ;
#116 = AXIS2_PLACEMENT_3D ( 'NONE', #283, #40, #338 ) ;
#117 = DIRECTION ( 'NONE',  ( 1.000000000000000000, 3.061616997868382155E-16, -0.000000000000000000 ) ) ;
#118 = CARTESIAN_POINT ( 'NONE',  ( -9.000000000000015987, -17.49000000000000554, 2.141907251708721070E-15 ) ) ;
#119 = VERTEX_POINT ( 'NONE', #118 ) ;
#120 = APPROVAL_DATE_TIME ( #73, #160 ) ;
#121 = EDGE_CURVE ( 'NONE', #115, #30, #122, .T. ) ;
#122 = CIRCLE ( 'NONE', #316, 12.55000000000000071 ) ;
#123 = LOCAL_TIME ( 11, 25, 42.00000000000000000, #275 ) ;
#124 = DIRECTION ( 'NONE',  ( 1.000000000000000000, 3.061616997868382648E-16, 0.000000000000000000 ) ) ;
#125 = ORIENTED_EDGE ( 'NONE', *, *, #168, .F. ) ;
#126 = DIRECTION ( 'NONE',  ( -0.7071067811865424657, -0.7071067811865526798, 0.000000000000000000 ) ) ;
#127 = ADVANCED_FACE ( 'NONE', ( #227 ), #173, .T. ) ;
#128 = APPROVAL_PERSON_ORGANIZATION ( #51, #88, #3 ) ;
#129 = DIRECTION ( 'NONE',  ( 1.000000000000000000, 3.061616997868382648E-16, -0.000000000000000000 ) ) ;
#130 = PLANE ( 'NONE',  #77 ) ;
#131 = DIRECTION ( 'NONE',  ( -2.764499563309652750E-16, 1.000000000000000000, 0.000000000000000000 ) ) ;
#132 = PERSON_AND_ORGANIZATION ( #163, #184 ) ;
#133 = CIRCLE ( 'NONE', #153, 16.98999999999999133 ) ;
#134 = VERTEX_POINT ( 'NONE', #94 ) ;
#135 = ORIENTED_EDGE ( 'NONE', *, *, #282, .T. ) ;
#136 = CC_DESIGN_PERSON_AND_ORGANIZATION_ASSIGNMENT ( #197, #305, ( #221 ) ) ;
#137 = PERSON_AND_ORGANIZATION_ROLE ( 'design_supplier' ) ;
#138 = VERTEX_POINT ( 'NONE', #67 ) ;
#139 = ORIENTED_EDGE ( 'NONE', *, *, #319, .F. ) ;
#140 = ADVANCED_FACE ( 'NONE', ( #329 ), #216, .T. ) ;
#141 = CARTESIAN_POINT ( 'NONE',  ( -9.500000000000008882, 12.54999999999999893, 0.000000000000000000 ) ) ;
#142 = DIRECTION ( 'NONE',  ( 0.000000000000000000, 0.000000000000000000, 1.000000000000000000 ) ) ;
#143 = CARTESIAN_POINT ( 'NONE',  ( -9.500000000000005329, -1.040949779275252506E-15, 0.000000000000000000 ) ) ;
#144 = DIRECTION ( 'NONE',  ( -2.764499563309652750E-16, 1.000000000000000000, 0.000000000000000000 ) ) ;
#145 = EDGE_CURVE ( 'NONE', #119, #138, #9, .T. ) ;
#146 = FACE_OUTER_BOUND ( 'NONE', #8, .T. ) ;
#147 = CIRCLE ( 'NONE', #252, 17.48999999999999844 ) ;
#148 = CARTESIAN_POINT ( 'NONE',  ( -9.500000000000008882, 12.54999999999999893, 0.000000000000000000 ) ) ;
#149 = EDGE_CURVE ( 'NONE', #85, #134, #147, .T. ) ;
#150 = CARTESIAN_POINT ( 'NONE',  ( 9.500000000000001776, -1.347111479062091757E-15, 0.000000000000000000 ) ) ;
#151 = DATE_AND_TIME ( #32, #123 ) ;
#152 = LINE ( 'NONE', #257, #166 ) ;
#153 = AXIS2_PLACEMENT_3D ( 'NONE', #98, #228, #313 ) ;
#154 = CARTESIAN_POINT ( 'NONE',  ( 9.000000000000007105, -17.48999999999999844, 0.000000000000000000 ) ) ;
#155 = ADVANCED_FACE ( 'NONE', ( #146, #61 ), #170, .T. ) ;
#156 = DIRECTION ( 'NONE',  ( 1.000000000000000000, 3.061616997868377718E-16, 0.000000000000000000 ) ) ;
#157 = EDGE_LOOP ( 'NONE', ( #135, #25, #60, #4 ) ) ;
#158 = APPROVAL_PERSON_ORGANIZATION ( #253, #160, #314 ) ;
#159 =( NAMED_UNIT ( * ) PLANE_ANGLE_UNIT ( ) SI_UNIT ( $, .RADIAN. ) );
#160 = APPROVAL ( #15, 'UNSPECIFIED' ) ;
#161 = ORIENTED_EDGE ( 'NONE', *, *, #14, .T. ) ;
#162 = CALENDAR_DATE ( 2026, 28, 1 ) ;
#163 = PERSON ( 'UNSPECIFIED', 'UNSPECIFIED', 'UNSPECIFIED', ('UNSPECIFIED'), ('UNSPECIFIED'), ('UNSPECIFIED') ) ;
#164 = ORIENTED_EDGE ( 'NONE', *, *, #2, .T. ) ;
#165 = AXIS2_PLACEMENT_3D ( 'NONE', #250, #16, #224 ) ;
#166 = VECTOR ( 'NONE', #129, 1000.000000000000000 ) ;
#167 = EDGE_LOOP ( 'NONE', ( #244, #112, #272, #6 ) ) ;
#168 = EDGE_CURVE ( 'NONE', #268, #85, #288, .T. ) ;
#169 = UNCERTAINTY_MEASURE_WITH_UNIT (LENGTH_MEASURE( 1.000000000000000082E-05 ), #248, 'distance_accuracy_value', 'NONE');
#170 = PLANE ( 'NONE',  #53 ) ;
#171 = CYLINDRICAL_SURFACE ( 'NONE', #243, 17.48999999999999844 ) ;
#172 = FACE_OUTER_BOUND ( 'NONE', #220, .T. ) ;
#173 = CONICAL_SURFACE ( 'NONE', #165, 17.48999999999999844, 0.7853981633974552734 ) ;
#174 = CARTESIAN_POINT ( 'NONE',  ( -9.500000000000001776, -7.164183775012018789E-15, 0.000000000000000000 ) ) ;
#175 = DIRECTION ( 'NONE',  ( -1.000000000000000000, -3.061616997868389058E-16, -0.000000000000000000 ) ) ;
#176 = CALENDAR_DATE ( 2026, 28, 1 ) ;
#177 = DIRECTION ( 'NONE',  ( -2.764499563309652750E-16, 1.000000000000000000, 0.000000000000000000 ) ) ;
#178 = ADVANCED_FACE ( 'NONE', ( #100 ), #347, .T. ) ;
#179 = ADVANCED_BREP_SHAPE_REPRESENTATION ( '3991-35_REV_', ( #341, #41 ), #18 ) ;
#180 = VECTOR ( 'NONE', #44, 1000.000000000000000 ) ;
#181 = LINE ( 'NONE', #182, #180 ) ;
#182 = CARTESIAN_POINT ( 'NONE',  ( -9.500000000000007105, 16.99000000000000554, 0.000000000000000000 ) ) ;
#183 = CYLINDRICAL_SURFACE ( 'NONE', #317, 12.55000000000000071 ) ;
#184 = ORGANIZATION ( 'UNSPECIFIED', 'UNSPECIFIED', '' ) ;
#185 = CARTESIAN_POINT ( 'NONE',  ( 8.999999999999996447, 17.48999999999999844, 2.141907251708720676E-15 ) ) ;
#186 = CARTESIAN_POINT ( 'NONE',  ( -9.500000000000001776, -7.164183775012018789E-15, 0.000000000000000000 ) ) ;
#187 = CARTESIAN_POINT ( 'NONE',  ( 0.000000000000000000, 0.000000000000000000, 0.000000000000000000 ) ) ;
#188 = ORIENTED_EDGE ( 'NONE', *, *, #121, .T. ) ;
#189 = ADVANCED_FACE ( 'NONE', ( #262 ), #78, .T. ) ;
#190 = APPROVAL_DATE_TIME ( #81, #42 ) ;
#191 = CIRCLE ( 'NONE', #34, 16.99000000000001265 ) ;
#192 = VERTEX_POINT ( 'NONE', #229 ) ;
#193 = ORIENTED_EDGE ( 'NONE', *, *, #330, .F. ) ;
#194 = ORIENTED_EDGE ( 'NONE', *, *, #336, .T. ) ;
#195 = ADVANCED_FACE ( 'NONE', ( #234 ), #236, .T. ) ;
#196 = CARTESIAN_POINT ( 'NONE',  ( 9.000000000000001776, -1.500192328955511284E-15, 0.000000000000000000 ) ) ;
#197 = PERSON_AND_ORGANIZATION ( #163, #184 ) ;
#198 = CARTESIAN_POINT ( 'NONE',  ( -9.500000000000001776, -7.164183775012018789E-15, 0.000000000000000000 ) ) ;
#199 = EDGE_CURVE ( 'NONE', #119, #85, #23, .T. ) ;
#200 = CARTESIAN_POINT ( 'NONE',  ( 9.500000000000001776, -1.347111479062091757E-15, 0.000000000000000000 ) ) ;
#201 = AXIS2_PLACEMENT_3D ( 'NONE', #293, #156, #342 ) ;
#202 = DIRECTION ( 'NONE',  ( -2.764499563309652750E-16, 1.000000000000000000, 0.000000000000000000 ) ) ;
#203 = ORIENTED_EDGE ( 'NONE', *, *, #58, .T. ) ;
#204 = CARTESIAN_POINT ( 'NONE',  ( -9.500000000000005329, -1.040949779275252506E-15, 0.000000000000000000 ) ) ;
#205 = ADVANCED_FACE ( 'NONE', ( #208, #315 ), #130, .F. ) ;
#206 = AXIS2_PLACEMENT_3D ( 'NONE', #62, #267, #91 ) ;
#207 = CARTESIAN_POINT ( 'NONE',  ( -9.500000000000007105, 16.99000000000000554, 0.000000000000000000 ) ) ;
#208 = FACE_OUTER_BOUND ( 'NONE', #57, .T. ) ;
#209 = LOCAL_TIME ( 11, 25, 42.00000000000000000, #213 ) ;
#210 = CARTESIAN_POINT ( 'NONE',  ( -9.500000000000007105, 17.48999999999999133, 0.000000000000000000 ) ) ;
#211 = COORDINATED_UNIVERSAL_TIME_OFFSET ( 10, 0, .AHEAD. ) ;
#212 = ADVANCED_FACE ( 'NONE', ( #49 ), #183, .F. ) ;
#213 = COORDINATED_UNIVERSAL_TIME_OFFSET ( 10, 0, .AHEAD. ) ;
#214 = EDGE_LOOP ( 'NONE', ( #26, #241, #246, #161 ) ) ;
#215 = APPROVAL_STATUS ( 'not_yet_approved' ) ;
#216 = CONICAL_SURFACE ( 'NONE', #259, 17.48999999999999844, 0.7853981633974552734 ) ;
#217 = CIRCLE ( 'NONE', #201, 17.48999999999999844 ) ;
#218 = ORIENTED_EDGE ( 'NONE', *, *, #322, .F. ) ;
#219 = EDGE_LOOP ( 'NONE', ( #222, #19, #239, #218 ) ) ;
#220 = EDGE_LOOP ( 'NONE', ( #193, #327, #52, #164 ) ) ;
#221 = SECURITY_CLASSIFICATION ( '', '', #242 ) ;
#222 = ORIENTED_EDGE ( 'NONE', *, *, #58, .F. ) ;
#223 = CALENDAR_DATE ( 2026, 28, 1 ) ;
#224 = DIRECTION ( 'NONE',  ( 2.975511965654900834E-16, -1.000000000000000000, 0.000000000000000000 ) ) ;
#225 = DIRECTION ( 'NONE',  ( -1.000000000000000000, -3.061616997868382155E-16, 0.000000000000000000 ) ) ;
#226 = AXIS2_PLACEMENT_3D ( 'NONE', #286, #43, #76 ) ;
#227 = FACE_OUTER_BOUND ( 'NONE', #80, .T. ) ;
#228 = DIRECTION ( 'NONE',  ( 1.000000000000000000, 3.061616997868382155E-16, -0.000000000000000000 ) ) ;
#229 = CARTESIAN_POINT ( 'NONE',  ( -9.499999999999996447, -16.99000000000001975, 2.111291081730037678E-15 ) ) ;
#230 = VECTOR ( 'NONE', #35, 1000.000000000000000 ) ;
#231 = VECTOR ( 'NONE', #280, 1000.000000000000000 ) ;
#232 = DIRECTION ( 'NONE',  ( 1.000000000000000000, 3.061616997868377718E-16, 0.000000000000000000 ) ) ;
#233 = CC_DESIGN_PERSON_AND_ORGANIZATION_ASSIGNMENT ( #103, #349, ( #258 ) ) ;
#234 = FACE_OUTER_BOUND ( 'NONE', #219, .T. ) ;
#235 = CARTESIAN_POINT ( 'NONE',  ( 9.500000000000005329, -12.54999999999999538, 1.536931732929928397E-15 ) ) ;
#236 = CONICAL_SURFACE ( 'NONE', #226, 16.99000000000001265, 0.7853981633974552734 ) ;
#237 = CC_DESIGN_PERSON_AND_ORGANIZATION_ASSIGNMENT ( #325, #137, ( #59 ) ) ;
#238 = COORDINATED_UNIVERSAL_TIME_OFFSET ( 10, 0, .AHEAD. ) ;
#239 = ORIENTED_EDGE ( 'NONE', *, *, #282, .F. ) ;
#240 = APPLICATION_PROTOCOL_DEFINITION ( 'international standard', 'config_control_design', 1994, #300 ) ;
#241 = ORIENTED_EDGE ( 'NONE', *, *, #145, .T. ) ;
#242 = SECURITY_CLASSIFICATION_LEVEL ( 'unclassified' ) ;
#243 = AXIS2_PLACEMENT_3D ( 'NONE', #174, #117, #297 ) ;
#244 = ORIENTED_EDGE ( 'NONE', *, *, #114, .F. ) ;
#245 = VERTEX_POINT ( 'NONE', #207 ) ;
#246 = ORIENTED_EDGE ( 'NONE', *, *, #273, .T. ) ;
#247 = LINE ( 'NONE', #148, #231 ) ;
#248 =( LENGTH_UNIT ( ) NAMED_UNIT ( * ) SI_UNIT ( .MILLI., .METRE. ) );
#249 = CARTESIAN_POINT ( 'NONE',  ( -9.500000000000001776, -12.55000000000000249, 1.536931732929928791E-15 ) ) ;
#250 = CARTESIAN_POINT ( 'NONE',  ( 9.000000000000001776, -1.500192328955511284E-15, 0.000000000000000000 ) ) ;
#251 = DIRECTION ( 'NONE',  ( -1.000000000000000000, -3.061616997868382155E-16, 0.000000000000000000 ) ) ;
#252 = AXIS2_PLACEMENT_3D ( 'NONE', #64, #11, #38 ) ;
#253 = PERSON_AND_ORGANIZATION ( #163, #184 ) ;
#254 = EDGE_CURVE ( 'NONE', #84, #134, #346, .T. ) ;
#255 = DIRECTION ( 'NONE',  ( 1.000000000000000000, 3.061616997868382648E-16, 0.000000000000000000 ) ) ;
#256 = DIRECTION ( 'NONE',  ( -1.000000000000000000, -3.061616997868382155E-16, 0.000000000000000000 ) ) ;
#257 = CARTESIAN_POINT ( 'NONE',  ( -9.500000000000001776, -12.55000000000000249, 1.536931732929928397E-15 ) ) ;
#258 = PRODUCT_DEFINITION ( 'UNKNOWN', '', #59, #95 ) ;
#259 = AXIS2_PLACEMENT_3D ( 'NONE', #196, #175, #310 ) ;
#260 = AXIS2_PLACEMENT_3D ( 'NONE', #71, #22, #339 ) ;
#261 = DIRECTION ( 'NONE',  ( -2.975511965654900834E-16, 1.000000000000000000, 0.000000000000000000 ) ) ;
#262 = FACE_OUTER_BOUND ( 'NONE', #214, .T. ) ;
#263 = DIRECTION ( 'NONE',  ( 1.000000000000000000, 3.061616997868382155E-16, -0.000000000000000000 ) ) ;
#264 = CC_DESIGN_PERSON_AND_ORGANIZATION_ASSIGNMENT ( #132, #12, ( #36 ) ) ;
#265 =( NAMED_UNIT ( * ) SI_UNIT ( $, .STERADIAN. ) SOLID_ANGLE_UNIT ( ) );
#266 = ORIENTED_EDGE ( 'NONE', *, *, #254, .F. ) ;
#267 = DIRECTION ( 'NONE',  ( -1.000000000000000000, -3.061616997868382155E-16, 0.000000000000000000 ) ) ;
#268 = VERTEX_POINT ( 'NONE', #45 ) ;
#269 = VERTEX_POINT ( 'NONE', #235 ) ;
#270 = CIRCLE ( 'NONE', #343, 12.55000000000000071 ) ;
#271 = LOCAL_TIME ( 11, 25, 42.00000000000000000, #238 ) ;
#272 = ORIENTED_EDGE ( 'NONE', *, *, #322, .T. ) ;
#273 = EDGE_CURVE ( 'NONE', #138, #134, #101, .T. ) ;
#274 = CARTESIAN_POINT ( 'NONE',  ( -9.500000000000001776, -7.164183775012018789E-15, 0.000000000000000000 ) ) ;
#275 = COORDINATED_UNIVERSAL_TIME_OFFSET ( 10, 0, .AHEAD. ) ;
#276 = DIRECTION ( 'NONE',  ( 3.063078533213904561E-16, -1.000000000000000000, 0.000000000000000000 ) ) ;
#277 = CC_DESIGN_APPROVAL ( #42, ( #59 ) ) ;
#278 = VECTOR ( 'NONE', #74, 1000.000000000000000 ) ;
#279 = MECHANICAL_CONTEXT ( 'NONE', #304, 'mechanical' ) ;
#280 = DIRECTION ( 'NONE',  ( 1.000000000000000000, 3.061616997868382648E-16, -0.000000000000000000 ) ) ;
#281 = DIRECTION ( 'NONE',  ( 1.000000000000000000, 3.061616997868377718E-16, 0.000000000000000000 ) ) ;
#282 = EDGE_CURVE ( 'NONE', #138, #119, #217, .T. ) ;
#283 = CARTESIAN_POINT ( 'NONE',  ( 9.000000000000001776, -1.500192328955511284E-15, 0.000000000000000000 ) ) ;
#284 = APPROVAL_PERSON_ORGANIZATION ( #105, #42, #56 ) ;
#285 = COORDINATED_UNIVERSAL_TIME_OFFSET ( 10, 0, .AHEAD. ) ;
#286 = CARTESIAN_POINT ( 'NONE',  ( -9.500000000000001776, -7.164183775012018789E-15, 0.000000000000000000 ) ) ;
#287 = CC_DESIGN_PERSON_AND_ORGANIZATION_ASSIGNMENT ( #54, #89, ( #59 ) ) ;
#288 = LINE ( 'NONE', #154, #102 ) ;
#289 = CARTESIAN_POINT ( 'NONE',  ( -9.500000000000001776, -7.164183775012018789E-15, 0.000000000000000000 ) ) ;
#290 = AXIS2_PLACEMENT_3D ( 'NONE', #200, #13, #276 ) ;
#291 = AXIS2_PLACEMENT_3D ( 'NONE', #21, #344, #311 ) ;
#292 = DIRECTION ( 'NONE',  ( -0.7071067811865429098, 0.7071067811865522357, 8.659560562354994488E-17 ) ) ;
#293 = CARTESIAN_POINT ( 'NONE',  ( -9.000000000000021316, -7.011102925118606164E-15, 0.000000000000000000 ) ) ;
#294 = EDGE_CURVE ( 'NONE', #84, #268, #133, .T. ) ;
#295 = DIRECTION ( 'NONE',  ( 1.000000000000000000, 0.000000000000000000, 0.000000000000000000 ) ) ;
#296 = ORIENTED_EDGE ( 'NONE', *, *, #319, .T. ) ;
#297 = DIRECTION ( 'NONE',  ( -2.975511965654900834E-16, 1.000000000000000000, 0.000000000000000000 ) ) ;
#298 = EDGE_LOOP ( 'NONE', ( #83, #328 ) ) ;
#299 = EDGE_CURVE ( 'NONE', #269, #106, #312, .T. ) ;
#300 = APPLICATION_CONTEXT ( 'configuration controlled 3d designs of mechanical parts and assemblies' ) ;
#301 = ORIENTED_EDGE ( 'NONE', *, *, #299, .T. ) ;
#302 = ORIENTED_EDGE ( 'NONE', *, *, #294, .T. ) ;
#303 = CARTESIAN_POINT ( 'NONE',  ( -9.000000000000021316, -7.011102925118606164E-15, 0.000000000000000000 ) ) ;
#304 = APPLICATION_CONTEXT ( 'configuration controlled 3d designs of mechanical parts and assemblies' ) ;
#305 = PERSON_AND_ORGANIZATION_ROLE ( 'classification_officer' ) ;
#306 = DIRECTION ( 'NONE',  ( 2.975511965654900834E-16, -1.000000000000000000, 0.000000000000000000 ) ) ;
#307 = AXIS2_PLACEMENT_3D ( 'NONE', #143, #308, #177 ) ;
#308 = DIRECTION ( 'NONE',  ( 1.000000000000000000, 3.061616997868382648E-16, -0.000000000000000000 ) ) ;
#309 = CYLINDRICAL_SURFACE ( 'NONE', #307, 12.55000000000000071 ) ;
#310 = DIRECTION ( 'NONE',  ( 2.975511965654900834E-16, -1.000000000000000000, 0.000000000000000000 ) ) ;
#311 = DIRECTION ( 'NONE',  ( -2.764499563309652750E-16, 1.000000000000000000, 0.000000000000000000 ) ) ;
#312 = CIRCLE ( 'NONE', #291, 12.55000000000000071 ) ;
#313 = DIRECTION ( 'NONE',  ( 3.063078533213904561E-16, -1.000000000000000000, 0.000000000000000000 ) ) ;
#314 = APPROVAL_ROLE ( '' ) ;
#315 = FACE_BOUND ( 'NONE', #298, .T. ) ;
#316 = AXIS2_PLACEMENT_3D ( 'NONE', #37, #255, #144 ) ;
#317 = AXIS2_PLACEMENT_3D ( 'NONE', #204, #20, #131 ) ;
#318 = DIRECTION ( 'NONE',  ( -3.063078533213900616E-16, 1.000000000000000000, 0.000000000000000000 ) ) ;
#319 = EDGE_CURVE ( 'NONE', #30, #115, #47, .T. ) ;
#320 = DATE_AND_TIME ( #107, #86 ) ;
#321 = APPROVAL_DATE_TIME ( #333, #88 ) ;
#322 = EDGE_CURVE ( 'NONE', #245, #138, #181, .T. ) ;
#323 = CLOSED_SHELL ( 'NONE', ( #127, #195, #212, #345, #189, #155, #205, #63, #178, #140 ) ) ;
#324 = CC_DESIGN_SECURITY_CLASSIFICATION ( #221, ( #59 ) ) ;
#325 = PERSON_AND_ORGANIZATION ( #163, #184 ) ;
#326 = ORIENTED_EDGE ( 'NONE', *, *, #254, .T. ) ;
#327 = ORIENTED_EDGE ( 'NONE', *, *, #121, .F. ) ;
#328 = ORIENTED_EDGE ( 'NONE', *, *, #299, .F. ) ;
#329 = FACE_OUTER_BOUND ( 'NONE', #108, .T. ) ;
#330 = EDGE_CURVE ( 'NONE', #30, #269, #152, .T. ) ;
#331 = DATE_TIME_ROLE ( 'creation_date' ) ;
#332 = EDGE_LOOP ( 'NONE', ( #188, #296 ) ) ;
#333 = DATE_AND_TIME ( #223, #271 ) ;
#334 = ORIENTED_EDGE ( 'NONE', *, *, #14, .F. ) ;
#335 = PRODUCT_DEFINITION_SHAPE ( 'NONE', 'NONE',  #258 ) ;
#336 = EDGE_CURVE ( 'NONE', #245, #192, #93, .T. ) ;
#337 = CARTESIAN_POINT ( 'NONE',  ( 9.499999999999998224, 12.55000000000000604, 0.000000000000000000 ) ) ;
#338 = DIRECTION ( 'NONE',  ( 2.975511965654900834E-16, -1.000000000000000000, 0.000000000000000000 ) ) ;
#339 = DIRECTION ( 'NONE',  ( -2.764499563309652750E-16, 1.000000000000000000, 0.000000000000000000 ) ) ;
#340 = CC_DESIGN_DATE_AND_TIME_ASSIGNMENT ( #151, #68, ( #221 ) ) ;
#341 = MANIFOLD_SOLID_BREP ( 'Chamfer1', #323 ) ;
#342 = DIRECTION ( 'NONE',  ( 2.975511965654900834E-16, -1.000000000000000000, 0.000000000000000000 ) ) ;
#343 = AXIS2_PLACEMENT_3D ( 'NONE', #96, #124, #202 ) ;
#344 = DIRECTION ( 'NONE',  ( 1.000000000000000000, 3.061616997868382648E-16, 0.000000000000000000 ) ) ;
#345 = ADVANCED_FACE ( 'NONE', ( #79 ), #171, .T. ) ;
#346 = LINE ( 'NONE', #185, #72 ) ;
#347 = CONICAL_SURFACE ( 'NONE', #5, 16.99000000000001265, 0.7853981633974552734 ) ;
#348 = APPLICATION_PROTOCOL_DEFINITION ( 'international standard', 'config_control_design', 1994, #304 ) ;
#349 = PERSON_AND_ORGANIZATION_ROLE ( 'creator' ) ;
ENDSEC;
END-ISO-10303-21;
