ISO-10303-21;
HEADER;
FILE_DESCRIPTION (( 'STEP AP203' ),
    '1' );
FILE_NAME ('3991-35_REV_A.step',
    '2026-01-28T00:22:34',
    ( '' ),
    ( '' ),
    'SwSTEP 2.0',
    'SolidWorks 2025',
    '' );
FILE_SCHEMA (( 'CONFIG_CONTROL_DESIGN' ));
ENDSEC;

DATA;
#1 = VECTOR ( 'NONE', #50, 1000.000000000000000 ) ;
#2 = EDGE_LOOP ( 'NONE', ( #237, #136 ) ) ;
#3 = DIRECTION ( 'NONE',  ( 1.000000000000000000, 3.061616997868382155E-16, -0.000000000000000000 ) ) ;
#4 = ORIENTED_EDGE ( 'NONE', *, *, #212, .T. ) ;
#5 = CYLINDRICAL_SURFACE ( 'NONE', #78, 17.48999999999999844 ) ;
#6 = FACE_OUTER_BOUND ( 'NONE', #72, .T. ) ;
#7 = VERTEX_POINT ( 'NONE', #85 ) ;
#8 = CARTESIAN_POINT ( 'NONE',  ( -9.500000000000001776, -7.164183775012018789E-15, 0.000000000000000000 ) ) ;
#9 = CIRCLE ( 'NONE', #210, 16.98999999999999133 ) ;
#10 = DIRECTION ( 'NONE',  ( 3.061616997868382155E-16, -1.000000000000000000, 0.000000000000000000 ) ) ;
#11 = CC_DESIGN_PERSON_AND_ORGANIZATION_ASSIGNMENT ( #287, #77, ( #263 ) ) ;
#12 = ORIENTED_EDGE ( 'NONE', *, *, #192, .T. ) ;
#13 = FACE_BOUND ( 'NONE', #342, .T. ) ;
#14 = CARTESIAN_POINT ( 'NONE',  ( 0.000000000000000000, 0.000000000000000000, 0.000000000000000000 ) ) ;
#15 = CIRCLE ( 'NONE', #95, 17.48999999999999844 ) ;
#16 = CARTESIAN_POINT ( 'NONE',  ( 9.000000000000007105, -17.48999999999999844, 0.000000000000000000 ) ) ;
#17 = DIRECTION ( 'NONE',  ( -1.000000000000000000, -3.061616997868389058E-16, -0.000000000000000000 ) ) ;
#18 = DIRECTION ( 'NONE',  ( -2.764499563309652750E-16, 1.000000000000000000, 0.000000000000000000 ) ) ;
#19 = DATE_AND_TIME ( #284, #331 ) ;
#20 = SECURITY_CLASSIFICATION ( '', '', #343 ) ;
#21 = CALENDAR_DATE ( 2026, 28, 1 ) ;
#22 = PRODUCT_DEFINITION_SHAPE ( 'NONE', 'NONE',  #99 ) ;
#23 = AXIS2_PLACEMENT_3D ( 'NONE', #303, #231, #305 ) ;
#24 = LOCAL_TIME ( 11, 22, 34.00000000000000000, #96 ) ;
#25 = ORIENTED_EDGE ( 'NONE', *, *, #35, .F. ) ;
#26 = COORDINATED_UNIVERSAL_TIME_OFFSET ( 10, 0, .AHEAD. ) ;
#27 = EDGE_LOOP ( 'NONE', ( #242, #188 ) ) ;
#28 = ORIENTED_EDGE ( 'NONE', *, *, #292, .T. ) ;
#29 = LINE ( 'NONE', #133, #41 ) ;
#30 = AXIS2_PLACEMENT_3D ( 'NONE', #93, #151, #107 ) ;
#31 = ORIENTED_EDGE ( 'NONE', *, *, #282, .T. ) ;
#32 = DIRECTION ( 'NONE',  ( -2.764499563309652750E-16, 1.000000000000000000, 0.000000000000000000 ) ) ;
#33 = ORIENTED_EDGE ( 'NONE', *, *, #346, .T. ) ;
#34 = CARTESIAN_POINT ( 'NONE',  ( -9.500000000000008882, 12.54999999999999893, 0.000000000000000000 ) ) ;
#35 = EDGE_CURVE ( 'NONE', #299, #264, #15, .T. ) ;
#36 = PLANE ( 'NONE',  #142 ) ;
#37 = ORIENTED_EDGE ( 'NONE', *, *, #137, .F. ) ;
#38 = AXIS2_PLACEMENT_3D ( 'NONE', #92, #271, #248 ) ;
#39 = DIRECTION ( 'NONE',  ( 2.975511965654900834E-16, -1.000000000000000000, 0.000000000000000000 ) ) ;
#40 = CARTESIAN_POINT ( 'NONE',  ( -9.500000000000001776, -12.55000000000000249, 1.536931732929928791E-15 ) ) ;
#41 = VECTOR ( 'NONE', #3, 1000.000000000000000 ) ;
#42 = DIRECTION ( 'NONE',  ( 2.975511965654900834E-16, -1.000000000000000000, 0.000000000000000000 ) ) ;
#43 = DIRECTION ( 'NONE',  ( 1.000000000000000000, 3.061616997868377718E-16, 0.000000000000000000 ) ) ;
#44 = COORDINATED_UNIVERSAL_TIME_OFFSET ( 10, 0, .AHEAD. ) ;
#45 = EDGE_CURVE ( 'NONE', #182, #7, #171, .T. ) ;
#46 = DESIGN_CONTEXT ( 'detailed design', #327, 'design' ) ;
#47 = APPROVAL_STATUS ( 'not_yet_approved' ) ;
#48 = ORIENTED_EDGE ( 'NONE', *, *, #267, .T. ) ;
#49 = APPROVAL_DATE_TIME ( #127, #285 ) ;
#50 = DIRECTION ( 'NONE',  ( 1.000000000000000000, 3.061616997868382648E-16, -0.000000000000000000 ) ) ;
#51 = ORIENTED_EDGE ( 'NONE', *, *, #150, .F. ) ;
#52 = APPROVAL_STATUS ( 'not_yet_approved' ) ;
#53 = VECTOR ( 'NONE', #301, 1000.000000000000000 ) ;
#54 = ORIENTED_EDGE ( 'NONE', *, *, #267, .F. ) ;
#55 = EDGE_CURVE ( 'NONE', #7, #264, #332, .T. ) ;
#56 = FACE_BOUND ( 'NONE', #2, .T. ) ;
#57 = DIRECTION ( 'NONE',  ( 1.000000000000000000, 3.061616997868377718E-16, 0.000000000000000000 ) ) ;
#58 = AXIS2_PLACEMENT_3D ( 'NONE', #146, #108, #202 ) ;
#59 = CARTESIAN_POINT ( 'NONE',  ( -9.000000000000026645, 17.48999999999999133, 0.000000000000000000 ) ) ;
#60 = CYLINDRICAL_SURFACE ( 'NONE', #220, 17.48999999999999844 ) ;
#61 = ORIENTED_EDGE ( 'NONE', *, *, #212, .F. ) ;
#62 = EDGE_CURVE ( 'NONE', #103, #173, #291, .T. ) ;
#63 = FACE_OUTER_BOUND ( 'NONE', #259, .T. ) ;
#64 = EDGE_LOOP ( 'NONE', ( #122, #33, #119, #154 ) ) ;
#65 = AXIS2_PLACEMENT_3D ( 'NONE', #147, #181, #39 ) ;
#66 = DIRECTION ( 'NONE',  ( -1.000000000000000000, -3.061616997868382155E-16, 0.000000000000000000 ) ) ;
#67 = CARTESIAN_POINT ( 'NONE',  ( 9.500000000000001776, 4.776122516674676300E-15, 0.000000000000000000 ) ) ;
#68 = CARTESIAN_POINT ( 'NONE',  ( 9.000000000000001776, -1.500192328955511284E-15, 0.000000000000000000 ) ) ;
#69 = EDGE_CURVE ( 'NONE', #103, #209, #206, .T. ) ;
#70 = DIRECTION ( 'NONE',  ( 2.975511965654900834E-16, -1.000000000000000000, 0.000000000000000000 ) ) ;
#71 = SHAPE_DEFINITION_REPRESENTATION ( #22, #296 ) ;
#72 = EDGE_LOOP ( 'NONE', ( #82, #12, #279, #37 ) ) ;
#73 = VECTOR ( 'NONE', #349, 1000.000000000000000 ) ;
#74 = ORIENTED_EDGE ( 'NONE', *, *, #257, .T. ) ;
#75 = PERSON_AND_ORGANIZATION_ROLE ( 'design_supplier' ) ;
#76 = ORIENTED_EDGE ( 'NONE', *, *, #55, .F. ) ;
#77 = PERSON_AND_ORGANIZATION_ROLE ( 'design_owner' ) ;
#78 = AXIS2_PLACEMENT_3D ( 'NONE', #8, #102, #218 ) ;
#79 = LOCAL_TIME ( 11, 22, 34.00000000000000000, #97 ) ;
#80 = CYLINDRICAL_SURFACE ( 'NONE', #286, 12.55000000000000071 ) ;
#81 = CARTESIAN_POINT ( 'NONE',  ( -9.500000000000001776, -7.164183775012018789E-15, 0.000000000000000000 ) ) ;
#82 = ORIENTED_EDGE ( 'NONE', *, *, #334, .T. ) ;
#83 = DIRECTION ( 'NONE',  ( -2.764499563309652750E-16, 1.000000000000000000, 0.000000000000000000 ) ) ;
#84 = CIRCLE ( 'NONE', #281, 17.48999999999999844 ) ;
#85 = CARTESIAN_POINT ( 'NONE',  ( 9.500000000000007105, -16.98999999999999133, 0.000000000000000000 ) ) ;
#86 = FACE_OUTER_BOUND ( 'NONE', #223, .T. ) ;
#87 = CARTESIAN_POINT ( 'NONE',  ( 9.500000000000005329, -12.54999999999999538, 1.536931732929928397E-15 ) ) ;
#88 = CIRCLE ( 'NONE', #319, 12.55000000000000071 ) ;
#89 = FACE_OUTER_BOUND ( 'NONE', #266, .T. ) ;
#90 = FACE_OUTER_BOUND ( 'NONE', #224, .T. ) ;
#91 = DIRECTION ( 'NONE',  ( 0.7071067811865429098, -0.7071067811865522357, 8.659560562354994488E-17 ) ) ;
#92 = CARTESIAN_POINT ( 'NONE',  ( -9.500000000000005329, -1.040949779275252506E-15, 0.000000000000000000 ) ) ;
#93 = CARTESIAN_POINT ( 'NONE',  ( -9.500000000000005329, -1.040949779275252506E-15, 0.000000000000000000 ) ) ;
#94 = DATE_TIME_ROLE ( 'creation_date' ) ;
#95 = AXIS2_PLACEMENT_3D ( 'NONE', #194, #294, #70 ) ;
#96 = COORDINATED_UNIVERSAL_TIME_OFFSET ( 10, 0, .AHEAD. ) ;
#97 = COORDINATED_UNIVERSAL_TIME_OFFSET ( 10, 0, .AHEAD. ) ;
#98 = PERSON_AND_ORGANIZATION_ROLE ( 'creator' ) ;
#99 = PRODUCT_DEFINITION ( 'UNKNOWN', '', #229, #46 ) ;
#100 = CARTESIAN_POINT ( 'NONE',  ( 9.499999999999998224, 12.55000000000000604, 0.000000000000000000 ) ) ;
#101 = CARTESIAN_POINT ( 'NONE',  ( -9.500000000000001776, -7.164183775012018789E-15, 0.000000000000000000 ) ) ;
#102 = DIRECTION ( 'NONE',  ( 1.000000000000000000, 3.061616997868382155E-16, -0.000000000000000000 ) ) ;
#103 = VERTEX_POINT ( 'NONE', #174 ) ;
#104 = DIRECTION ( 'NONE',  ( 1.000000000000000000, 3.061616997868377718E-16, 0.000000000000000000 ) ) ;
#105 = CC_DESIGN_DATE_AND_TIME_ASSIGNMENT ( #19, #260, ( #20 ) ) ;
#106 = ORIENTED_EDGE ( 'NONE', *, *, #114, .T. ) ;
#107 = DIRECTION ( 'NONE',  ( -2.764499563309652750E-16, 1.000000000000000000, 0.000000000000000000 ) ) ;
#108 = DIRECTION ( 'NONE',  ( 1.000000000000000000, 3.061616997868382155E-16, -0.000000000000000000 ) ) ;
#109 = CLOSED_SHELL ( 'NONE', ( #317, #169, #323, #128, #201, #250, #158, #186, #197, #234 ) ) ;
#110 = AXIS2_PLACEMENT_3D ( 'NONE', #101, #57, #138 ) ;
#111 = LINE ( 'NONE', #113, #254 ) ;
#112 = DIRECTION ( 'NONE',  ( 1.000000000000000000, 3.061616997868382155E-16, -0.000000000000000000 ) ) ;
#113 = CARTESIAN_POINT ( 'NONE',  ( -9.499999999999996447, -16.99000000000001975, 2.080674911751354679E-15 ) ) ;
#114 = EDGE_CURVE ( 'NONE', #269, #261, #288, .T. ) ;
#115 = FACE_OUTER_BOUND ( 'NONE', #27, .T. ) ;
#116 = APPLICATION_CONTEXT ( 'configuration controlled 3d designs of mechanical parts and assemblies' ) ;
#117 = AXIS2_PLACEMENT_3D ( 'NONE', #219, #298, #326 ) ;
#118 = EDGE_CURVE ( 'NONE', #269, #340, #124, .T. ) ;
#119 = ORIENTED_EDGE ( 'NONE', *, *, #334, .F. ) ;
#120 = APPROVAL_ROLE ( '' ) ;
#121 = COORDINATED_UNIVERSAL_TIME_OFFSET ( 10, 0, .AHEAD. ) ;
#122 = ORIENTED_EDGE ( 'NONE', *, *, #221, .F. ) ;
#123 = APPROVAL_DATE_TIME ( #159, #338 ) ;
#124 = CIRCLE ( 'NONE', #38, 12.55000000000000071 ) ;
#125 = DIRECTION ( 'NONE',  ( -2.975511965654900834E-16, 1.000000000000000000, 0.000000000000000000 ) ) ;
#126 = ORIENTED_EDGE ( 'NONE', *, *, #192, .F. ) ;
#127 = DATE_AND_TIME ( #345, #312 ) ;
#128 = ADVANCED_FACE ( 'NONE', ( #6 ), #60, .T. ) ;
#129 = CARTESIAN_POINT ( 'NONE',  ( -9.500000000000001776, -7.164183775012018789E-15, 0.000000000000000000 ) ) ;
#130 = ORIENTED_EDGE ( 'NONE', *, *, #118, .T. ) ;
#131 = DIRECTION ( 'NONE',  ( -1.000000000000000000, -3.061616997868389058E-16, -0.000000000000000000 ) ) ;
#132 = ORIENTED_EDGE ( 'NONE', *, *, #45, .T. ) ;
#133 = CARTESIAN_POINT ( 'NONE',  ( -9.499999999999996447, -17.49000000000000554, 2.141907251708720676E-15 ) ) ;
#134 = AXIS2_PLACEMENT_3D ( 'NONE', #67, #148, #18 ) ;
#135 = APPROVAL_PERSON_ORGANIZATION ( #213, #338, #341 ) ;
#136 = ORIENTED_EDGE ( 'NONE', *, *, #292, .F. ) ;
#137 = EDGE_CURVE ( 'NONE', #209, #299, #225, .T. ) ;
#138 = DIRECTION ( 'NONE',  ( -3.063078533213900616E-16, 1.000000000000000000, 0.000000000000000000 ) ) ;
#139 = DIRECTION ( 'NONE',  ( 1.000000000000000000, 3.061616997868382648E-16, -0.000000000000000000 ) ) ;
#140 = ORIENTED_EDGE ( 'NONE', *, *, #69, .T. ) ;
#141 = CIRCLE ( 'NONE', #270, 17.48999999999999844 ) ;
#142 = AXIS2_PLACEMENT_3D ( 'NONE', #170, #297, #10 ) ;
#143 = APPROVAL_PERSON_ORGANIZATION ( #241, #285, #289 ) ;
#144 = DIRECTION ( 'NONE',  ( 2.975511965654900834E-16, -1.000000000000000000, 0.000000000000000000 ) ) ;
#145 = CC_DESIGN_PERSON_AND_ORGANIZATION_ASSIGNMENT ( #211, #215, ( #229 ) ) ;
#146 = CARTESIAN_POINT ( 'NONE',  ( 9.500000000000001776, -1.347111479062091757E-15, 0.000000000000000000 ) ) ;
#147 = CARTESIAN_POINT ( 'NONE',  ( -9.000000000000021316, -7.011102925118606164E-15, 0.000000000000000000 ) ) ;
#148 = DIRECTION ( 'NONE',  ( 1.000000000000000000, 3.061616997868382648E-16, 0.000000000000000000 ) ) ;
#149 = CIRCLE ( 'NONE', #65, 17.48999999999999844 ) ;
#150 = EDGE_CURVE ( 'NONE', #264, #299, #141, .T. ) ;
#151 = DIRECTION ( 'NONE',  ( 1.000000000000000000, 3.061616997868382648E-16, -0.000000000000000000 ) ) ;
#152 = CARTESIAN_POINT ( 'NONE',  ( -9.000000000000021316, -7.011102925118606164E-15, 0.000000000000000000 ) ) ;
#153 = CALENDAR_DATE ( 2026, 28, 1 ) ;
#154 = ORIENTED_EDGE ( 'NONE', *, *, #69, .F. ) ;
#155 = CALENDAR_DATE ( 2026, 28, 1 ) ;
#156 = PERSON ( 'UNSPECIFIED', 'UNSPECIFIED', 'UNSPECIFIED', ('UNSPECIFIED'), ('UNSPECIFIED'), ('UNSPECIFIED') ) ;
#157 = ORIENTED_EDGE ( 'NONE', *, *, #346, .F. ) ;
#158 = ADVANCED_FACE ( 'NONE', ( #275, #56 ), #36, .F. ) ;
#159 = DATE_AND_TIME ( #21, #24 ) ;
#160 = VECTOR ( 'NONE', #176, 1000.000000000000000 ) ;
#161 = CARTESIAN_POINT ( 'NONE',  ( -9.500000000000001776, -12.55000000000000249, 1.536931732929928397E-15 ) ) ;
#162 = EDGE_LOOP ( 'NONE', ( #48, #132 ) ) ;
#163 = CC_DESIGN_PERSON_AND_ORGANIZATION_ASSIGNMENT ( #316, #318, ( #20 ) ) ;
#164 = CARTESIAN_POINT ( 'NONE',  ( -9.499999999999996447, -16.99000000000001975, 2.111291081730037678E-15 ) ) ;
#165 = CONICAL_SURFACE ( 'NONE', #200, 17.48999999999999844, 0.7853981633974552734 ) ;
#166 = ORIENTED_EDGE ( 'NONE', *, *, #175, .F. ) ;
#167 = DIRECTION ( 'NONE',  ( 2.975511965654900834E-16, -1.000000000000000000, 0.000000000000000000 ) ) ;
#168 = VERTEX_POINT ( 'NONE', #193 ) ;
#169 = ADVANCED_FACE ( 'NONE', ( #324 ), #251, .T. ) ;
#170 = CARTESIAN_POINT ( 'NONE',  ( 9.500000000000001776, -1.347111479062091757E-15, 0.000000000000000000 ) ) ;
#171 = CIRCLE ( 'NONE', #58, 16.98999999999999133 ) ;
#172 = CIRCLE ( 'NONE', #134, 12.55000000000000071 ) ;
#173 = VERTEX_POINT ( 'NONE', #164 ) ;
#174 = CARTESIAN_POINT ( 'NONE',  ( -9.500000000000007105, 16.99000000000000554, 0.000000000000000000 ) ) ;
#175 = EDGE_CURVE ( 'NONE', #340, #269, #235, .T. ) ;
#176 = DIRECTION ( 'NONE',  ( -0.7071067811865424657, -0.7071067811865526798, 0.000000000000000000 ) ) ;
#177 = VERTEX_POINT ( 'NONE', #100 ) ;
#178 = DIRECTION ( 'NONE',  ( 1.000000000000000000, 3.061616997868382648E-16, 0.000000000000000000 ) ) ;
#179 = AXIS2_PLACEMENT_3D ( 'NONE', #247, #293, #83 ) ;
#180 = CC_DESIGN_PERSON_AND_ORGANIZATION_ASSIGNMENT ( #262, #75, ( #229 ) ) ;
#181 = DIRECTION ( 'NONE',  ( 1.000000000000000000, 3.061616997868377718E-16, 0.000000000000000000 ) ) ;
#182 = VERTEX_POINT ( 'NONE', #217 ) ;
#183 = CONICAL_SURFACE ( 'NONE', #216, 17.48999999999999844, 0.7853981633974552734 ) ;
#184 = CC_DESIGN_APPROVAL ( #285, ( #99 ) ) ;
#185 = ORIENTED_EDGE ( 'NONE', *, *, #55, .T. ) ;
#186 = ADVANCED_FACE ( 'NONE', ( #322 ), #80, .F. ) ;
#187 = EDGE_LOOP ( 'NONE', ( #313, #166, #4, #31 ) ) ;
#188 = ORIENTED_EDGE ( 'NONE', *, *, #221, .T. ) ;
#189 = CIRCLE ( 'NONE', #117, 16.99000000000001265 ) ;
#190 = LOCAL_TIME ( 11, 22, 34.00000000000000000, #121 ) ;
#191 = CC_DESIGN_SECURITY_CLASSIFICATION ( #20, ( #229 ) ) ;
#192 = EDGE_CURVE ( 'NONE', #168, #264, #29, .T. ) ;
#193 = CARTESIAN_POINT ( 'NONE',  ( -9.000000000000015987, -17.49000000000000554, 2.141907251708721070E-15 ) ) ;
#194 = CARTESIAN_POINT ( 'NONE',  ( 9.000000000000001776, -1.500192328955511284E-15, 0.000000000000000000 ) ) ;
#195 = AXIS2_PLACEMENT_3D ( 'NONE', #81, #104, #246 ) ;
#196 = FACE_OUTER_BOUND ( 'NONE', #290, .T. ) ;
#197 = ADVANCED_FACE ( 'NONE', ( #86 ), #265, .T. ) ;
#198 = CARTESIAN_POINT ( 'NONE',  ( 9.000000000000001776, -1.500192328955511284E-15, 0.000000000000000000 ) ) ;
#199 = CARTESIAN_POINT ( 'NONE',  ( 9.500000000000001776, -1.347111479062091757E-15, 0.000000000000000000 ) ) ;
#200 = AXIS2_PLACEMENT_3D ( 'NONE', #306, #278, #230 ) ;
#201 = ADVANCED_FACE ( 'NONE', ( #63 ), #5, .T. ) ;
#202 = DIRECTION ( 'NONE',  ( 3.063078533213904561E-16, -1.000000000000000000, 0.000000000000000000 ) ) ;
#203 = CYLINDRICAL_SURFACE ( 'NONE', #30, 12.55000000000000071 ) ;
#204 = CARTESIAN_POINT ( 'NONE',  ( -9.500000000000007105, 17.48999999999999133, 0.000000000000000000 ) ) ;
#205 = LINE ( 'NONE', #232, #300 ) ;
#206 = LINE ( 'NONE', #307, #53 ) ;
#207 = CARTESIAN_POINT ( 'NONE',  ( 9.000000000000007105, -17.48999999999999844, 2.141907251708720676E-15 ) ) ;
#208 = APPROVAL ( #236, 'UNSPECIFIED' ) ;
#209 = VERTEX_POINT ( 'NONE', #59 ) ;
#210 = AXIS2_PLACEMENT_3D ( 'NONE', #199, #252, #308 ) ;
#211 = PERSON_AND_ORGANIZATION ( #156, #344 ) ;
#212 = EDGE_CURVE ( 'NONE', #340, #177, #273, .T. ) ;
#213 = PERSON_AND_ORGANIZATION ( #156, #344 ) ;
#214 = ORIENTED_EDGE ( 'NONE', *, *, #45, .F. ) ;
#215 = PERSON_AND_ORGANIZATION_ROLE ( 'creator' ) ;
#216 = AXIS2_PLACEMENT_3D ( 'NONE', #68, #17, #42 ) ;
#217 = CARTESIAN_POINT ( 'NONE',  ( 9.499999999999996447, 16.98999999999999133, 2.111291081730036100E-15 ) ) ;
#218 = DIRECTION ( 'NONE',  ( -2.975511965654900834E-16, 1.000000000000000000, 0.000000000000000000 ) ) ;
#219 = CARTESIAN_POINT ( 'NONE',  ( -9.500000000000001776, -7.164183775012018789E-15, 0.000000000000000000 ) ) ;
#220 = AXIS2_PLACEMENT_3D ( 'NONE', #129, #112, #125 ) ;
#221 = EDGE_CURVE ( 'NONE', #173, #103, #189, .T. ) ;
#222 = CC_DESIGN_APPROVAL ( #338, ( #20 ) ) ;
#223 = EDGE_LOOP ( 'NONE', ( #157, #320, #140, #315 ) ) ;
#224 = EDGE_LOOP ( 'NONE', ( #214, #74, #51, #76 ) ) ;
#225 = LINE ( 'NONE', #204, #73 ) ;
#226 =( LENGTH_UNIT ( ) NAMED_UNIT ( * ) SI_UNIT ( .MILLI., .METRE. ) );
#227 = MANIFOLD_SOLID_BREP ( 'Chamfer1', #109 ) ;
#228 = DIRECTION ( 'NONE',  ( 0.000000000000000000, 0.000000000000000000, 1.000000000000000000 ) ) ;
#229 = PRODUCT_DEFINITION_FORMATION_WITH_SPECIFIED_SOURCE ( 'ANY', '', #263, .NOT_KNOWN. ) ;
#230 = DIRECTION ( 'NONE',  ( 2.975511965654900834E-16, -1.000000000000000000, 0.000000000000000000 ) ) ;
#231 = DIRECTION ( 'NONE',  ( -1.000000000000000000, -3.061616997868382155E-16, 0.000000000000000000 ) ) ;
#232 = CARTESIAN_POINT ( 'NONE',  ( 8.999999999999996447, 17.48999999999999844, 2.141907251708720676E-15 ) ) ;
#233 = CARTESIAN_POINT ( 'NONE',  ( 9.500000000000001776, 4.776122516674676300E-15, 0.000000000000000000 ) ) ;
#234 = ADVANCED_FACE ( 'NONE', ( #196 ), #165, .T. ) ;
#235 = CIRCLE ( 'NONE', #179, 12.55000000000000071 ) ;
#236 = APPROVAL_STATUS ( 'not_yet_approved' ) ;
#237 = ORIENTED_EDGE ( 'NONE', *, *, #282, .F. ) ;
#238 = ORIENTED_EDGE ( 'NONE', *, *, #258, .T. ) ;
#239 = PERSON_AND_ORGANIZATION ( #156, #344 ) ;
#240 = AXIS2_PLACEMENT_3D ( 'NONE', #335, #66, #304 ) ;
#241 = PERSON_AND_ORGANIZATION ( #156, #344 ) ;
#242 = ORIENTED_EDGE ( 'NONE', *, *, #62, .T. ) ;
#243 = DATE_AND_TIME ( #155, #190 ) ;
#244 = CC_DESIGN_DATE_AND_TIME_ASSIGNMENT ( #243, #94, ( #99 ) ) ;
#245 = ORIENTED_EDGE ( 'NONE', *, *, #137, .T. ) ;
#246 = DIRECTION ( 'NONE',  ( -3.063078533213900616E-16, 1.000000000000000000, 0.000000000000000000 ) ) ;
#247 = CARTESIAN_POINT ( 'NONE',  ( -9.500000000000005329, -1.040949779275252506E-15, 0.000000000000000000 ) ) ;
#248 = DIRECTION ( 'NONE',  ( -2.764499563309652750E-16, 1.000000000000000000, 0.000000000000000000 ) ) ;
#249 = ORIENTED_EDGE ( 'NONE', *, *, #175, .T. ) ;
#250 = ADVANCED_FACE ( 'NONE', ( #115, #13 ), #256, .T. ) ;
#251 = CONICAL_SURFACE ( 'NONE', #195, 16.99000000000001265, 0.7853981633974552734 ) ;
#252 = DIRECTION ( 'NONE',  ( 1.000000000000000000, 3.061616997868382155E-16, -0.000000000000000000 ) ) ;
#253 =( NAMED_UNIT ( * ) PLANE_ANGLE_UNIT ( ) SI_UNIT ( $, .RADIAN. ) );
#254 = VECTOR ( 'NONE', #91, 1000.000000000000000 ) ;
#255 = CARTESIAN_POINT ( 'NONE',  ( -9.500000000000008882, 12.54999999999999893, 0.000000000000000000 ) ) ;
#256 = PLANE ( 'NONE',  #240 ) ;
#257 = EDGE_CURVE ( 'NONE', #182, #299, #205, .T. ) ;
#258 = EDGE_CURVE ( 'NONE', #168, #209, #84, .T. ) ;
#259 = EDGE_LOOP ( 'NONE', ( #126, #238, #245, #274 ) ) ;
#260 = DATE_TIME_ROLE ( 'classification_date' ) ;
#261 = VERTEX_POINT ( 'NONE', #87 ) ;
#262 = PERSON_AND_ORGANIZATION ( #156, #344 ) ;
#263 = PRODUCT ( '3991-35_REV_A', '3991-35_REV_A', '', ( #347 ) ) ;
#264 = VERTEX_POINT ( 'NONE', #207 ) ;
#265 = CONICAL_SURFACE ( 'NONE', #110, 16.99000000000001265, 0.7853981633974552734 ) ;
#266 = EDGE_LOOP ( 'NONE', ( #348, #106, #28, #61 ) ) ;
#267 = EDGE_CURVE ( 'NONE', #7, #182, #9, .T. ) ;
#268 = DIRECTION ( 'NONE',  ( 1.000000000000000000, 3.061616997868382648E-16, -0.000000000000000000 ) ) ;
#269 = VERTEX_POINT ( 'NONE', #40 ) ;
#270 = AXIS2_PLACEMENT_3D ( 'NONE', #198, #131, #167 ) ;
#271 = DIRECTION ( 'NONE',  ( 1.000000000000000000, 3.061616997868382648E-16, 0.000000000000000000 ) ) ;
#272 = ORIENTED_EDGE ( 'NONE', *, *, #257, .F. ) ;
#273 = LINE ( 'NONE', #34, #337 ) ;
#274 = ORIENTED_EDGE ( 'NONE', *, *, #35, .T. ) ;
#275 = FACE_OUTER_BOUND ( 'NONE', #162, .T. ) ;
#276 = PRODUCT_RELATED_PRODUCT_CATEGORY ( 'detail', '', ( #263 ) ) ;
#277 = CC_DESIGN_APPROVAL ( #208, ( #229 ) ) ;
#278 = DIRECTION ( 'NONE',  ( -1.000000000000000000, -3.061616997868389058E-16, -0.000000000000000000 ) ) ;
#279 = ORIENTED_EDGE ( 'NONE', *, *, #150, .T. ) ;
#280 = DIRECTION ( 'NONE',  ( -2.764499563309652750E-16, 1.000000000000000000, 0.000000000000000000 ) ) ;
#281 = AXIS2_PLACEMENT_3D ( 'NONE', #152, #43, #144 ) ;
#282 = EDGE_CURVE ( 'NONE', #177, #261, #88, .T. ) ;
#283 =( NAMED_UNIT ( * ) SI_UNIT ( $, .STERADIAN. ) SOLID_ANGLE_UNIT ( ) );
#284 = CALENDAR_DATE ( 2026, 28, 1 ) ;
#285 = APPROVAL ( #52, 'UNSPECIFIED' ) ;
#286 = AXIS2_PLACEMENT_3D ( 'NONE', #325, #268, #32 ) ;
#287 = PERSON_AND_ORGANIZATION ( #156, #344 ) ;
#288 = LINE ( 'NONE', #161, #1 ) ;
#289 = APPROVAL_ROLE ( '' ) ;
#290 = EDGE_LOOP ( 'NONE', ( #272, #54, #185, #25 ) ) ;
#291 = CIRCLE ( 'NONE', #23, 16.99000000000001265 ) ;
#292 = EDGE_CURVE ( 'NONE', #261, #177, #172, .T. ) ;
#293 = DIRECTION ( 'NONE',  ( 1.000000000000000000, 3.061616997868382648E-16, 0.000000000000000000 ) ) ;
#294 = DIRECTION ( 'NONE',  ( -1.000000000000000000, -3.061616997868389058E-16, -0.000000000000000000 ) ) ;
#295 = AXIS2_PLACEMENT_3D ( 'NONE', #14, #228, #330 ) ;
#296 = ADVANCED_BREP_SHAPE_REPRESENTATION ( '3991-35_REV_A', ( #227, #295 ), #329 ) ;
#297 = DIRECTION ( 'NONE',  ( -1.000000000000000000, -3.061616997868382155E-16, 0.000000000000000000 ) ) ;
#298 = DIRECTION ( 'NONE',  ( -1.000000000000000000, -3.061616997868382155E-16, 0.000000000000000000 ) ) ;
#299 = VERTEX_POINT ( 'NONE', #336 ) ;
#300 = VECTOR ( 'NONE', #333, 1000.000000000000000 ) ;
#301 = DIRECTION ( 'NONE',  ( 0.7071067811865424657, 0.7071067811865526798, 0.000000000000000000 ) ) ;
#302 = APPLICATION_PROTOCOL_DEFINITION ( 'international standard', 'config_control_design', 1994, #116 ) ;
#303 = CARTESIAN_POINT ( 'NONE',  ( -9.500000000000001776, -7.164183775012018789E-15, 0.000000000000000000 ) ) ;
#304 = DIRECTION ( 'NONE',  ( 3.061616997868382155E-16, -1.000000000000000000, 0.000000000000000000 ) ) ;
#305 = DIRECTION ( 'NONE',  ( 3.063078533213900616E-16, -1.000000000000000000, 0.000000000000000000 ) ) ;
#306 = CARTESIAN_POINT ( 'NONE',  ( 9.000000000000001776, -1.500192328955511284E-15, 0.000000000000000000 ) ) ;
#307 = CARTESIAN_POINT ( 'NONE',  ( -9.500000000000007105, 16.99000000000000554, 0.000000000000000000 ) ) ;
#308 = DIRECTION ( 'NONE',  ( 3.063078533213904561E-16, -1.000000000000000000, 0.000000000000000000 ) ) ;
#309 = UNCERTAINTY_MEASURE_WITH_UNIT (LENGTH_MEASURE( 1.000000000000000082E-05 ), #226, 'distance_accuracy_value', 'NONE');
#310 = PERSON_AND_ORGANIZATION ( #156, #344 ) ;
#311 = APPROVAL_DATE_TIME ( #339, #208 ) ;
#312 = LOCAL_TIME ( 11, 22, 34.00000000000000000, #44 ) ;
#313 = ORIENTED_EDGE ( 'NONE', *, *, #114, .F. ) ;
#314 = APPLICATION_PROTOCOL_DEFINITION ( 'international standard', 'config_control_design', 1994, #327 ) ;
#315 = ORIENTED_EDGE ( 'NONE', *, *, #258, .F. ) ;
#316 = PERSON_AND_ORGANIZATION ( #156, #344 ) ;
#317 = ADVANCED_FACE ( 'NONE', ( #90 ), #183, .T. ) ;
#318 = PERSON_AND_ORGANIZATION_ROLE ( 'classification_officer' ) ;
#319 = AXIS2_PLACEMENT_3D ( 'NONE', #233, #178, #280 ) ;
#320 = ORIENTED_EDGE ( 'NONE', *, *, #62, .F. ) ;
#321 = APPROVAL_PERSON_ORGANIZATION ( #239, #208, #120 ) ;
#322 = FACE_OUTER_BOUND ( 'NONE', #187, .T. ) ;
#323 = ADVANCED_FACE ( 'NONE', ( #89 ), #203, .F. ) ;
#324 = FACE_OUTER_BOUND ( 'NONE', #64, .T. ) ;
#325 = CARTESIAN_POINT ( 'NONE',  ( -9.500000000000005329, -1.040949779275252506E-15, 0.000000000000000000 ) ) ;
#326 = DIRECTION ( 'NONE',  ( 3.063078533213900616E-16, -1.000000000000000000, 0.000000000000000000 ) ) ;
#327 = APPLICATION_CONTEXT ( 'configuration controlled 3d designs of mechanical parts and assemblies' ) ;
#328 = CC_DESIGN_PERSON_AND_ORGANIZATION_ASSIGNMENT ( #310, #98, ( #99 ) ) ;
#329 =( GEOMETRIC_REPRESENTATION_CONTEXT ( 3 ) GLOBAL_UNCERTAINTY_ASSIGNED_CONTEXT ( ( #309 ) ) GLOBAL_UNIT_ASSIGNED_CONTEXT ( ( #226, #253, #283 ) ) REPRESENTATION_CONTEXT ( 'NONE', 'WORKASPACE' ) );
#330 = DIRECTION ( 'NONE',  ( 1.000000000000000000, 0.000000000000000000, 0.000000000000000000 ) ) ;
#331 = LOCAL_TIME ( 11, 22, 34.00000000000000000, #26 ) ;
#332 = LINE ( 'NONE', #16, #160 ) ;
#333 = DIRECTION ( 'NONE',  ( -0.7071067811865429098, 0.7071067811865522357, 8.659560562354994488E-17 ) ) ;
#334 = EDGE_CURVE ( 'NONE', #209, #168, #149, .T. ) ;
#335 = CARTESIAN_POINT ( 'NONE',  ( -9.500000000000001776, -7.164183775012018789E-15, 0.000000000000000000 ) ) ;
#336 = CARTESIAN_POINT ( 'NONE',  ( 8.999999999999996447, 17.48999999999999844, 0.000000000000000000 ) ) ;
#337 = VECTOR ( 'NONE', #139, 1000.000000000000000 ) ;
#338 = APPROVAL ( #47, 'UNSPECIFIED' ) ;
#339 = DATE_AND_TIME ( #153, #79 ) ;
#340 = VERTEX_POINT ( 'NONE', #255 ) ;
#341 = APPROVAL_ROLE ( '' ) ;
#342 = EDGE_LOOP ( 'NONE', ( #249, #130 ) ) ;
#343 = SECURITY_CLASSIFICATION_LEVEL ( 'unclassified' ) ;
#344 = ORGANIZATION ( 'UNSPECIFIED', 'UNSPECIFIED', '' ) ;
#345 = CALENDAR_DATE ( 2026, 28, 1 ) ;
#346 = EDGE_CURVE ( 'NONE', #173, #168, #111, .T. ) ;
#347 = MECHANICAL_CONTEXT ( 'NONE', #116, 'mechanical' ) ;
#348 = ORIENTED_EDGE ( 'NONE', *, *, #118, .F. ) ;
#349 = DIRECTION ( 'NONE',  ( 1.000000000000000000, 3.061616997868382155E-16, -0.000000000000000000 ) ) ;
ENDSEC;
END-ISO-10303-21;
