ISO-10303-21;
HEADER;
FILE_DESCRIPTION (( 'STEP AP203' ),
    '1' );
FILE_NAME ('3996-40-25_REV_.step',
    '2026-03-04T02:49:50',
    ( '' ),
    ( '' ),
    'SwSTEP 2.0',
    'SolidWorks 2025',
    '' );
FILE_SCHEMA (( 'CONFIG_CONTROL_DESIGN' ));
ENDSEC;

DATA;
#1 = FACE_OUTER_BOUND ( 'NONE', #92, .T. ) ;
#2 = ORIENTED_EDGE ( 'NONE', *, *, #253, .F. ) ;
#3 = EDGE_LOOP ( 'NONE', ( #170, #14, #13, #188, #272 ) ) ;
#4 = APPROVAL_PERSON_ORGANIZATION ( #51, #199, #153 ) ;
#5 = EDGE_LOOP ( 'NONE', ( #218, #234, #230 ) ) ;
#6 = EDGE_CURVE ( 'NONE', #258, #46, #107, .T. ) ;
#7 = PERSON_AND_ORGANIZATION_ROLE ( 'classification_officer' ) ;
#8 = DIRECTION ( 'NONE',  ( 0.000000000000000000, 0.000000000000000000, -1.000000000000000000 ) ) ;
#9 = PERSON_AND_ORGANIZATION_ROLE ( 'creator' ) ;
#10 = FACE_OUTER_BOUND ( 'NONE', #3, .T. ) ;
#11 = DATE_TIME_ROLE ( 'classification_date' ) ;
#12 = AXIS2_PLACEMENT_3D ( 'NONE', #139, #185, #38 ) ;
#13 = ORIENTED_EDGE ( 'NONE', *, *, #206, .F. ) ;
#14 = ORIENTED_EDGE ( 'NONE', *, *, #162, .F. ) ;
#15 = CARTESIAN_POINT ( 'NONE',  ( -12.50000000000000178, 1.634903476861716437E-15, 13.34999999999999964 ) ) ;
#16 = CIRCLE ( 'NONE', #12, 13.34999999999999964 ) ;
#17 = CARTESIAN_POINT ( 'NONE',  ( -12.50000000000000178, 10.44999999999999929, -8.307827634225446900 ) ) ;
#18 = LOCAL_TIME ( 13, 49, 50.00000000000000000, #71 ) ;
#19 = EDGE_CURVE ( 'NONE', #46, #64, #198, .T. ) ;
#20 = CARTESIAN_POINT ( 'NONE',  ( 12.50000000000000178, 0.000000000000000000, 0.000000000000000000 ) ) ;
#21 = CC_DESIGN_PERSON_AND_ORGANIZATION_ASSIGNMENT ( #174, #7, ( #23 ) ) ;
#22 = PRODUCT_DEFINITION_FORMATION_WITH_SPECIFIED_SOURCE ( 'ANY', '', #267, .NOT_KNOWN. ) ;
#23 = SECURITY_CLASSIFICATION ( '', '', #99 ) ;
#24 = EDGE_LOOP ( 'NONE', ( #152, #25, #80, #141 ) ) ;
#25 = ORIENTED_EDGE ( 'NONE', *, *, #58, .T. ) ;
#26 = PERSON_AND_ORGANIZATION ( #81, #144 ) ;
#27 = APPROVAL ( #245, 'UNSPECIFIED' ) ;
#28 = CARTESIAN_POINT ( 'NONE',  ( -12.50000000000000178, 0.000000000000000000, 0.000000000000000000 ) ) ;
#29 = APPROVAL_ROLE ( '' ) ;
#30 = DIRECTION ( 'NONE',  ( 0.000000000000000000, 0.000000000000000000, 1.000000000000000000 ) ) ;
#31 = PERSON_AND_ORGANIZATION_ROLE ( 'creator' ) ;
#32 = LINE ( 'NONE', #224, #213 ) ;
#33 = DATE_AND_TIME ( #76, #18 ) ;
#34 = CARTESIAN_POINT ( 'NONE',  ( 11.30000000000025651, -13.34999999999999964, -13.34999999999999964 ) ) ;
#35 = CARTESIAN_POINT ( 'NONE',  ( -12.50000000000000178, 10.44999999999999929, 0.000000000000000000 ) ) ;
#36 = CARTESIAN_POINT ( 'NONE',  ( -2.049999999999888800, 0.000000000000000000, -13.34999999999999964 ) ) ;
#37 = EDGE_CURVE ( 'NONE', #135, #140, #147, .T. ) ;
#38 = DIRECTION ( 'NONE',  ( 0.000000000000000000, 0.000000000000000000, 1.000000000000000000 ) ) ;
#39 = CARTESIAN_POINT ( 'NONE',  ( -12.50000000000000178, 10.44999999999999929, 0.000000000000000000 ) ) ;
#40 = ORIENTED_EDGE ( 'NONE', *, *, #206, .T. ) ;
#41 = ADVANCED_FACE ( 'NONE', ( #285, #123 ), #157, .F. ) ;
#42 = CYLINDRICAL_SURFACE ( 'NONE', #193, 10.44999999999999929 ) ;
#43 = DIRECTION ( 'NONE',  ( 1.000000000000000000, -0.000000000000000000, -0.000000000000000000 ) ) ;
#44 = CIRCLE ( 'NONE', #110, 13.34999999999999964 ) ;
#45 = ORIENTED_EDGE ( 'NONE', *, *, #37, .T. ) ;
#46 = VERTEX_POINT ( 'NONE', #225 ) ;
#47 = DIRECTION ( 'NONE',  ( -0.7071067811865513475, 0.7071067811865435759, 0.000000000000000000 ) ) ;
#48 = VECTOR ( 'NONE', #179, 1000.000000000000000 ) ;
#49 = CARTESIAN_POINT ( 'NONE',  ( 0.000000000000000000, 0.000000000000000000, 0.000000000000000000 ) ) ;
#50 = ORIENTED_EDGE ( 'NONE', *, *, #19, .F. ) ;
#51 = PERSON_AND_ORGANIZATION ( #81, #144 ) ;
#52 = CARTESIAN_POINT ( 'NONE',  ( -12.50000000000000178, 0.000000000000000000, 0.000000000000000000 ) ) ;
#53 = EDGE_CURVE ( 'NONE', #208, #64, #200, .T. ) ;
#54 = DIRECTION ( 'NONE',  ( 1.000000000000000000, 0.000000000000000000, 0.000000000000000000 ) ) ;
#55 = CARTESIAN_POINT ( 'NONE',  ( 12.50000000000000178, 1.634903476861716437E-15, 13.34999999999999964 ) ) ;
#56 = AXIS2_PLACEMENT_3D ( 'NONE', #59, #205, #204 ) ;
#57 = DIRECTION ( 'NONE',  ( -1.000000000000000000, 0.000000000000000000, 0.000000000000000000 ) ) ;
#58 = EDGE_CURVE ( 'NONE', #208, #258, #293, .T. ) ;
#59 = CARTESIAN_POINT ( 'NONE',  ( -12.50000000000000178, 0.000000000000000000, 0.000000000000000000 ) ) ;
#60 = CARTESIAN_POINT ( 'NONE',  ( -2.049999999999888800, 0.000000000000000000, -13.34999999999999964 ) ) ;
#61 = VECTOR ( 'NONE', #195, 1000.000000000000000 ) ;
#62 =( NAMED_UNIT ( * ) SI_UNIT ( $, .STERADIAN. ) SOLID_ANGLE_UNIT ( ) );
#63 = EDGE_CURVE ( 'NONE', #171, #142, #249, .T. ) ;
#64 = VERTEX_POINT ( 'NONE', #55 ) ;
#65 = ORIENTED_EDGE ( 'NONE', *, *, #119, .F. ) ;
#66 = VECTOR ( 'NONE', #250, 1000.000000000000000 ) ;
#67 = EDGE_CURVE ( 'NONE', #169, #235, #247, .T. ) ;
#68 = ORIENTED_EDGE ( 'NONE', *, *, #67, .T. ) ;
#69 = EDGE_LOOP ( 'NONE', ( #257, #117, #237, #65, #212, #242, #45, #40 ) ) ;
#70 = AXIS2_PLACEMENT_3D ( 'NONE', #268, #57, #30 ) ;
#71 = COORDINATED_UNIVERSAL_TIME_OFFSET ( 10, 0, .AHEAD. ) ;
#72 = COORDINATED_UNIVERSAL_TIME_OFFSET ( 10, 0, .AHEAD. ) ;
#73 =( BOUNDED_CURVE ( )  B_SPLINE_CURVE ( 3, ( #60, #85, #166, #17 ),
 .UNSPECIFIED., .F., .F. ) 
 B_SPLINE_CURVE_WITH_KNOTS ( ( 4, 4 ),
 ( 1.570796326794896558, 2.469903384503409960 ),
 .UNSPECIFIED. ) 
 CURVE ( )  GEOMETRIC_REPRESENTATION_ITEM ( )  RATIONAL_B_SPLINE_CURVE ( ( 1.000000000000000000, 0.9337608081070802868, 0.9337608081070802868, 1.000000000000000000 ) ) 
 REPRESENTATION_ITEM ( '' )  );
#74 = PERSON_AND_ORGANIZATION ( #81, #144 ) ;
#75 = DIRECTION ( 'NONE',  ( 0.000000000000000000, 0.000000000000000000, -1.000000000000000000 ) ) ;
#76 = CALENDAR_DATE ( 2026, 4, 3 ) ;
#77 = LOCAL_TIME ( 13, 49, 50.00000000000000000, #151 ) ;
#78 = PLANE ( 'NONE',  #113 ) ;
#79 = APPROVAL_DATE_TIME ( #175, #199 ) ;
#80 = ORIENTED_EDGE ( 'NONE', *, *, #6, .T. ) ;
#81 = PERSON ( 'UNSPECIFIED', 'UNSPECIFIED', 'UNSPECIFIED', ('UNSPECIFIED'), ('UNSPECIFIED'), ('UNSPECIFIED') ) ;
#82 = CARTESIAN_POINT ( 'NONE',  ( -12.50000000000000178, 0.000000000000000000, -13.34999999999999964 ) ) ;
#83 = DIRECTION ( 'NONE',  ( -1.000000000000000000, 0.000000000000000000, 0.000000000000000000 ) ) ;
#84 = CARTESIAN_POINT ( 'NONE',  ( -2.049999999999888800, 0.000000000000000000, -10.44999999999999929 ) ) ;
#85 = CARTESIAN_POINT ( 'NONE',  ( -6.191976000506912214, 4.141976000506978117, -13.34999999999999964 ) ) ;
#86 = DIRECTION ( 'NONE',  ( 0.000000000000000000, 0.000000000000000000, 1.000000000000000000 ) ) ;
#87 = CC_DESIGN_APPROVAL ( #231, ( #23 ) ) ;
#88 = CARTESIAN_POINT ( 'NONE',  ( 12.50000000000000178, 0.000000000000000000, 0.000000000000000000 ) ) ;
#89 = CARTESIAN_POINT ( 'NONE',  ( -9.922410286343760433, 7.872410286343787256, 11.55004854847996931 ) ) ;
#90 = ORIENTED_EDGE ( 'NONE', *, *, #284, .F. ) ;
#91 = EDGE_CURVE ( 'NONE', #154, #171, #32, .T. ) ;
#92 = EDGE_LOOP ( 'NONE', ( #96, #172, #143, #118, #236, #2 ) ) ;
#93 = AXIS2_PLACEMENT_3D ( 'NONE', #246, #126, #129 ) ;
#94 = CC_DESIGN_APPROVAL ( #27, ( #22 ) ) ;
#95 = SHAPE_DEFINITION_REPRESENTATION ( #201, #138 ) ;
#96 = ORIENTED_EDGE ( 'NONE', *, *, #119, .T. ) ;
#97 = APPLICATION_CONTEXT ( 'configuration controlled 3d designs of mechanical parts and assemblies' ) ;
#98 = ADVANCED_FACE ( 'NONE', ( #109 ), #202, .F. ) ;
#99 = SECURITY_CLASSIFICATION_LEVEL ( 'unclassified' ) ;
#100 = CARTESIAN_POINT ( 'NONE',  ( -12.50000000000000178, 0.000000000000000000, 0.000000000000000000 ) ) ;
#101 = APPROVAL_STATUS ( 'not_yet_approved' ) ;
#102 = ADVANCED_FACE ( 'NONE', ( #149 ), #240, .T. ) ;
#103 = FACE_OUTER_BOUND ( 'NONE', #5, .T. ) ;
#104 = AXIS2_PLACEMENT_3D ( 'NONE', #28, #263, #8 ) ;
#105 = APPROVAL_STATUS ( 'not_yet_approved' ) ;
#106 = CARTESIAN_POINT ( 'NONE',  ( -2.049999999999890576, 1.279755905108984152E-15, 10.44999999999999929 ) ) ;
#107 = LINE ( 'NONE', #82, #131 ) ;
#108 = ADVANCED_FACE ( 'NONE', ( #10 ), #128, .F. ) ;
#109 = FACE_OUTER_BOUND ( 'NONE', #69, .T. ) ;
#110 = AXIS2_PLACEMENT_3D ( 'NONE', #88, #229, #187 ) ;
#111 = CARTESIAN_POINT ( 'NONE',  ( -12.50000000000000178, 1.279755905108984152E-15, 10.44999999999999929 ) ) ;
#112 = CARTESIAN_POINT ( 'NONE',  ( -12.50000000000000178, 10.44999999999999929, 8.307827634225448676 ) ) ;
#113 = AXIS2_PLACEMENT_3D ( 'NONE', #52, #127, #223 ) ;
#114 = CARTESIAN_POINT ( 'NONE',  ( -12.50000000000000000, 10.44999999999999929, 6.121468273201156940 ) ) ;
#115 = CARTESIAN_POINT ( 'NONE',  ( -12.50000000000000178, 10.44999999999999929, 0.000000000000000000 ) ) ;
#116 = ADVANCED_FACE ( 'NONE', ( #103 ), #78, .T. ) ;
#117 = ORIENTED_EDGE ( 'NONE', *, *, #156, .F. ) ;
#118 = ORIENTED_EDGE ( 'NONE', *, *, #6, .F. ) ;
#119 = EDGE_CURVE ( 'NONE', #154, #208, #182, .T. ) ;
#120 = MANIFOLD_SOLID_BREP ( 'Cut-Extrude1', #262 ) ;
#121 = APPROVAL_ROLE ( '' ) ;
#122 = CC_DESIGN_SECURITY_CLASSIFICATION ( #23, ( #22 ) ) ;
#123 = FACE_OUTER_BOUND ( 'NONE', #279, .T. ) ;
#124 = DATE_AND_TIME ( #241, #203 ) ;
#125 =( BOUNDED_CURVE ( )  B_SPLINE_CURVE ( 3, ( #84, #255, #136, #39 ),
 .UNSPECIFIED., .F., .F. ) 
 B_SPLINE_CURVE_WITH_KNOTS ( ( 4, 4 ),
 ( 1.570796326794896558, 3.141592653589793116 ),
 .UNSPECIFIED. ) 
 CURVE ( )  GEOMETRIC_REPRESENTATION_ITEM ( )  RATIONAL_B_SPLINE_CURVE ( ( 1.000000000000000000, 0.8047378541243649375, 0.8047378541243649375, 1.000000000000000000 ) ) 
 REPRESENTATION_ITEM ( '' )  );
#126 = DIRECTION ( 'NONE',  ( -1.000000000000000000, 0.000000000000000000, 0.000000000000000000 ) ) ;
#127 = DIRECTION ( 'NONE',  ( -1.000000000000000000, 0.000000000000000000, 0.000000000000000000 ) ) ;
#128 = CYLINDRICAL_SURFACE ( 'NONE', #216, 10.44999999999999929 ) ;
#129 = DIRECTION ( 'NONE',  ( 0.000000000000000000, 0.000000000000000000, 1.000000000000000000 ) ) ;
#130 = DIRECTION ( 'NONE',  ( 1.000000000000000000, -0.000000000000000000, -0.000000000000000000 ) ) ;
#131 = VECTOR ( 'NONE', #176, 1000.000000000000000 ) ;
#132 = CC_DESIGN_APPROVAL ( #199, ( #243 ) ) ;
#133 = CARTESIAN_POINT ( 'NONE',  ( -12.50000000000000178, 0.000000000000000000, -10.44999999999999929 ) ) ;
#134 = CC_DESIGN_DATE_AND_TIME_ASSIGNMENT ( #283, #196, ( #243 ) ) ;
#135 = VERTEX_POINT ( 'NONE', #161 ) ;
#136 = CARTESIAN_POINT ( 'NONE',  ( -12.50000000000000000, 10.44999999999999929, -6.121468273201157828 ) ) ;
#137 = CARTESIAN_POINT ( 'NONE',  ( -2.049999999999890576, 1.634903476861716437E-15, 13.34999999999999964 ) ) ;
#138 = ADVANCED_BREP_SHAPE_REPRESENTATION ( '3996-40-25_REV_', ( #120, #277 ), #227 ) ;
#139 = CARTESIAN_POINT ( 'NONE',  ( -12.50000000000000178, 0.000000000000000000, 0.000000000000000000 ) ) ;
#140 = VERTEX_POINT ( 'NONE', #251 ) ;
#141 = ORIENTED_EDGE ( 'NONE', *, *, #19, .T. ) ;
#142 = VERTEX_POINT ( 'NONE', #275 ) ;
#143 = ORIENTED_EDGE ( 'NONE', *, *, #284, .T. ) ;
#144 = ORGANIZATION ( 'UNSPECIFIED', 'UNSPECIFIED', '' ) ;
#145 = PRODUCT_RELATED_PRODUCT_CATEGORY ( 'detail', '', ( #267 ) ) ;
#146 = APPLICATION_PROTOCOL_DEFINITION ( 'international standard', 'config_control_design', 1994, #97 ) ;
#147 =( BOUNDED_CURVE ( )  B_SPLINE_CURVE ( 3, ( #106, #181, #290, #292 ),
 .UNSPECIFIED., .F., .F. ) 
 B_SPLINE_CURVE_WITH_KNOTS ( ( 4, 4 ),
 ( 4.712388980384689674, 7.853981633974482790 ),
 .UNSPECIFIED. ) 
 CURVE ( )  GEOMETRIC_REPRESENTATION_ITEM ( )  RATIONAL_B_SPLINE_CURVE ( ( 1.000000000000000000, 0.3333333333333333703, 0.3333333333333333703, 1.000000000000000000 ) ) 
 REPRESENTATION_ITEM ( '' )  );
#148 = EDGE_CURVE ( 'NONE', #235, #169, #274, .T. ) ;
#149 = FACE_OUTER_BOUND ( 'NONE', #24, .T. ) ;
#150 = LOCAL_TIME ( 13, 49, 50.00000000000000000, #72 ) ;
#151 = COORDINATED_UNIVERSAL_TIME_OFFSET ( 10, 0, .AHEAD. ) ;
#152 = ORIENTED_EDGE ( 'NONE', *, *, #53, .F. ) ;
#153 = APPROVAL_ROLE ( '' ) ;
#154 = VERTEX_POINT ( 'NONE', #112 ) ;
#155 = PERSON_AND_ORGANIZATION ( #81, #144 ) ;
#156 = EDGE_CURVE ( 'NONE', #258, #142, #73, .T. ) ;
#157 = PLANE ( 'NONE',  #238 ) ;
#158 = CARTESIAN_POINT ( 'NONE',  ( 24.65000000000040359, -26.69999999999999929, -13.34999999999999964 ) ) ;
#159 = DESIGN_CONTEXT ( 'detailed design', #291, 'design' ) ;
#160 = LINE ( 'NONE', #133, #66 ) ;
#161 = CARTESIAN_POINT ( 'NONE',  ( -2.049999999999890576, 1.279755905108984152E-15, 10.44999999999999929 ) ) ;
#162 = EDGE_CURVE ( 'NONE', #171, #135, #163, .T. ) ;
#163 =( BOUNDED_CURVE ( )  B_SPLINE_CURVE ( 3, ( #270, #114, #294, #207 ),
 .UNSPECIFIED., .F., .T. ) 
 B_SPLINE_CURVE_WITH_KNOTS ( ( 4, 4 ),
 ( 3.141592653589793116, 4.712388980384689674 ),
 .UNSPECIFIED. ) 
 CURVE ( )  GEOMETRIC_REPRESENTATION_ITEM ( )  RATIONAL_B_SPLINE_CURVE ( ( 1.000000000000000000, 0.8047378541243649375, 0.8047378541243649375, 1.000000000000000000 ) ) 
 REPRESENTATION_ITEM ( '' )  );
#164 = DIRECTION ( 'NONE',  ( -1.000000000000000000, 0.000000000000000000, 0.000000000000000000 ) ) ;
#165 = ORIENTED_EDGE ( 'NONE', *, *, #248, .F. ) ;
#166 = CARTESIAN_POINT ( 'NONE',  ( -9.922410286343756880, 7.872410286343783703, -11.55004854847997287 ) ) ;
#167 = UNCERTAINTY_MEASURE_WITH_UNIT (LENGTH_MEASURE( 1.000000000000000082E-05 ), #271, 'distance_accuracy_value', 'NONE');
#168 = AXIS2_PLACEMENT_3D ( 'NONE', #34, #220, #47 ) ;
#169 = VERTEX_POINT ( 'NONE', #297 ) ;
#170 = ORIENTED_EDGE ( 'NONE', *, *, #299, .F. ) ;
#171 = VERTEX_POINT ( 'NONE', #115 ) ;
#172 = ORIENTED_EDGE ( 'NONE', *, *, #53, .T. ) ;
#173 = CC_DESIGN_DATE_AND_TIME_ASSIGNMENT ( #33, #11, ( #23 ) ) ;
#174 = PERSON_AND_ORGANIZATION ( #81, #144 ) ;
#175 = DATE_AND_TIME ( #217, #77 ) ;
#176 = DIRECTION ( 'NONE',  ( 1.000000000000000000, -0.000000000000000000, -0.000000000000000000 ) ) ;
#177 = DIRECTION ( 'NONE',  ( 0.000000000000000000, 0.000000000000000000, 1.000000000000000000 ) ) ;
#178 = CARTESIAN_POINT ( 'NONE',  ( 24.65000000000039293, -26.69999999999999218, 13.35000000000000497 ) ) ;
#179 = DIRECTION ( 'NONE',  ( 0.000000000000000000, 0.000000000000000000, -1.000000000000000000 ) ) ;
#180 = APPROVAL_PERSON_ORGANIZATION ( #26, #231, #121 ) ;
#181 = CARTESIAN_POINT ( 'NONE',  ( 18.85000000000033182, -20.89999999999999147, 10.45000000000000284 ) ) ;
#182 =( BOUNDED_CURVE ( )  B_SPLINE_CURVE ( 3, ( #232, #89, #233, #210 ),
 .UNSPECIFIED., .F., .T. ) 
 B_SPLINE_CURVE_WITH_KNOTS ( ( 4, 4 ),
 ( 3.813281922676176272, 4.712388980384689674 ),
 .UNSPECIFIED. ) 
 CURVE ( )  GEOMETRIC_REPRESENTATION_ITEM ( )  RATIONAL_B_SPLINE_CURVE ( ( 1.000000000000000000, 0.9337608081070802868, 0.9337608081070802868, 1.000000000000000000 ) ) 
 REPRESENTATION_ITEM ( '' )  );
#183 = ADVANCED_FACE ( 'NONE', ( #1 ), #184, .T. ) ;
#184 = CYLINDRICAL_SURFACE ( 'NONE', #56, 13.34999999999999964 ) ;
#185 = DIRECTION ( 'NONE',  ( -1.000000000000000000, 0.000000000000000000, 0.000000000000000000 ) ) ;
#186 = CC_DESIGN_PERSON_AND_ORGANIZATION_ASSIGNMENT ( #74, #264, ( #267 ) ) ;
#187 = DIRECTION ( 'NONE',  ( 0.000000000000000000, 0.000000000000000000, 1.000000000000000000 ) ) ;
#188 = ORIENTED_EDGE ( 'NONE', *, *, #248, .T. ) ;
#189 = ORIENTED_EDGE ( 'NONE', *, *, #37, .F. ) ;
#190 = CC_DESIGN_PERSON_AND_ORGANIZATION_ASSIGNMENT ( #282, #31, ( #243 ) ) ;
#191 = EDGE_LOOP ( 'NONE', ( #278, #68 ) ) ;
#192 = APPROVAL_DATE_TIME ( #124, #27 ) ;
#193 = AXIS2_PLACEMENT_3D ( 'NONE', #209, #130, #298 ) ;
#194 = CALENDAR_DATE ( 2026, 4, 3 ) ;
#195 = DIRECTION ( 'NONE',  ( 1.000000000000000000, -0.000000000000000000, -0.000000000000000000 ) ) ;
#196 = DATE_TIME_ROLE ( 'creation_date' ) ;
#197 = CARTESIAN_POINT ( 'NONE',  ( -2.049999999999888800, 0.000000000000000000, -13.34999999999999964 ) ) ;
#198 = CIRCLE ( 'NONE', #70, 13.34999999999999964 ) ;
#199 = APPROVAL ( #101, 'UNSPECIFIED' ) ;
#200 = LINE ( 'NONE', #15, #61 ) ;
#201 = PRODUCT_DEFINITION_SHAPE ( 'NONE', 'NONE',  #243 ) ;
#202 = PLANE ( 'NONE',  #168 ) ;
#203 = LOCAL_TIME ( 13, 49, 50.00000000000000000, #221 ) ;
#204 = DIRECTION ( 'NONE',  ( 0.000000000000000000, 0.000000000000000000, -1.000000000000000000 ) ) ;
#205 = DIRECTION ( 'NONE',  ( 1.000000000000000000, -0.000000000000000000, -0.000000000000000000 ) ) ;
#206 = EDGE_CURVE ( 'NONE', #140, #171, #125, .T. ) ;
#207 = CARTESIAN_POINT ( 'NONE',  ( -2.049999999999890576, 1.279755905108984152E-15, 10.44999999999999929 ) ) ;
#208 = VERTEX_POINT ( 'NONE', #137 ) ;
#209 = CARTESIAN_POINT ( 'NONE',  ( -12.50000000000000178, 0.000000000000000000, 0.000000000000000000 ) ) ;
#210 = CARTESIAN_POINT ( 'NONE',  ( -2.049999999999890576, 1.634903476861716437E-15, 13.34999999999999964 ) ) ;
#211 = ORIENTED_EDGE ( 'NONE', *, *, #148, .F. ) ;
#212 = ORIENTED_EDGE ( 'NONE', *, *, #91, .T. ) ;
#213 = VECTOR ( 'NONE', #287, 1000.000000000000000 ) ;
#214 = CALENDAR_DATE ( 2026, 4, 3 ) ;
#215 = DATE_AND_TIME ( #214, #269 ) ;
#216 = AXIS2_PLACEMENT_3D ( 'NONE', #100, #244, #75 ) ;
#217 = CALENDAR_DATE ( 2026, 4, 3 ) ;
#218 = ORIENTED_EDGE ( 'NONE', *, *, #91, .F. ) ;
#219 = PERSON_AND_ORGANIZATION ( #81, #144 ) ;
#220 = DIRECTION ( 'NONE',  ( 0.7071067811865436870, 0.7071067811865514585, 0.000000000000000000 ) ) ;
#221 = COORDINATED_UNIVERSAL_TIME_OFFSET ( 10, 0, .AHEAD. ) ;
#222 = CC_DESIGN_PERSON_AND_ORGANIZATION_ASSIGNMENT ( #286, #260, ( #22 ) ) ;
#223 = DIRECTION ( 'NONE',  ( 0.000000000000000000, 0.000000000000000000, 1.000000000000000000 ) ) ;
#224 = CARTESIAN_POINT ( 'NONE',  ( -12.50000000000000178, 10.44999999999999929, 0.000000000000000000 ) ) ;
#225 = CARTESIAN_POINT ( 'NONE',  ( 12.50000000000000178, 0.000000000000000000, -13.34999999999999964 ) ) ;
#226 = FACE_OUTER_BOUND ( 'NONE', #254, .T. ) ;
#227 =( GEOMETRIC_REPRESENTATION_CONTEXT ( 3 ) GLOBAL_UNCERTAINTY_ASSIGNED_CONTEXT ( ( #167 ) ) GLOBAL_UNIT_ASSIGNED_CONTEXT ( ( #271, #295, #62 ) ) REPRESENTATION_CONTEXT ( 'NONE', 'WORKASPACE' ) );
#228 = APPROVAL_PERSON_ORGANIZATION ( #155, #27, #29 ) ;
#229 = DIRECTION ( 'NONE',  ( -1.000000000000000000, 0.000000000000000000, 0.000000000000000000 ) ) ;
#230 = ORIENTED_EDGE ( 'NONE', *, *, #63, .F. ) ;
#231 = APPROVAL ( #105, 'UNSPECIFIED' ) ;
#232 = CARTESIAN_POINT ( 'NONE',  ( -12.50000000000000178, 10.44999999999999929, 8.307827634225448676 ) ) ;
#233 = CARTESIAN_POINT ( 'NONE',  ( -6.191976000506915767, 4.141976000506981670, 13.34999999999999964 ) ) ;
#234 = ORIENTED_EDGE ( 'NONE', *, *, #253, .T. ) ;
#235 = VERTEX_POINT ( 'NONE', #252 ) ;
#236 = ORIENTED_EDGE ( 'NONE', *, *, #156, .T. ) ;
#237 = ORIENTED_EDGE ( 'NONE', *, *, #58, .F. ) ;
#238 = AXIS2_PLACEMENT_3D ( 'NONE', #265, #83, #266 ) ;
#239 = APPLICATION_PROTOCOL_DEFINITION ( 'international standard', 'config_control_design', 1994, #291 ) ;
#240 = CYLINDRICAL_SURFACE ( 'NONE', #104, 13.34999999999999964 ) ;
#241 = CALENDAR_DATE ( 2026, 4, 3 ) ;
#242 = ORIENTED_EDGE ( 'NONE', *, *, #162, .T. ) ;
#243 = PRODUCT_DEFINITION ( 'UNKNOWN', '', #22, #159 ) ;
#244 = DIRECTION ( 'NONE',  ( 1.000000000000000000, -0.000000000000000000, -0.000000000000000000 ) ) ;
#245 = APPROVAL_STATUS ( 'not_yet_approved' ) ;
#246 = CARTESIAN_POINT ( 'NONE',  ( 12.50000000000000178, 0.000000000000000000, 0.000000000000000000 ) ) ;
#247 = CIRCLE ( 'NONE', #93, 10.44999999999999929 ) ;
#248 = EDGE_CURVE ( 'NONE', #140, #235, #160, .T. ) ;
#249 = LINE ( 'NONE', #35, #48 ) ;
#250 = DIRECTION ( 'NONE',  ( 1.000000000000000000, -0.000000000000000000, -0.000000000000000000 ) ) ;
#251 = CARTESIAN_POINT ( 'NONE',  ( -2.049999999999888800, 0.000000000000000000, -10.44999999999999929 ) ) ;
#252 = CARTESIAN_POINT ( 'NONE',  ( 12.50000000000000178, 0.000000000000000000, -10.44999999999999929 ) ) ;
#253 = EDGE_CURVE ( 'NONE', #154, #142, #16, .T. ) ;
#254 = EDGE_LOOP ( 'NONE', ( #189, #296, #211, #165 ) ) ;
#255 = CARTESIAN_POINT ( 'NONE',  ( -8.171468273201112353, 6.121468273201156940, -10.44999999999999929 ) ) ;
#256 = VECTOR ( 'NONE', #43, 1000.000000000000000 ) ;
#257 = ORIENTED_EDGE ( 'NONE', *, *, #63, .T. ) ;
#258 = VERTEX_POINT ( 'NONE', #36 ) ;
#259 = ADVANCED_FACE ( 'NONE', ( #226 ), #42, .F. ) ;
#260 = PERSON_AND_ORGANIZATION_ROLE ( 'design_supplier' ) ;
#261 = MECHANICAL_CONTEXT ( 'NONE', #97, 'mechanical' ) ;
#262 = CLOSED_SHELL ( 'NONE', ( #259, #183, #102, #108, #116, #41, #98 ) ) ;
#263 = DIRECTION ( 'NONE',  ( 1.000000000000000000, -0.000000000000000000, -0.000000000000000000 ) ) ;
#264 = PERSON_AND_ORGANIZATION_ROLE ( 'design_owner' ) ;
#265 = CARTESIAN_POINT ( 'NONE',  ( 12.50000000000000178, 0.000000000000000000, 0.000000000000000000 ) ) ;
#266 = DIRECTION ( 'NONE',  ( 0.000000000000000000, 0.000000000000000000, 1.000000000000000000 ) ) ;
#267 = PRODUCT ( '3996-40-25_REV_', '3996-40-25_REV_', '', ( #261 ) ) ;
#268 = CARTESIAN_POINT ( 'NONE',  ( 12.50000000000000178, 0.000000000000000000, 0.000000000000000000 ) ) ;
#269 = LOCAL_TIME ( 13, 49, 50.00000000000000000, #288 ) ;
#270 = CARTESIAN_POINT ( 'NONE',  ( -12.50000000000000178, 10.44999999999999929, 0.000000000000000000 ) ) ;
#271 =( LENGTH_UNIT ( ) NAMED_UNIT ( * ) SI_UNIT ( .MILLI., .METRE. ) );
#272 = ORIENTED_EDGE ( 'NONE', *, *, #67, .F. ) ;
#273 = CC_DESIGN_PERSON_AND_ORGANIZATION_ASSIGNMENT ( #219, #9, ( #22 ) ) ;
#274 = CIRCLE ( 'NONE', #281, 10.44999999999999929 ) ;
#275 = CARTESIAN_POINT ( 'NONE',  ( -12.50000000000000178, 10.44999999999999929, -8.307827634225446900 ) ) ;
#276 = LINE ( 'NONE', #111, #256 ) ;
#277 = AXIS2_PLACEMENT_3D ( 'NONE', #49, #177, #54 ) ;
#278 = ORIENTED_EDGE ( 'NONE', *, *, #148, .T. ) ;
#279 = EDGE_LOOP ( 'NONE', ( #50, #90 ) ) ;
#280 = APPROVAL_DATE_TIME ( #215, #231 ) ;
#281 = AXIS2_PLACEMENT_3D ( 'NONE', #20, #164, #86 ) ;
#282 = PERSON_AND_ORGANIZATION ( #81, #144 ) ;
#283 = DATE_AND_TIME ( #194, #150 ) ;
#284 = EDGE_CURVE ( 'NONE', #64, #46, #44, .T. ) ;
#285 = FACE_BOUND ( 'NONE', #191, .T. ) ;
#286 = PERSON_AND_ORGANIZATION ( #81, #144 ) ;
#287 = DIRECTION ( 'NONE',  ( 0.000000000000000000, 0.000000000000000000, -1.000000000000000000 ) ) ;
#288 = COORDINATED_UNIVERSAL_TIME_OFFSET ( 10, 0, .AHEAD. ) ;
#289 = CARTESIAN_POINT ( 'NONE',  ( -2.049999999999890576, 1.634903476861716437E-15, 13.34999999999999964 ) ) ;
#290 = CARTESIAN_POINT ( 'NONE',  ( 18.85000000000033182, -20.89999999999999503, -10.44999999999999751 ) ) ;
#291 = APPLICATION_CONTEXT ( 'configuration controlled 3d designs of mechanical parts and assemblies' ) ;
#292 = CARTESIAN_POINT ( 'NONE',  ( -2.049999999999888800, 0.000000000000000000, -10.44999999999999929 ) ) ;
#293 =( BOUNDED_CURVE ( )  B_SPLINE_CURVE ( 3, ( #289, #178, #158, #197 ),
 .UNSPECIFIED., .F., .T. ) 
 B_SPLINE_CURVE_WITH_KNOTS ( ( 4, 4 ),
 ( 4.712388980384689674, 7.853981633974482790 ),
 .UNSPECIFIED. ) 
 CURVE ( )  GEOMETRIC_REPRESENTATION_ITEM ( )  RATIONAL_B_SPLINE_CURVE ( ( 1.000000000000000000, 0.3333333333333333703, 0.3333333333333333703, 1.000000000000000000 ) ) 
 REPRESENTATION_ITEM ( '' )  );
#294 = CARTESIAN_POINT ( 'NONE',  ( -8.171468273201114130, 6.121468273201159604, 10.44999999999999751 ) ) ;
#295 =( NAMED_UNIT ( * ) PLANE_ANGLE_UNIT ( ) SI_UNIT ( $, .RADIAN. ) );
#296 = ORIENTED_EDGE ( 'NONE', *, *, #299, .T. ) ;
#297 = CARTESIAN_POINT ( 'NONE',  ( 12.50000000000000178, 1.279755905108984152E-15, 10.44999999999999929 ) ) ;
#298 = DIRECTION ( 'NONE',  ( 0.000000000000000000, 0.000000000000000000, -1.000000000000000000 ) ) ;
#299 = EDGE_CURVE ( 'NONE', #135, #169, #276, .T. ) ;
ENDSEC;
END-ISO-10303-21;
