ISO-10303-21;
HEADER;
FILE_DESCRIPTION (( 'STEP AP203' ),
    '1' );
FILE_NAME ('3996-50-20_REV_.step',
    '2026-03-04T02:50:59',
    ( '' ),
    ( '' ),
    'SwSTEP 2.0',
    'SolidWorks 2025',
    '' );
FILE_SCHEMA (( 'CONFIG_CONTROL_DESIGN' ));
ENDSEC;

DATA;
#1 = LINE ( 'NONE', #24, #160 ) ;
#2 = LINE ( 'NONE', #244, #183 ) ;
#3 = VECTOR ( 'NONE', #110, 999.9999999999998863 ) ;
#4 = AXIS2_PLACEMENT_3D ( 'NONE', #337, #98, #115 ) ;
#5 = ORIENTED_EDGE ( 'NONE', *, *, #249, .T. ) ;
#6 = DIRECTION ( 'NONE',  ( 0.000000000000000000, 0.000000000000000000, -1.000000000000000000 ) ) ;
#7 = ORIENTED_EDGE ( 'NONE', *, *, #295, .T. ) ;
#8 = ORIENTED_EDGE ( 'NONE', *, *, #301, .F. ) ;
#9 = EDGE_LOOP ( 'NONE', ( #257, #97, #8, #336, #283 ) ) ;
#10 = ORIENTED_EDGE ( 'NONE', *, *, #262, .F. ) ;
#11 = PRODUCT_RELATED_PRODUCT_CATEGORY ( 'detail', '', ( #235 ) ) ;
#12 = DATE_AND_TIME ( #149, #134 ) ;
#13 = VERTEX_POINT ( 'NONE', #36 ) ;
#14 = DESIGN_CONTEXT ( 'detailed design', #312, 'design' ) ;
#15 = MECHANICAL_CONTEXT ( 'NONE', #57, 'mechanical' ) ;
#16 = DIRECTION ( 'NONE',  ( 1.000000000000000000, 0.000000000000000000, 0.000000000000000000 ) ) ;
#17 = DIRECTION ( 'NONE',  ( -1.000000000000000000, -0.000000000000000000, -0.000000000000000000 ) ) ;
#18 = AXIS2_PLACEMENT_3D ( 'NONE', #347, #52, #130 ) ;
#19 = VECTOR ( 'NONE', #280, 999.9999999999998863 ) ;
#20 = PERSON_AND_ORGANIZATION ( #339, #165 ) ;
#21 = FACE_OUTER_BOUND ( 'NONE', #9, .T. ) ;
#22 = EDGE_CURVE ( 'NONE', #171, #330, #300, .T. ) ;
#23 = DIRECTION ( 'NONE',  ( -1.000000000000000000, -0.000000000000000000, -0.000000000000000000 ) ) ;
#24 = CARTESIAN_POINT ( 'NONE',  ( 120.0000000000000000, 10.44999999999999751, 0.000000000000000000 ) ) ;
#25 = CARTESIAN_POINT ( 'NONE',  ( 1.000000000000000888, 1.634903476861716437E-15, 13.34999999999999964 ) ) ;
#26 = CARTESIAN_POINT ( 'NONE',  ( 120.0000000000000000, 0.000000000000000000, 0.000000000000000000 ) ) ;
#27 = EDGE_CURVE ( 'NONE', #228, #88, #77, .T. ) ;
#28 = ORIENTED_EDGE ( 'NONE', *, *, #131, .T. ) ;
#29 = CC_DESIGN_PERSON_AND_ORGANIZATION_ASSIGNMENT ( #182, #313, ( #140 ) ) ;
#30 = CARTESIAN_POINT ( 'NONE',  ( 106.8277310924369630, 1.279755905108984152E-15, -10.44999999999999929 ) ) ;
#31 = ORIENTED_EDGE ( 'NONE', *, *, #158, .T. ) ;
#32 =( NAMED_UNIT ( * ) SI_UNIT ( $, .STERADIAN. ) SOLID_ANGLE_UNIT ( ) );
#33 = VERTEX_POINT ( 'NONE', #314 ) ;
#34 = AXIS2_PLACEMENT_3D ( 'NONE', #100, #16, #285 ) ;
#35 = CARTESIAN_POINT ( 'NONE',  ( 112.0487092443365214, 4.141976000506978117, 13.35000000000000142 ) ) ;
#36 = CARTESIAN_POINT ( 'NONE',  ( 0.000000000000000000, 0.000000000000000000, 10.44999999999999929 ) ) ;
#37 = APPROVAL_ROLE ( '' ) ;
#38 = VERTEX_POINT ( 'NONE', #79 ) ;
#39 = APPROVAL_STATUS ( 'not_yet_approved' ) ;
#40 = CARTESIAN_POINT ( 'NONE',  ( 120.0000000000000000, 1.634903476861716437E-15, -13.34999999999999964 ) ) ;
#41 = CIRCLE ( 'NONE', #289, 10.44999999999999929 ) ;
#42 = PERSON_AND_ORGANIZATION ( #339, #165 ) ;
#43 = LINE ( 'NONE', #181, #344 ) ;
#44 = ADVANCED_BREP_SHAPE_REPRESENTATION ( '3996-50-20_REV_', ( #221, #333 ), #92 ) ;
#45 = PERSON_AND_ORGANIZATION ( #339, #165 ) ;
#46 = CC_DESIGN_PERSON_AND_ORGANIZATION_ASSIGNMENT ( #234, #48, ( #140 ) ) ;
#47 = DIRECTION ( 'NONE',  ( 1.000000000000000000, -0.000000000000000000, -0.000000000000000000 ) ) ;
#48 = PERSON_AND_ORGANIZATION_ROLE ( 'design_supplier' ) ;
#49 = DIRECTION ( 'NONE',  ( 0.000000000000000000, 0.000000000000000000, -1.000000000000000000 ) ) ;
#50 = AXIS2_PLACEMENT_3D ( 'NONE', #298, #56, #137 ) ;
#51 = CARTESIAN_POINT ( 'NONE',  ( 120.0000000000000000, 0.000000000000000000, 0.000000000000000000 ) ) ;
#52 = DIRECTION ( 'NONE',  ( 1.000000000000000000, -0.000000000000000000, -0.000000000000000000 ) ) ;
#53 = APPROVAL_PERSON_ORGANIZATION ( #238, #286, #284 ) ;
#54 = EDGE_CURVE ( 'NONE', #143, #229, #326, .T. ) ;
#55 = DIRECTION ( 'NONE',  ( -0.6215052590238908659, 0.7834099903662490316, 0.000000000000000000 ) ) ;
#56 = DIRECTION ( 'NONE',  ( -1.000000000000000000, -0.000000000000000000, -0.000000000000000000 ) ) ;
#57 = APPLICATION_CONTEXT ( 'configuration controlled 3d designs of mechanical parts and assemblies' ) ;
#58 = PLANE ( 'NONE',  #189 ) ;
#59 =( BOUNDED_CURVE ( )  B_SPLINE_CURVE ( 3, ( #203, #87, #196, #144 ),
 .UNSPECIFIED., .F., .T. ) 
 B_SPLINE_CURVE_WITH_KNOTS ( ( 4, 4 ),
 ( 3.813281922676176272, 4.712388980384689674 ),
 .UNSPECIFIED. ) 
 CURVE ( )  GEOMETRIC_REPRESENTATION_ITEM ( )  RATIONAL_B_SPLINE_CURVE ( ( 1.000000000000000000, 0.9337608081070802868, 0.9337608081070802868, 1.000000000000000000 ) ) 
 REPRESENTATION_ITEM ( '' )  );
#60 = ADVANCED_FACE ( 'NONE', ( #21 ), #208, .F. ) ;
#61 = CARTESIAN_POINT ( 'NONE',  ( 120.0000000000000000, 10.44999999999999929, 8.307827634225448676 ) ) ;
#62 = ORIENTED_EDGE ( 'NONE', *, *, #54, .T. ) ;
#63 = LOCAL_TIME ( 13, 50, 59.00000000000000000, #210 ) ;
#64 = EDGE_CURVE ( 'NONE', #330, #200, #43, .T. ) ;
#65 = ORIENTED_EDGE ( 'NONE', *, *, #322, .F. ) ;
#66 = CARTESIAN_POINT ( 'NONE',  ( 106.8277310924369630, 0.000000000000000000, 10.44999999999999929 ) ) ;
#67 = ORIENTED_EDGE ( 'NONE', *, *, #101, .F. ) ;
#68 = EDGE_LOOP ( 'NONE', ( #5, #62 ) ) ;
#69 = CIRCLE ( 'NONE', #113, 13.34999999999999964 ) ;
#70 = ORIENTED_EDGE ( 'NONE', *, *, #271, .F. ) ;
#71 = CALENDAR_DATE ( 2026, 4, 3 ) ;
#72 = CARTESIAN_POINT ( 'NONE',  ( 120.0000000000000000, 10.44999999999999751, 0.000000000000000000 ) ) ;
#73 = EDGE_CURVE ( 'NONE', #13, #200, #287, .T. ) ;
#74 = DIRECTION ( 'NONE',  ( 0.000000000000000000, 0.000000000000000000, 1.000000000000000000 ) ) ;
#75 = CIRCLE ( 'NONE', #4, 12.34999999999999964 ) ;
#76 = ADVANCED_FACE ( 'NONE', ( #153 ), #265, .T. ) ;
#77 = LINE ( 'NONE', #40, #331 ) ;
#78 = APPROVAL_STATUS ( 'not_yet_approved' ) ;
#79 = CARTESIAN_POINT ( 'NONE',  ( 1.000000000000000888, 0.000000000000000000, 13.34999999999999964 ) ) ;
#80 = VECTOR ( 'NONE', #348, 1000.000000000000000 ) ;
#81 = CARTESIAN_POINT ( 'NONE',  ( 120.0000000000000000, 10.44999999999999751, 0.000000000000000000 ) ) ;
#82 = FACE_OUTER_BOUND ( 'NONE', #114, .T. ) ;
#83 = PLANE ( 'NONE',  #154 ) ;
#84 = LOCAL_TIME ( 13, 50, 59.00000000000000000, #212 ) ;
#85 = FACE_OUTER_BOUND ( 'NONE', #68, .T. ) ;
#86 =( BOUNDED_CURVE ( )  B_SPLINE_CURVE ( 3, ( #258, #35, #334, #61 ),
 .UNSPECIFIED., .F., .T. ) 
 B_SPLINE_CURVE_WITH_KNOTS ( ( 4, 4 ),
 ( 1.570796326794896558, 2.469903384503409960 ),
 .UNSPECIFIED. ) 
 CURVE ( )  GEOMETRIC_REPRESENTATION_ITEM ( )  RATIONAL_B_SPLINE_CURVE ( ( 1.000000000000000000, 0.9337608081070802868, 0.9337608081070802868, 1.000000000000000000 ) ) 
 REPRESENTATION_ITEM ( '' )  );
#87 = CARTESIAN_POINT ( 'NONE',  ( 116.7509373357274285, 7.872410286343787256, -11.55004854847997287 ) ) ;
#88 = VERTEX_POINT ( 'NONE', #125 ) ;
#89 = CONICAL_SURFACE ( 'NONE', #139, 13.34999999999999964, 0.7853981633974473908 ) ;
#90 = CARTESIAN_POINT ( 'NONE',  ( 106.8277310924369630, 1.634903476861716437E-15, -13.34999999999999964 ) ) ;
#91 = ORIENTED_EDGE ( 'NONE', *, *, #27, .T. ) ;
#92 =( GEOMETRIC_REPRESENTATION_CONTEXT ( 3 ) GLOBAL_UNCERTAINTY_ASSIGNED_CONTEXT ( ( #346 ) ) GLOBAL_UNIT_ASSIGNED_CONTEXT ( ( #304, #256, #32 ) ) REPRESENTATION_CONTEXT ( 'NONE', 'WORKASPACE' ) );
#93 = CARTESIAN_POINT ( 'NONE',  ( 0.000000000000000000, 0.000000000000000000, 0.000000000000000000 ) ) ;
#94 = EDGE_LOOP ( 'NONE', ( #259, #31, #281, #311 ) ) ;
#95 = ADVANCED_FACE ( 'NONE', ( #187 ), #89, .T. ) ;
#96 = CARTESIAN_POINT ( 'NONE',  ( 106.8277310924369630, 0.000000000000000000, 13.34999999999999964 ) ) ;
#97 = ORIENTED_EDGE ( 'NONE', *, *, #22, .F. ) ;
#98 = DIRECTION ( 'NONE',  ( -1.000000000000000000, -0.000000000000000000, -0.000000000000000000 ) ) ;
#99 = EDGE_LOOP ( 'NONE', ( #253, #7 ) ) ;
#100 = CARTESIAN_POINT ( 'NONE',  ( 0.000000000000000000, 0.000000000000000000, 0.000000000000000000 ) ) ;
#101 = EDGE_CURVE ( 'NONE', #171, #33, #1, .T. ) ;
#102 = COORDINATED_UNIVERSAL_TIME_OFFSET ( 10, 0, .AHEAD. ) ;
#103 = CARTESIAN_POINT ( 'NONE',  ( 114.5438675712619556, 6.121468273201157828, -10.44999999999999929 ) ) ;
#104 = CC_DESIGN_DATE_AND_TIME_ASSIGNMENT ( #159, #290, ( #248 ) ) ;
#105 = PERSON_AND_ORGANIZATION_ROLE ( 'design_owner' ) ;
#106 = PERSON_AND_ORGANIZATION ( #339, #165 ) ;
#107 = DIRECTION ( 'NONE',  ( -0.7834099903662490316, -0.6215052590238908659, 0.000000000000000000 ) ) ;
#108 = VECTOR ( 'NONE', #269, 1000.000000000000000 ) ;
#109 = APPROVAL_PERSON_ORGANIZATION ( #106, #138, #282 ) ;
#110 = DIRECTION ( 'NONE',  ( 0.7071067811865482389, 8.659560562354927928E-17, 0.7071067811865469066 ) ) ;
#111 = PRODUCT_DEFINITION_SHAPE ( 'NONE', 'NONE',  #123 ) ;
#112 = CARTESIAN_POINT ( 'NONE',  ( 106.8277310924369630, 0.000000000000000000, 13.34999999999999964 ) ) ;
#113 = AXIS2_PLACEMENT_3D ( 'NONE', #323, #195, #193 ) ;
#114 = EDGE_LOOP ( 'NONE', ( #305, #91, #28, #146, #118, #65 ) ) ;
#115 = DIRECTION ( 'NONE',  ( 0.000000000000000000, 0.000000000000000000, -1.000000000000000000 ) ) ;
#116 = CIRCLE ( 'NONE', #264, 13.34999999999999964 ) ;
#117 = ORIENTED_EDGE ( 'NONE', *, *, #249, .F. ) ;
#118 = ORIENTED_EDGE ( 'NONE', *, *, #262, .T. ) ;
#119 = EDGE_LOOP ( 'NONE', ( #306, #302, #177, #223 ) ) ;
#120 = DATE_AND_TIME ( #207, #176 ) ;
#121 = ORIENTED_EDGE ( 'NONE', *, *, #240, .T. ) ;
#122 = AXIS2_PLACEMENT_3D ( 'NONE', #345, #23, #74 ) ;
#123 = PRODUCT_DEFINITION ( 'UNKNOWN', '', #140, #14 ) ;
#124 = COORDINATED_UNIVERSAL_TIME_OFFSET ( 10, 0, .AHEAD. ) ;
#125 = CARTESIAN_POINT ( 'NONE',  ( 1.000000000000000888, 1.634903476861716437E-15, -13.34999999999999964 ) ) ;
#126 = ADVANCED_FACE ( 'NONE', ( #297 ), #174, .T. ) ;
#127 = PERSON_AND_ORGANIZATION ( #339, #165 ) ;
#128 = CC_DESIGN_SECURITY_CLASSIFICATION ( #248, ( #140 ) ) ;
#129 = DATE_AND_TIME ( #319, #279 ) ;
#130 = DIRECTION ( 'NONE',  ( 0.000000000000000000, 0.000000000000000000, -1.000000000000000000 ) ) ;
#131 = EDGE_CURVE ( 'NONE', #88, #38, #69, .T. ) ;
#132 = CARTESIAN_POINT ( 'NONE',  ( 120.0000000000000000, 10.44999999999999751, 0.000000000000000000 ) ) ;
#133 = CC_DESIGN_APPROVAL ( #135, ( #248 ) ) ;
#134 = LOCAL_TIME ( 13, 50, 59.00000000000000000, #180 ) ;
#135 = APPROVAL ( #78, 'UNSPECIFIED' ) ;
#136 = DIRECTION ( 'NONE',  ( 0.000000000000000000, -0.000000000000000000, 1.000000000000000000 ) ) ;
#137 = DIRECTION ( 'NONE',  ( 0.000000000000000000, 0.000000000000000000, 1.000000000000000000 ) ) ;
#138 = APPROVAL ( #188, 'UNSPECIFIED' ) ;
#139 = AXIS2_PLACEMENT_3D ( 'NONE', #291, #47, #157 ) ;
#140 = PRODUCT_DEFINITION_FORMATION_WITH_SPECIFIED_SOURCE ( 'ANY', '', #235, .NOT_KNOWN. ) ;
#141 = DIRECTION ( 'NONE',  ( 1.000000000000000000, 0.000000000000000000, 0.000000000000000000 ) ) ;
#142 = CARTESIAN_POINT ( 'NONE',  ( 80.48319327731093153, -20.89999999999999147, 10.44999999999999929 ) ) ;
#143 = VERTEX_POINT ( 'NONE', #294 ) ;
#144 = CARTESIAN_POINT ( 'NONE',  ( 106.8277310924369630, 1.634903476861716437E-15, -13.34999999999999964 ) ) ;
#145 = ORIENTED_EDGE ( 'NONE', *, *, #245, .T. ) ;
#146 = ORIENTED_EDGE ( 'NONE', *, *, #162, .F. ) ;
#147 = FACE_OUTER_BOUND ( 'NONE', #179, .T. ) ;
#148 = EDGE_LOOP ( 'NONE', ( #255, #10, #204, #70, #173, #273, #150, #231 ) ) ;
#149 = CALENDAR_DATE ( 2026, 4, 3 ) ;
#150 = ORIENTED_EDGE ( 'NONE', *, *, #266, .T. ) ;
#151 = ADVANCED_FACE ( 'NONE', ( #82 ), #191, .T. ) ;
#152 = DATE_TIME_ROLE ( 'creation_date' ) ;
#153 = FACE_OUTER_BOUND ( 'NONE', #225, .T. ) ;
#154 = AXIS2_PLACEMENT_3D ( 'NONE', #194, #55, #107 ) ;
#155 = CARTESIAN_POINT ( 'NONE',  ( 0.000000000000000000, 0.000000000000000000, 0.000000000000000000 ) ) ;
#156 = SECURITY_CLASSIFICATION_LEVEL ( 'unclassified' ) ;
#157 = DIRECTION ( 'NONE',  ( 0.000000000000000000, 0.000000000000000000, -1.000000000000000000 ) ) ;
#158 = EDGE_CURVE ( 'NONE', #143, #38, #164, .T. ) ;
#159 = DATE_AND_TIME ( #71, #63 ) ;
#160 = VECTOR ( 'NONE', #136, 1000.000000000000000 ) ;
#161 = CARTESIAN_POINT ( 'NONE',  ( 120.0000000000000000, 10.44999999999999751, -6.121468273201156940 ) ) ;
#162 = EDGE_CURVE ( 'NONE', #169, #38, #220, .T. ) ;
#163 = DIRECTION ( 'NONE',  ( 0.000000000000000000, 0.000000000000000000, -1.000000000000000000 ) ) ;
#164 = LINE ( 'NONE', #25, #3 ) ;
#165 = ORGANIZATION ( 'UNSPECIFIED', 'UNSPECIFIED', '' ) ;
#166 = CARTESIAN_POINT ( 'NONE',  ( 106.8277310924369630, 1.634903476861716437E-15, -13.34999999999999964 ) ) ;
#167 = AXIS2_PLACEMENT_3D ( 'NONE', #184, #267, #316 ) ;
#168 = CARTESIAN_POINT ( 'NONE',  ( 120.0000000000000000, 0.000000000000000000, 0.000000000000000000 ) ) ;
#169 = VERTEX_POINT ( 'NONE', #112 ) ;
#170 = CARTESIAN_POINT ( 'NONE',  ( 120.0000000000000000, 10.44999999999999751, 0.000000000000000000 ) ) ;
#171 = VERTEX_POINT ( 'NONE', #81 ) ;
#172 = CARTESIAN_POINT ( 'NONE',  ( 1.000000000000000888, 0.000000000000000000, 0.000000000000000000 ) ) ;
#173 = ORIENTED_EDGE ( 'NONE', *, *, #198, .T. ) ;
#174 = CONICAL_SURFACE ( 'NONE', #18, 13.34999999999999964, 0.7853981633974473908 ) ;
#175 = CARTESIAN_POINT ( 'NONE',  ( 114.5438675712619556, 6.121468273201155164, 10.45000000000000107 ) ) ;
#176 = LOCAL_TIME ( 13, 50, 59.00000000000000000, #124 ) ;
#177 = ORIENTED_EDGE ( 'NONE', *, *, #73, .F. ) ;
#178 = DIRECTION ( 'NONE',  ( 1.000000000000000000, 0.000000000000000000, 0.000000000000000000 ) ) ;
#179 = EDGE_LOOP ( 'NONE', ( #338, #197, #261, #145 ) ) ;
#180 = COORDINATED_UNIVERSAL_TIME_OFFSET ( 10, 0, .AHEAD. ) ;
#181 = CARTESIAN_POINT ( 'NONE',  ( 120.0000000000000000, 1.279755905108984152E-15, -10.44999999999999929 ) ) ;
#182 = PERSON_AND_ORGANIZATION ( #339, #165 ) ;
#183 = VECTOR ( 'NONE', #327, 1000.000000000000000 ) ;
#184 = CARTESIAN_POINT ( 'NONE',  ( 120.0000000000000000, 0.000000000000000000, 0.000000000000000000 ) ) ;
#185 = EDGE_CURVE ( 'NONE', #328, #13, #2, .T. ) ;
#186 = DIRECTION ( 'NONE',  ( 0.000000000000000000, 0.000000000000000000, 1.000000000000000000 ) ) ;
#187 = FACE_OUTER_BOUND ( 'NONE', #94, .T. ) ;
#188 = APPROVAL_STATUS ( 'not_yet_approved' ) ;
#189 = AXIS2_PLACEMENT_3D ( 'NONE', #241, #324, #163 ) ;
#190 = ADVANCED_FACE ( 'NONE', ( #85, #299 ), #58, .F. ) ;
#191 = CYLINDRICAL_SURFACE ( 'NONE', #340, 13.34999999999999964 ) ;
#192 = CC_DESIGN_PERSON_AND_ORGANIZATION_ASSIGNMENT ( #127, #105, ( #235 ) ) ;
#193 = DIRECTION ( 'NONE',  ( 0.000000000000000000, 0.000000000000000000, -1.000000000000000000 ) ) ;
#194 = CARTESIAN_POINT ( 'NONE',  ( 90.00000000000000000, -13.35000000000000497, -13.34999999999999964 ) ) ;
#195 = DIRECTION ( 'NONE',  ( 1.000000000000000000, -0.000000000000000000, -0.000000000000000000 ) ) ;
#196 = CARTESIAN_POINT ( 'NONE',  ( 112.0487092443365214, 4.141976000506981670, -13.35000000000000142 ) ) ;
#197 = ORIENTED_EDGE ( 'NONE', *, *, #349, .T. ) ;
#198 = EDGE_CURVE ( 'NONE', #275, #171, #246, .T. ) ;
#199 = CIRCLE ( 'NONE', #236, 13.34999999999999964 ) ;
#200 = VERTEX_POINT ( 'NONE', #242 ) ;
#201 = CARTESIAN_POINT ( 'NONE',  ( 73.17226890756303703, -26.69999999999999218, -13.35000000000001030 ) ) ;
#202 = ORIENTED_EDGE ( 'NONE', *, *, #198, .F. ) ;
#203 = CARTESIAN_POINT ( 'NONE',  ( 120.0000000000000000, 10.44999999999999929, -8.307827634225450453 ) ) ;
#204 = ORIENTED_EDGE ( 'NONE', *, *, #349, .F. ) ;
#205 = DIRECTION ( 'NONE',  ( 0.000000000000000000, 0.000000000000000000, 1.000000000000000000 ) ) ;
#206 = ORIENTED_EDGE ( 'NONE', *, *, #158, .F. ) ;
#207 = CALENDAR_DATE ( 2026, 4, 3 ) ;
#208 = CYLINDRICAL_SURFACE ( 'NONE', #122, 10.44999999999999929 ) ;
#209 =( BOUNDED_CURVE ( )  B_SPLINE_CURVE ( 3, ( #227, #329, #142, #66 ),
 .UNSPECIFIED., .F., .T. ) 
 B_SPLINE_CURVE_WITH_KNOTS ( ( 4, 4 ),
 ( 4.712388980384689674, 7.853981633974482790 ),
 .UNSPECIFIED. ) 
 CURVE ( )  GEOMETRIC_REPRESENTATION_ITEM ( )  RATIONAL_B_SPLINE_CURVE ( ( 1.000000000000000000, 0.3333333333333333703, 0.3333333333333333703, 1.000000000000000000 ) ) 
 REPRESENTATION_ITEM ( '' )  );
#210 = COORDINATED_UNIVERSAL_TIME_OFFSET ( 10, 0, .AHEAD. ) ;
#211 = CC_DESIGN_APPROVAL ( #138, ( #140 ) ) ;
#212 = COORDINATED_UNIVERSAL_TIME_OFFSET ( 10, 0, .AHEAD. ) ;
#213 = APPLICATION_PROTOCOL_DEFINITION ( 'international standard', 'config_control_design', 1994, #312 ) ;
#214 = ADVANCED_FACE ( 'NONE', ( #217 ), #83, .F. ) ;
#215 = DIRECTION ( 'NONE',  ( -1.000000000000000000, -0.000000000000000000, -0.000000000000000000 ) ) ;
#216 = CARTESIAN_POINT ( 'NONE',  ( 1.000000000000000888, 0.000000000000000000, -13.34999999999999964 ) ) ;
#217 = FACE_OUTER_BOUND ( 'NONE', #148, .T. ) ;
#218 = CARTESIAN_POINT ( 'NONE',  ( 120.0000000000000000, 0.000000000000000000, 13.34999999999999964 ) ) ;
#219 = FACE_OUTER_BOUND ( 'NONE', #119, .T. ) ;
#220 = LINE ( 'NONE', #218, #108 ) ;
#221 = MANIFOLD_SOLID_BREP ( 'Cut-Extrude1', #309 ) ;
#222 = CYLINDRICAL_SURFACE ( 'NONE', #243, 13.34999999999999964 ) ;
#223 = ORIENTED_EDGE ( 'NONE', *, *, #185, .F. ) ;
#224 = DIRECTION ( 'NONE',  ( -1.000000000000000000, -0.000000000000000000, -0.000000000000000000 ) ) ;
#225 = EDGE_LOOP ( 'NONE', ( #202, #278, #67 ) ) ;
#226 = CC_DESIGN_PERSON_AND_ORGANIZATION_ASSIGNMENT ( #20, #288, ( #123 ) ) ;
#227 = CARTESIAN_POINT ( 'NONE',  ( 106.8277310924369630, 1.279755905108984152E-15, -10.44999999999999929 ) ) ;
#228 = VERTEX_POINT ( 'NONE', #166 ) ;
#229 = VERTEX_POINT ( 'NONE', #270 ) ;
#230 = CARTESIAN_POINT ( 'NONE',  ( 120.0000000000000000, 10.44999999999999751, 6.121468273201159604 ) ) ;
#231 = ORIENTED_EDGE ( 'NONE', *, *, #301, .T. ) ;
#232 = APPROVAL_DATE_TIME ( #12, #135 ) ;
#233 = CALENDAR_DATE ( 2026, 4, 3 ) ;
#234 = PERSON_AND_ORGANIZATION ( #339, #165 ) ;
#235 = PRODUCT ( '3996-50-20_REV_', '3996-50-20_REV_', '', ( #15 ) ) ;
#236 = AXIS2_PLACEMENT_3D ( 'NONE', #172, #310, #252 ) ;
#237 = ADVANCED_FACE ( 'NONE', ( #219 ), #325, .F. ) ;
#238 = PERSON_AND_ORGANIZATION ( #339, #165 ) ;
#239 = CARTESIAN_POINT ( 'NONE',  ( 106.8277310924369630, 1.279755905108984152E-15, -10.44999999999999929 ) ) ;
#240 = EDGE_CURVE ( 'NONE', #229, #88, #247, .T. ) ;
#241 = CARTESIAN_POINT ( 'NONE',  ( 0.000000000000000000, 0.000000000000000000, 0.000000000000000000 ) ) ;
#242 = CARTESIAN_POINT ( 'NONE',  ( 0.000000000000000000, 1.279755905108984152E-15, -10.44999999999999929 ) ) ;
#243 = AXIS2_PLACEMENT_3D ( 'NONE', #168, #224, #205 ) ;
#244 = CARTESIAN_POINT ( 'NONE',  ( 120.0000000000000000, 0.000000000000000000, 10.44999999999999929 ) ) ;
#245 = EDGE_CURVE ( 'NONE', #38, #88, #199, .T. ) ;
#246 = LINE ( 'NONE', #132, #80 ) ;
#247 = LINE ( 'NONE', #216, #19 ) ;
#248 = SECURITY_CLASSIFICATION ( '', '', #156 ) ;
#249 = EDGE_CURVE ( 'NONE', #229, #143, #75, .T. ) ;
#250 = CARTESIAN_POINT ( 'NONE',  ( 106.8277310924369630, 0.000000000000000000, 10.44999999999999929 ) ) ;
#251 = ADVANCED_FACE ( 'NONE', ( #147 ), #222, .T. ) ;
#252 = DIRECTION ( 'NONE',  ( 0.000000000000000000, 0.000000000000000000, -1.000000000000000000 ) ) ;
#253 = ORIENTED_EDGE ( 'NONE', *, *, #73, .T. ) ;
#254 = CARTESIAN_POINT ( 'NONE',  ( 106.8277310924369630, 0.000000000000000000, 10.44999999999999929 ) ) ;
#255 = ORIENTED_EDGE ( 'NONE', *, *, #101, .T. ) ;
#256 =( NAMED_UNIT ( * ) PLANE_ANGLE_UNIT ( ) SI_UNIT ( $, .RADIAN. ) );
#257 = ORIENTED_EDGE ( 'NONE', *, *, #64, .F. ) ;
#258 = CARTESIAN_POINT ( 'NONE',  ( 106.8277310924369630, 0.000000000000000000, 13.34999999999999964 ) ) ;
#259 = ORIENTED_EDGE ( 'NONE', *, *, #54, .F. ) ;
#260 = DATE_AND_TIME ( #233, #84 ) ;
#261 = ORIENTED_EDGE ( 'NONE', *, *, #162, .T. ) ;
#262 = EDGE_CURVE ( 'NONE', #169, #33, #86, .T. ) ;
#263 = APPROVAL_DATE_TIME ( #120, #138 ) ;
#264 = AXIS2_PLACEMENT_3D ( 'NONE', #26, #141, #6 ) ;
#265 = PLANE ( 'NONE',  #167 ) ;
#266 = EDGE_CURVE ( 'NONE', #330, #328, #209, .T. ) ;
#267 = DIRECTION ( 'NONE',  ( 1.000000000000000000, 0.000000000000000000, 0.000000000000000000 ) ) ;
#268 = DIRECTION ( 'NONE',  ( 0.000000000000000000, 0.000000000000000000, 1.000000000000000000 ) ) ;
#269 = DIRECTION ( 'NONE',  ( -1.000000000000000000, -0.000000000000000000, -0.000000000000000000 ) ) ;
#270 = CARTESIAN_POINT ( 'NONE',  ( 0.000000000000000000, 0.000000000000000000, -12.34999999999999964 ) ) ;
#271 = EDGE_CURVE ( 'NONE', #275, #228, #59, .T. ) ;
#272 = CARTESIAN_POINT ( 'NONE',  ( 120.0000000000000000, 10.44999999999999929, -8.307827634225450453 ) ) ;
#273 = ORIENTED_EDGE ( 'NONE', *, *, #22, .T. ) ;
#274 = DIRECTION ( 'NONE',  ( 0.000000000000000000, 0.000000000000000000, -1.000000000000000000 ) ) ;
#275 = VERTEX_POINT ( 'NONE', #272 ) ;
#276 =( BOUNDED_CURVE ( )  B_SPLINE_CURVE ( 3, ( #254, #175, #230, #170 ),
 .UNSPECIFIED., .F., .F. ) 
 B_SPLINE_CURVE_WITH_KNOTS ( ( 4, 4 ),
 ( 1.570796326794896558, 3.141592653589793116 ),
 .UNSPECIFIED. ) 
 CURVE ( )  GEOMETRIC_REPRESENTATION_ITEM ( )  RATIONAL_B_SPLINE_CURVE ( ( 1.000000000000000000, 0.8047378541243649375, 0.8047378541243649375, 1.000000000000000000 ) ) 
 REPRESENTATION_ITEM ( '' )  );
#277 = CARTESIAN_POINT ( 'NONE',  ( 73.17226890756303703, -26.69999999999999929, 13.35000000000000142 ) ) ;
#278 = ORIENTED_EDGE ( 'NONE', *, *, #322, .T. ) ;
#279 = LOCAL_TIME ( 13, 50, 59.00000000000000000, #102 ) ;
#280 = DIRECTION ( 'NONE',  ( 0.7071067811865482389, 0.000000000000000000, -0.7071067811865469066 ) ) ;
#281 = ORIENTED_EDGE ( 'NONE', *, *, #131, .F. ) ;
#282 = APPROVAL_ROLE ( '' ) ;
#283 = ORIENTED_EDGE ( 'NONE', *, *, #295, .F. ) ;
#284 = APPROVAL_ROLE ( '' ) ;
#285 = DIRECTION ( 'NONE',  ( 0.000000000000000000, 0.000000000000000000, -1.000000000000000000 ) ) ;
#286 = APPROVAL ( #39, 'UNSPECIFIED' ) ;
#287 = CIRCLE ( 'NONE', #34, 10.44999999999999929 ) ;
#288 = PERSON_AND_ORGANIZATION_ROLE ( 'creator' ) ;
#289 = AXIS2_PLACEMENT_3D ( 'NONE', #93, #178, #274 ) ;
#290 = DATE_TIME_ROLE ( 'classification_date' ) ;
#291 = CARTESIAN_POINT ( 'NONE',  ( 1.000000000000000888, 0.000000000000000000, 0.000000000000000000 ) ) ;
#292 = DIRECTION ( 'NONE',  ( 1.000000000000000000, 0.000000000000000000, 0.000000000000000000 ) ) ;
#293 = CC_DESIGN_PERSON_AND_ORGANIZATION_ASSIGNMENT ( #42, #342, ( #248 ) ) ;
#294 = CARTESIAN_POINT ( 'NONE',  ( 0.000000000000000000, 1.573671136904348863E-15, 12.34999999999999964 ) ) ;
#295 = EDGE_CURVE ( 'NONE', #200, #13, #41, .T. ) ;
#296 = DIRECTION ( 'NONE',  ( -1.000000000000000000, -0.000000000000000000, -0.000000000000000000 ) ) ;
#297 = FACE_OUTER_BOUND ( 'NONE', #308, .T. ) ;
#298 = CARTESIAN_POINT ( 'NONE',  ( 120.0000000000000000, 0.000000000000000000, 0.000000000000000000 ) ) ;
#299 = FACE_BOUND ( 'NONE', #99, .T. ) ;
#300 =( BOUNDED_CURVE ( )  B_SPLINE_CURVE ( 3, ( #72, #161, #103, #239 ),
 .UNSPECIFIED., .F., .T. ) 
 B_SPLINE_CURVE_WITH_KNOTS ( ( 4, 4 ),
 ( 3.141592653589793116, 4.712388980384689674 ),
 .UNSPECIFIED. ) 
 CURVE ( )  GEOMETRIC_REPRESENTATION_ITEM ( )  RATIONAL_B_SPLINE_CURVE ( ( 1.000000000000000000, 0.8047378541243649375, 0.8047378541243649375, 1.000000000000000000 ) ) 
 REPRESENTATION_ITEM ( '' )  );
#301 = EDGE_CURVE ( 'NONE', #328, #171, #276, .T. ) ;
#302 = ORIENTED_EDGE ( 'NONE', *, *, #64, .T. ) ;
#303 = CC_DESIGN_APPROVAL ( #286, ( #123 ) ) ;
#304 =( LENGTH_UNIT ( ) NAMED_UNIT ( * ) SI_UNIT ( .MILLI., .METRE. ) );
#305 = ORIENTED_EDGE ( 'NONE', *, *, #271, .T. ) ;
#306 = ORIENTED_EDGE ( 'NONE', *, *, #266, .F. ) ;
#307 = APPLICATION_PROTOCOL_DEFINITION ( 'international standard', 'config_control_design', 1994, #57 ) ;
#308 = EDGE_LOOP ( 'NONE', ( #206, #117, #121, #335 ) ) ;
#309 = CLOSED_SHELL ( 'NONE', ( #95, #151, #237, #60, #251, #76, #190, #126, #214 ) ) ;
#310 = DIRECTION ( 'NONE',  ( 1.000000000000000000, -0.000000000000000000, -0.000000000000000000 ) ) ;
#311 = ORIENTED_EDGE ( 'NONE', *, *, #240, .F. ) ;
#312 = APPLICATION_CONTEXT ( 'configuration controlled 3d designs of mechanical parts and assemblies' ) ;
#313 = PERSON_AND_ORGANIZATION_ROLE ( 'creator' ) ;
#314 = CARTESIAN_POINT ( 'NONE',  ( 120.0000000000000000, 10.44999999999999929, 8.307827634225448676 ) ) ;
#315 =( BOUNDED_CURVE ( )  B_SPLINE_CURVE ( 3, ( #90, #201, #277, #96 ),
 .UNSPECIFIED., .F., .F. ) 
 B_SPLINE_CURVE_WITH_KNOTS ( ( 4, 4 ),
 ( 4.712388980384689674, 7.853981633974482790 ),
 .UNSPECIFIED. ) 
 CURVE ( )  GEOMETRIC_REPRESENTATION_ITEM ( )  RATIONAL_B_SPLINE_CURVE ( ( 1.000000000000000000, 0.3333333333333333703, 0.3333333333333333703, 1.000000000000000000 ) ) 
 REPRESENTATION_ITEM ( '' )  );
#316 = DIRECTION ( 'NONE',  ( 0.000000000000000000, 0.000000000000000000, -1.000000000000000000 ) ) ;
#317 = CC_DESIGN_DATE_AND_TIME_ASSIGNMENT ( #129, #152, ( #123 ) ) ;
#318 = APPROVAL_DATE_TIME ( #260, #286 ) ;
#319 = CALENDAR_DATE ( 2026, 4, 3 ) ;
#320 = CARTESIAN_POINT ( 'NONE',  ( 0.000000000000000000, 0.000000000000000000, 0.000000000000000000 ) ) ;
#321 = AXIS2_PLACEMENT_3D ( 'NONE', #320, #17, #49 ) ;
#322 = EDGE_CURVE ( 'NONE', #275, #33, #116, .T. ) ;
#323 = CARTESIAN_POINT ( 'NONE',  ( 1.000000000000000888, 0.000000000000000000, 0.000000000000000000 ) ) ;
#324 = DIRECTION ( 'NONE',  ( 1.000000000000000000, 0.000000000000000000, 0.000000000000000000 ) ) ;
#325 = CYLINDRICAL_SURFACE ( 'NONE', #50, 10.44999999999999929 ) ;
#326 = CIRCLE ( 'NONE', #321, 12.34999999999999964 ) ;
#327 = DIRECTION ( 'NONE',  ( -1.000000000000000000, -0.000000000000000000, -0.000000000000000000 ) ) ;
#328 = VERTEX_POINT ( 'NONE', #250 ) ;
#329 = CARTESIAN_POINT ( 'NONE',  ( 80.48319327731093153, -20.89999999999998792, -10.45000000000000462 ) ) ;
#330 = VERTEX_POINT ( 'NONE', #30 ) ;
#331 = VECTOR ( 'NONE', #343, 1000.000000000000000 ) ;
#332 = APPROVAL_PERSON_ORGANIZATION ( #45, #135, #37 ) ;
#333 = AXIS2_PLACEMENT_3D ( 'NONE', #155, #186, #292 ) ;
#334 = CARTESIAN_POINT ( 'NONE',  ( 116.7509373357274285, 7.872410286343785479, 11.55004854847997464 ) ) ;
#335 = ORIENTED_EDGE ( 'NONE', *, *, #245, .F. ) ;
#336 = ORIENTED_EDGE ( 'NONE', *, *, #185, .T. ) ;
#337 = CARTESIAN_POINT ( 'NONE',  ( 0.000000000000000000, 0.000000000000000000, 0.000000000000000000 ) ) ;
#338 = ORIENTED_EDGE ( 'NONE', *, *, #27, .F. ) ;
#339 = PERSON ( 'UNSPECIFIED', 'UNSPECIFIED', 'UNSPECIFIED', ('UNSPECIFIED'), ('UNSPECIFIED'), ('UNSPECIFIED') ) ;
#340 = AXIS2_PLACEMENT_3D ( 'NONE', #51, #296, #268 ) ;
#341 = SHAPE_DEFINITION_REPRESENTATION ( #111, #44 ) ;
#342 = PERSON_AND_ORGANIZATION_ROLE ( 'classification_officer' ) ;
#343 = DIRECTION ( 'NONE',  ( -1.000000000000000000, -0.000000000000000000, -0.000000000000000000 ) ) ;
#344 = VECTOR ( 'NONE', #215, 1000.000000000000000 ) ;
#345 = CARTESIAN_POINT ( 'NONE',  ( 120.0000000000000000, 0.000000000000000000, 0.000000000000000000 ) ) ;
#346 = UNCERTAINTY_MEASURE_WITH_UNIT (LENGTH_MEASURE( 1.000000000000000082E-05 ), #304, 'distance_accuracy_value', 'NONE');
#347 = CARTESIAN_POINT ( 'NONE',  ( 1.000000000000000888, 0.000000000000000000, 0.000000000000000000 ) ) ;
#348 = DIRECTION ( 'NONE',  ( 0.000000000000000000, -0.000000000000000000, 1.000000000000000000 ) ) ;
#349 = EDGE_CURVE ( 'NONE', #228, #169, #315, .T. ) ;
ENDSEC;
END-ISO-10303-21;
