ISO-10303-21;
HEADER;
FILE_DESCRIPTION (( 'STEP AP203' ),
    '1' );
FILE_NAME ('4229-10-20_REV_.step',
    '2026-01-09T02:54:14',
    ( '' ),
    ( '' ),
    'SwSTEP 2.0',
    'SolidWorks 2025',
    '' );
FILE_SCHEMA (( 'CONFIG_CONTROL_DESIGN' ));
ENDSEC;

DATA;
#1 = ORIENTED_EDGE ( 'NONE', *, *, #89, .F. ) ;
#2 = PRODUCT_DEFINITION_SHAPE ( 'NONE', 'NONE',  #53 ) ;
#3 = ORIENTED_EDGE ( 'NONE', *, *, #318, .T. ) ;
#4 = VERTEX_POINT ( 'NONE', #99 ) ;
#5 = APPROVAL_DATE_TIME ( #327, #375 ) ;
#6 = EDGE_CURVE ( 'NONE', #4, #361, #38, .T. ) ;
#7 = LOCAL_TIME ( 13, 54, 14.00000000000000000, #376 ) ;
#8 = CARTESIAN_POINT ( 'NONE',  ( 105.0000000000000000, 0.000000000000000000, 0.000000000000000000 ) ) ;
#9 = CALENDAR_DATE ( 2026, 9, 1 ) ;
#10 = CC_DESIGN_DATE_AND_TIME_ASSIGNMENT ( #146, #207, ( #170 ) ) ;
#11 = DIRECTION ( 'NONE',  ( 1.000000000000000000, 0.000000000000000000, -0.000000000000000000 ) ) ;
#12 = ORIENTED_EDGE ( 'NONE', *, *, #74, .T. ) ;
#13 = CARTESIAN_POINT ( 'NONE',  ( 105.0000000000000000, -24.99999999999999289, 28.49999999999999645 ) ) ;
#14 = FACE_OUTER_BOUND ( 'NONE', #62, .T. ) ;
#15 = CARTESIAN_POINT ( 'NONE',  ( -84.00000000000000000, 25.00000000000000711, -6.999999999999992006 ) ) ;
#16 = EDGE_LOOP ( 'NONE', ( #182, #328, #55, #267 ) ) ;
#17 = ADVANCED_FACE ( 'NONE', ( #337 ), #364, .F. ) ;
#18 = DIRECTION ( 'NONE',  ( 0.000000000000000000, 0.000000000000000000, 1.000000000000000000 ) ) ;
#19 = DIRECTION ( 'NONE',  ( -0.000000000000000000, 1.000000000000000000, -0.000000000000000000 ) ) ;
#20 = PERSON_AND_ORGANIZATION ( #244, #43 ) ;
#21 = DIRECTION ( 'NONE',  ( -1.000000000000000000, -0.000000000000000000, -0.000000000000000000 ) ) ;
#22 = CARTESIAN_POINT ( 'NONE',  ( 84.00000000000000000, 25.00000000000000711, -3.086109933851330151E-14 ) ) ;
#23 = EDGE_CURVE ( 'NONE', #246, #60, #142, .T. ) ;
#24 = DIRECTION ( 'NONE',  ( -0.000000000000000000, 1.000000000000000000, -0.000000000000000000 ) ) ;
#25 = PERSON_AND_ORGANIZATION ( #244, #43 ) ;
#26 = CARTESIAN_POINT ( 'NONE',  ( -105.0000000000000000, 25.00000000000000711, 28.49999999999999645 ) ) ;
#27 = DIRECTION ( 'NONE',  ( 0.000000000000000000, 0.000000000000000000, 1.000000000000000000 ) ) ;
#28 = VECTOR ( 'NONE', #141, 1000.000000000000000 ) ;
#29 = ORIENTED_EDGE ( 'NONE', *, *, #31, .T. ) ;
#30 = ORIENTED_EDGE ( 'NONE', *, *, #219, .T. ) ;
#31 = EDGE_CURVE ( 'NONE', #297, #186, #223, .T. ) ;
#32 = VERTEX_POINT ( 'NONE', #40 ) ;
#33 = CIRCLE ( 'NONE', #96, 6.999999999999992006 ) ;
#34 = ORIENTED_EDGE ( 'NONE', *, *, #277, .F. ) ;
#35 = ORIENTED_EDGE ( 'NONE', *, *, #249, .T. ) ;
#36 = ORIENTED_EDGE ( 'NONE', *, *, #23, .F. ) ;
#37 =( NAMED_UNIT ( * ) PLANE_ANGLE_UNIT ( ) SI_UNIT ( $, .RADIAN. ) );
#38 = LINE ( 'NONE', #282, #232 ) ;
#39 = LINE ( 'NONE', #311, #116 ) ;
#40 = CARTESIAN_POINT ( 'NONE',  ( 105.0000000000000000, -24.99999999999999289, 28.49999999999999645 ) ) ;
#41 = DIRECTION ( 'NONE',  ( 0.000000000000000000, -0.000000000000000000, 1.000000000000000000 ) ) ;
#42 = ORIENTED_EDGE ( 'NONE', *, *, #162, .F. ) ;
#43 = ORGANIZATION ( 'UNSPECIFIED', 'UNSPECIFIED', '' ) ;
#44 = EDGE_CURVE ( 'NONE', #361, #88, #216, .T. ) ;
#45 = CALENDAR_DATE ( 2026, 9, 1 ) ;
#46 = CARTESIAN_POINT ( 'NONE',  ( 105.0000000000000000, 25.00000000000000711, 28.49999999999999645 ) ) ;
#47 = DATE_AND_TIME ( #291, #105 ) ;
#48 = CARTESIAN_POINT ( 'NONE',  ( -84.00000000000000000, 25.00000000000000711, -6.999999999999992006 ) ) ;
#49 = CYLINDRICAL_SURFACE ( 'NONE', #200, 6.999999999999992006 ) ;
#50 = VECTOR ( 'NONE', #203, 1000.000000000000000 ) ;
#51 = DIRECTION ( 'NONE',  ( -0.000000000000000000, 1.000000000000000000, -0.000000000000000000 ) ) ;
#52 = LINE ( 'NONE', #46, #238 ) ;
#53 = PRODUCT_DEFINITION ( 'UNKNOWN', '', #72, #262 ) ;
#54 = APPROVAL_PERSON_ORGANIZATION ( #20, #353, #101 ) ;
#55 = ORIENTED_EDGE ( 'NONE', *, *, #86, .T. ) ;
#56 = PRODUCT ( '4229-10-20_REV_', '4229-10-20_REV_', '', ( #373 ) ) ;
#57 = ORIENTED_EDGE ( 'NONE', *, *, #169, .F. ) ;
#58 = VECTOR ( 'NONE', #221, 1000.000000000000000 ) ;
#59 = APPROVAL_PERSON_ORGANIZATION ( #25, #271, #137 ) ;
#60 = VERTEX_POINT ( 'NONE', #69 ) ;
#61 = DIRECTION ( 'NONE',  ( 0.000000000000000000, 0.000000000000000000, 1.000000000000000000 ) ) ;
#62 = EDGE_LOOP ( 'NONE', ( #195, #118, #100, #30 ) ) ;
#63 = PLANE ( 'NONE',  #251 ) ;
#64 = CARTESIAN_POINT ( 'NONE',  ( 105.0000000000000000, -24.99999999999999289, -28.50000000000000355 ) ) ;
#65 = AXIS2_PLACEMENT_3D ( 'NONE', #13, #220, #41 ) ;
#66 = PLANE ( 'NONE',  #168 ) ;
#67 = DIRECTION ( 'NONE',  ( 0.000000000000000000, -0.000000000000000000, -1.000000000000000000 ) ) ;
#68 = ADVANCED_FACE ( 'NONE', ( #14 ), #368, .F. ) ;
#69 = CARTESIAN_POINT ( 'NONE',  ( 84.00000000000000000, 25.00000000000000711, -7.000000000000023981 ) ) ;
#70 = PERSON_AND_ORGANIZATION ( #244, #43 ) ;
#71 = CARTESIAN_POINT ( 'NONE',  ( 84.00000000000000000, 25.00000000000000711, 6.999999999999960920 ) ) ;
#72 = PRODUCT_DEFINITION_FORMATION_WITH_SPECIFIED_SOURCE ( 'ANY', '', #56, .NOT_KNOWN. ) ;
#73 = LINE ( 'NONE', #26, #382 ) ;
#74 = EDGE_CURVE ( 'NONE', #4, #372, #214, .T. ) ;
#75 = APPROVAL_DATE_TIME ( #47, #353 ) ;
#76 = LINE ( 'NONE', #315, #356 ) ;
#77 = PERSON_AND_ORGANIZATION_ROLE ( 'design_owner' ) ;
#78 = CARTESIAN_POINT ( 'NONE',  ( 84.00000000000000000, -24.99999999999999289, -3.086109933851330151E-14 ) ) ;
#79 = ADVANCED_FACE ( 'NONE', ( #254, #369, #155 ), #66, .F. ) ;
#80 = DATE_AND_TIME ( #231, #7 ) ;
#81 = CARTESIAN_POINT ( 'NONE',  ( -84.00000000000000000, 25.00000000000000711, 0.000000000000000000 ) ) ;
#82 = APPROVAL_ROLE ( '' ) ;
#83 = ORIENTED_EDGE ( 'NONE', *, *, #44, .F. ) ;
#84 = LOCAL_TIME ( 13, 54, 14.00000000000000000, #113 ) ;
#85 = ORIENTED_EDGE ( 'NONE', *, *, #86, .F. ) ;
#86 = EDGE_CURVE ( 'NONE', #237, #246, #39, .T. ) ;
#87 = EDGE_LOOP ( 'NONE', ( #273, #3 ) ) ;
#88 = VERTEX_POINT ( 'NONE', #285 ) ;
#89 = EDGE_CURVE ( 'NONE', #60, #246, #110, .T. ) ;
#90 = CARTESIAN_POINT ( 'NONE',  ( -84.00000000000000000, -24.99999999999999289, 0.000000000000000000 ) ) ;
#91 = VERTEX_POINT ( 'NONE', #374 ) ;
#92 = PLANE ( 'NONE',  #65 ) ;
#93 = DIRECTION ( 'NONE',  ( 0.000000000000000000, 0.000000000000000000, 1.000000000000000000 ) ) ;
#94 = FACE_BOUND ( 'NONE', #252, .T. ) ;
#95 = DIRECTION ( 'NONE',  ( 0.000000000000000000, 0.000000000000000000, 1.000000000000000000 ) ) ;
#96 = AXIS2_PLACEMENT_3D ( 'NONE', #90, #158, #61 ) ;
#97 = DIRECTION ( 'NONE',  ( 0.000000000000000000, -1.000000000000000000, 0.000000000000000000 ) ) ;
#98 = CARTESIAN_POINT ( 'NONE',  ( 105.0000000000000000, 25.00000000000000711, -28.50000000000000355 ) ) ;
#99 = CARTESIAN_POINT ( 'NONE',  ( 105.0000000000000000, -24.99999999999999289, -28.50000000000000355 ) ) ;
#100 = ORIENTED_EDGE ( 'NONE', *, *, #218, .T. ) ;
#101 = APPROVAL_ROLE ( '' ) ;
#102 = ADVANCED_FACE ( 'NONE', ( #230 ), #266, .F. ) ;
#103 = AXIS2_PLACEMENT_3D ( 'NONE', #313, #151, #343 ) ;
#104 = DIRECTION ( 'NONE',  ( -0.000000000000000000, 1.000000000000000000, -0.000000000000000000 ) ) ;
#105 = LOCAL_TIME ( 13, 54, 14.00000000000000000, #224 ) ;
#106 = DIRECTION ( 'NONE',  ( -0.000000000000000000, -1.000000000000000000, -0.000000000000000000 ) ) ;
#107 = FACE_OUTER_BOUND ( 'NONE', #354, .T. ) ;
#108 = APPROVAL_STATUS ( 'not_yet_approved' ) ;
#109 = CARTESIAN_POINT ( 'NONE',  ( -105.0000000000000000, -24.99999999999999289, 28.49999999999999645 ) ) ;
#110 = CIRCLE ( 'NONE', #152, 6.999999999999992006 ) ;
#111 = PERSON_AND_ORGANIZATION ( #244, #43 ) ;
#112 = DIRECTION ( 'NONE',  ( 0.000000000000000000, 0.000000000000000000, 1.000000000000000000 ) ) ;
#113 = COORDINATED_UNIVERSAL_TIME_OFFSET ( 10, 0, .AHEAD. ) ;
#114 = EDGE_LOOP ( 'NONE', ( #241, #274 ) ) ;
#115 = VERTEX_POINT ( 'NONE', #294 ) ;
#116 = VECTOR ( 'NONE', #161, 1000.000000000000000 ) ;
#117 = APPLICATION_CONTEXT ( 'configuration controlled 3d designs of mechanical parts and assemblies' ) ;
#118 = ORIENTED_EDGE ( 'NONE', *, *, #44, .T. ) ;
#119 = ORIENTED_EDGE ( 'NONE', *, *, #89, .T. ) ;
#120 = ORIENTED_EDGE ( 'NONE', *, *, #169, .T. ) ;
#121 = LOCAL_TIME ( 13, 54, 14.00000000000000000, #348 ) ;
#122 = DIRECTION ( 'NONE',  ( 0.000000000000000000, 0.000000000000000000, 1.000000000000000000 ) ) ;
#123 = APPROVAL_STATUS ( 'not_yet_approved' ) ;
#124 = CARTESIAN_POINT ( 'NONE',  ( -84.00000000000000000, -24.99999999999999289, 0.000000000000000000 ) ) ;
#125 = EDGE_LOOP ( 'NONE', ( #57, #325, #309, #210 ) ) ;
#126 = PRODUCT_RELATED_PRODUCT_CATEGORY ( 'detail', '', ( #56 ) ) ;
#127 = DIRECTION ( 'NONE',  ( -1.000000000000000000, 0.000000000000000000, 0.000000000000000000 ) ) ;
#128 = CIRCLE ( 'NONE', #225, 6.999999999999992006 ) ;
#129 = ORIENTED_EDGE ( 'NONE', *, *, #162, .T. ) ;
#130 = EDGE_CURVE ( 'NONE', #331, #334, #73, .T. ) ;
#131 = DIRECTION ( 'NONE',  ( 1.000000000000000000, 0.000000000000000000, 0.000000000000000000 ) ) ;
#132 = DIRECTION ( 'NONE',  ( 0.000000000000000000, 0.000000000000000000, 1.000000000000000000 ) ) ;
#133 = LINE ( 'NONE', #176, #272 ) ;
#134 = AXIS2_PLACEMENT_3D ( 'NONE', #8, #127, #122 ) ;
#135 = CARTESIAN_POINT ( 'NONE',  ( -84.00000000000000000, 25.00000000000000711, 6.999999999999992006 ) ) ;
#136 = CIRCLE ( 'NONE', #324, 6.999999999999992006 ) ;
#137 = APPROVAL_ROLE ( '' ) ;
#138 = EDGE_CURVE ( 'NONE', #32, #91, #76, .T. ) ;
#139 = DIRECTION ( 'NONE',  ( 0.000000000000000000, 0.000000000000000000, 1.000000000000000000 ) ) ;
#140 = DIRECTION ( 'NONE',  ( 0.000000000000000000, 1.000000000000000000, 0.000000000000000000 ) ) ;
#141 = DIRECTION ( 'NONE',  ( -0.000000000000000000, -1.000000000000000000, -0.000000000000000000 ) ) ;
#142 = CIRCLE ( 'NONE', #317, 6.999999999999992006 ) ;
#143 = VECTOR ( 'NONE', #256, 1000.000000000000000 ) ;
#144 = PERSON_AND_ORGANIZATION_ROLE ( 'design_supplier' ) ;
#145 = ORIENTED_EDGE ( 'NONE', *, *, #277, .T. ) ;
#146 = DATE_AND_TIME ( #9, #206 ) ;
#147 = ORIENTED_EDGE ( 'NONE', *, *, #175, .T. ) ;
#148 = ORIENTED_EDGE ( 'NONE', *, *, #226, .T. ) ;
#149 = ORIENTED_EDGE ( 'NONE', *, *, #130, .T. ) ;
#150 = DIRECTION ( 'NONE',  ( -0.000000000000000000, 1.000000000000000000, -0.000000000000000000 ) ) ;
#151 = DIRECTION ( 'NONE',  ( 0.000000000000000000, 0.000000000000000000, -1.000000000000000000 ) ) ;
#152 = AXIS2_PLACEMENT_3D ( 'NONE', #345, #19, #132 ) ;
#153 = CC_DESIGN_SECURITY_CLASSIFICATION ( #170, ( #72 ) ) ;
#154 =( NAMED_UNIT ( * ) SI_UNIT ( $, .STERADIAN. ) SOLID_ANGLE_UNIT ( ) );
#155 = FACE_OUTER_BOUND ( 'NONE', #269, .T. ) ;
#156 = LINE ( 'NONE', #187, #160 ) ;
#157 = ORIENTED_EDGE ( 'NONE', *, *, #202, .F. ) ;
#158 = DIRECTION ( 'NONE',  ( -0.000000000000000000, 1.000000000000000000, -0.000000000000000000 ) ) ;
#159 = DIRECTION ( 'NONE',  ( -0.000000000000000000, 1.000000000000000000, -0.000000000000000000 ) ) ;
#160 = VECTOR ( 'NONE', #336, 1000.000000000000000 ) ;
#161 = DIRECTION ( 'NONE',  ( -0.000000000000000000, 1.000000000000000000, -0.000000000000000000 ) ) ;
#162 = EDGE_CURVE ( 'NONE', #299, #297, #227, .T. ) ;
#163 = DATE_TIME_ROLE ( 'creation_date' ) ;
#164 = DIRECTION ( 'NONE',  ( -0.000000000000000000, 1.000000000000000000, -0.000000000000000000 ) ) ;
#165 = DATE_AND_TIME ( #45, #121 ) ;
#166 = DIRECTION ( 'NONE',  ( 0.000000000000000000, 0.000000000000000000, -1.000000000000000000 ) ) ;
#167 = PERSON_AND_ORGANIZATION_ROLE ( 'creator' ) ;
#168 = AXIS2_PLACEMENT_3D ( 'NONE', #193, #97, #67 ) ;
#169 = EDGE_CURVE ( 'NONE', #372, #331, #133, .T. ) ;
#170 = SECURITY_CLASSIFICATION ( '', '', #362 ) ;
#171 = DIRECTION ( 'NONE',  ( 0.000000000000000000, 0.000000000000000000, 1.000000000000000000 ) ) ;
#172 =( GEOMETRIC_REPRESENTATION_CONTEXT ( 3 ) GLOBAL_UNCERTAINTY_ASSIGNED_CONTEXT ( ( #270 ) ) GLOBAL_UNIT_ASSIGNED_CONTEXT ( ( #212, #37, #154 ) ) REPRESENTATION_CONTEXT ( 'NONE', 'WORKASPACE' ) );
#173 = CC_DESIGN_PERSON_AND_ORGANIZATION_ASSIGNMENT ( #111, #181, ( #170 ) ) ;
#174 = LINE ( 'NONE', #381, #185 ) ;
#175 = EDGE_CURVE ( 'NONE', #91, #372, #352, .T. ) ;
#176 = CARTESIAN_POINT ( 'NONE',  ( -105.0000000000000000, -24.99999999999999289, -28.50000000000000355 ) ) ;
#177 = ADVANCED_BREP_SHAPE_REPRESENTATION ( '4229-10-20_REV_', ( #300, #292 ), #172 ) ;
#178 = CC_DESIGN_PERSON_AND_ORGANIZATION_ASSIGNMENT ( #257, #77, ( #56 ) ) ;
#179 = ADVANCED_FACE ( 'NONE', ( #383 ), #290, .F. ) ;
#180 = VECTOR ( 'NONE', #166, 1000.000000000000000 ) ;
#181 = PERSON_AND_ORGANIZATION_ROLE ( 'classification_officer' ) ;
#182 = ORIENTED_EDGE ( 'NONE', *, *, #242, .F. ) ;
#183 = ORIENTED_EDGE ( 'NONE', *, *, #367, .T. ) ;
#184 = EDGE_LOOP ( 'NONE', ( #120, #157, #346, #12 ) ) ;
#185 = VECTOR ( 'NONE', #378, 1000.000000000000000 ) ;
#186 = VERTEX_POINT ( 'NONE', #135 ) ;
#187 = CARTESIAN_POINT ( 'NONE',  ( -84.00000000000000000, 25.00000000000000711, 6.999999999999992006 ) ) ;
#188 = ORIENTED_EDGE ( 'NONE', *, *, #219, .F. ) ;
#189 = CARTESIAN_POINT ( 'NONE',  ( -105.0000000000000000, 25.00000000000000711, 28.49999999999999645 ) ) ;
#190 = ORIENTED_EDGE ( 'NONE', *, *, #74, .F. ) ;
#191 = AXIS2_PLACEMENT_3D ( 'NONE', #22, #377, #233 ) ;
#192 = DIRECTION ( 'NONE',  ( 0.000000000000000000, 0.000000000000000000, 1.000000000000000000 ) ) ;
#193 = CARTESIAN_POINT ( 'NONE',  ( 105.0000000000000000, 25.00000000000000711, 28.49999999999999645 ) ) ;
#194 = VERTEX_POINT ( 'NONE', #259 ) ;
#195 = ORIENTED_EDGE ( 'NONE', *, *, #6, .T. ) ;
#196 = DIRECTION ( 'NONE',  ( -0.000000000000000000, 1.000000000000000000, -0.000000000000000000 ) ) ;
#197 = DIRECTION ( 'NONE',  ( -1.000000000000000000, -0.000000000000000000, -0.000000000000000000 ) ) ;
#198 = PERSON_AND_ORGANIZATION_ROLE ( 'creator' ) ;
#199 = CARTESIAN_POINT ( 'NONE',  ( -105.0000000000000000, -24.99999999999999289, 28.49999999999999645 ) ) ;
#200 = AXIS2_PLACEMENT_3D ( 'NONE', #81, #164, #112 ) ;
#201 = CARTESIAN_POINT ( 'NONE',  ( 84.00000000000000000, 25.00000000000000711, -3.086109933851330151E-14 ) ) ;
#202 = EDGE_CURVE ( 'NONE', #361, #331, #174, .T. ) ;
#203 = DIRECTION ( 'NONE',  ( -0.000000000000000000, 1.000000000000000000, -0.000000000000000000 ) ) ;
#204 = SHAPE_DEFINITION_REPRESENTATION ( #2, #177 ) ;
#205 = AXIS2_PLACEMENT_3D ( 'NONE', #347, #104, #27 ) ;
#206 = LOCAL_TIME ( 13, 54, 14.00000000000000000, #355 ) ;
#207 = DATE_TIME_ROLE ( 'classification_date' ) ;
#208 = EDGE_LOOP ( 'NONE', ( #148, #298, #284, #145 ) ) ;
#209 = ORIENTED_EDGE ( 'NONE', *, *, #341, .F. ) ;
#210 = ORIENTED_EDGE ( 'NONE', *, *, #130, .F. ) ;
#211 = CIRCLE ( 'NONE', #351, 6.999999999999992006 ) ;
#212 =( LENGTH_UNIT ( ) NAMED_UNIT ( * ) SI_UNIT ( .MILLI., .METRE. ) );
#213 = CC_DESIGN_PERSON_AND_ORGANIZATION_ASSIGNMENT ( #260, #198, ( #72 ) ) ;
#214 = LINE ( 'NONE', #64, #323 ) ;
#215 = FACE_OUTER_BOUND ( 'NONE', #125, .T. ) ;
#216 = LINE ( 'NONE', #279, #58 ) ;
#217 = DIRECTION ( 'NONE',  ( 0.000000000000000000, 1.000000000000000000, 0.000000000000000000 ) ) ;
#218 = EDGE_CURVE ( 'NONE', #88, #32, #380, .T. ) ;
#219 = EDGE_CURVE ( 'NONE', #32, #4, #228, .T. ) ;
#220 = DIRECTION ( 'NONE',  ( -0.000000000000000000, 1.000000000000000000, 0.000000000000000000 ) ) ;
#221 = DIRECTION ( 'NONE',  ( -0.000000000000000000, -0.000000000000000000, 1.000000000000000000 ) ) ;
#222 = APPROVAL_DATE_TIME ( #80, #271 ) ;
#223 = CIRCLE ( 'NONE', #340, 6.999999999999992006 ) ;
#224 = COORDINATED_UNIVERSAL_TIME_OFFSET ( 10, 0, .AHEAD. ) ;
#225 = AXIS2_PLACEMENT_3D ( 'NONE', #124, #342, #305 ) ;
#226 = EDGE_CURVE ( 'NONE', #334, #91, #295, .T. ) ;
#227 = LINE ( 'NONE', #48, #50 ) ;
#228 = LINE ( 'NONE', #321, #296 ) ;
#229 = ADVANCED_FACE ( 'NONE', ( #261 ), #49, .F. ) ;
#230 = FACE_OUTER_BOUND ( 'NONE', #339, .T. ) ;
#231 = CALENDAR_DATE ( 2026, 9, 1 ) ;
#232 = VECTOR ( 'NONE', #217, 1000.000000000000000 ) ;
#233 = DIRECTION ( 'NONE',  ( 0.000000000000000000, 0.000000000000000000, 1.000000000000000000 ) ) ;
#234 = LINE ( 'NONE', #293, #143 ) ;
#235 = CALENDAR_DATE ( 2026, 9, 1 ) ;
#236 = ORIENTED_EDGE ( 'NONE', *, *, #242, .T. ) ;
#237 = VERTEX_POINT ( 'NONE', #322 ) ;
#238 = VECTOR ( 'NONE', #21, 1000.000000000000000 ) ;
#239 = ORIENTED_EDGE ( 'NONE', *, *, #202, .T. ) ;
#240 = APPLICATION_CONTEXT ( 'configuration controlled 3d designs of mechanical parts and assemblies' ) ;
#241 = ORIENTED_EDGE ( 'NONE', *, *, #367, .F. ) ;
#242 = EDGE_CURVE ( 'NONE', #194, #60, #234, .T. ) ;
#243 = FACE_BOUND ( 'NONE', #87, .T. ) ;
#244 = PERSON ( 'UNSPECIFIED', 'UNSPECIFIED', 'UNSPECIFIED', ('UNSPECIFIED'), ('UNSPECIFIED'), ('UNSPECIFIED') ) ;
#245 = EDGE_LOOP ( 'NONE', ( #42, #209, #357, #183 ) ) ;
#246 = VERTEX_POINT ( 'NONE', #71 ) ;
#247 = CARTESIAN_POINT ( 'NONE',  ( -84.00000000000000000, 25.00000000000000711, 0.000000000000000000 ) ) ;
#248 = DIRECTION ( 'NONE',  ( -0.000000000000000000, 1.000000000000000000, -0.000000000000000000 ) ) ;
#249 = EDGE_CURVE ( 'NONE', #237, #194, #370, .T. ) ;
#250 = CLOSED_SHELL ( 'NONE', ( #102, #275, #286, #79, #17, #344, #68, #326, #179, #229 ) ) ;
#251 = AXIS2_PLACEMENT_3D ( 'NONE', #371, #18, #11 ) ;
#252 = EDGE_LOOP ( 'NONE', ( #35, #302 ) ) ;
#253 = CC_DESIGN_PERSON_AND_ORGANIZATION_ASSIGNMENT ( #379, #144, ( #72 ) ) ;
#254 = FACE_BOUND ( 'NONE', #114, .T. ) ;
#255 = APPROVAL_STATUS ( 'not_yet_approved' ) ;
#256 = DIRECTION ( 'NONE',  ( -0.000000000000000000, 1.000000000000000000, -0.000000000000000000 ) ) ;
#257 = PERSON_AND_ORGANIZATION ( #244, #43 ) ;
#258 = AXIS2_PLACEMENT_3D ( 'NONE', #201, #51, #263 ) ;
#259 = CARTESIAN_POINT ( 'NONE',  ( 84.00000000000000000, -24.99999999999999289, -7.000000000000023981 ) ) ;
#260 = PERSON_AND_ORGANIZATION ( #244, #43 ) ;
#261 = FACE_OUTER_BOUND ( 'NONE', #245, .T. ) ;
#262 = DESIGN_CONTEXT ( 'detailed design', #117, 'design' ) ;
#263 = DIRECTION ( 'NONE',  ( 0.000000000000000000, 0.000000000000000000, 1.000000000000000000 ) ) ;
#264 = EDGE_CURVE ( 'NONE', #194, #237, #136, .T. ) ;
#265 = APPROVAL_PERSON_ORGANIZATION ( #335, #375, #82 ) ;
#266 = CYLINDRICAL_SURFACE ( 'NONE', #205, 6.999999999999992006 ) ;
#267 = ORIENTED_EDGE ( 'NONE', *, *, #23, .T. ) ;
#268 = FACE_OUTER_BOUND ( 'NONE', #184, .T. ) ;
#269 = EDGE_LOOP ( 'NONE', ( #149, #34, #83, #239 ) ) ;
#270 = UNCERTAINTY_MEASURE_WITH_UNIT (LENGTH_MEASURE( 1.000000000000000082E-05 ), #212, 'distance_accuracy_value', 'NONE');
#271 = APPROVAL ( #108, 'UNSPECIFIED' ) ;
#272 = VECTOR ( 'NONE', #140, 1000.000000000000000 ) ;
#273 = ORIENTED_EDGE ( 'NONE', *, *, #341, .T. ) ;
#274 = ORIENTED_EDGE ( 'NONE', *, *, #31, .F. ) ;
#275 = ADVANCED_FACE ( 'NONE', ( #107 ), #350, .F. ) ;
#276 = CC_DESIGN_DATE_AND_TIME_ASSIGNMENT ( #165, #163, ( #53 ) ) ;
#277 = EDGE_CURVE ( 'NONE', #88, #334, #52, .T. ) ;
#278 = CARTESIAN_POINT ( 'NONE',  ( -105.0000000000000000, -24.99999999999999289, -28.50000000000000355 ) ) ;
#279 = CARTESIAN_POINT ( 'NONE',  ( 105.0000000000000000, 25.00000000000000711, 28.49999999999999645 ) ) ;
#280 = CC_DESIGN_APPROVAL ( #375, ( #170 ) ) ;
#281 = DIRECTION ( 'NONE',  ( -1.000000000000000000, 0.000000000000000000, 0.000000000000000000 ) ) ;
#282 = CARTESIAN_POINT ( 'NONE',  ( 105.0000000000000000, -24.99999999999999289, -28.50000000000000355 ) ) ;
#283 = CARTESIAN_POINT ( 'NONE',  ( -105.0000000000000000, 0.000000000000000000, 0.000000000000000000 ) ) ;
#284 = ORIENTED_EDGE ( 'NONE', *, *, #218, .F. ) ;
#285 = CARTESIAN_POINT ( 'NONE',  ( 105.0000000000000000, 25.00000000000000711, 28.49999999999999645 ) ) ;
#286 = ADVANCED_FACE ( 'NONE', ( #268 ), #63, .F. ) ;
#287 = CC_DESIGN_APPROVAL ( #271, ( #53 ) ) ;
#288 = CARTESIAN_POINT ( 'NONE',  ( 84.00000000000000000, 25.00000000000000711, -3.086109933851330151E-14 ) ) ;
#289 = CARTESIAN_POINT ( 'NONE',  ( 105.0000000000000000, -24.99999999999999289, 28.49999999999999645 ) ) ;
#290 = CYLINDRICAL_SURFACE ( 'NONE', #191, 6.999999999999992006 ) ;
#291 = CALENDAR_DATE ( 2026, 9, 1 ) ;
#292 = AXIS2_PLACEMENT_3D ( 'NONE', #303, #192, #131 ) ;
#293 = CARTESIAN_POINT ( 'NONE',  ( 84.00000000000000000, 25.00000000000000711, -7.000000000000023981 ) ) ;
#294 = CARTESIAN_POINT ( 'NONE',  ( -84.00000000000000000, -24.99999999999999289, 6.999999999999992006 ) ) ;
#295 = LINE ( 'NONE', #199, #28 ) ;
#296 = VECTOR ( 'NONE', #349, 1000.000000000000000 ) ;
#297 = VERTEX_POINT ( 'NONE', #15 ) ;
#298 = ORIENTED_EDGE ( 'NONE', *, *, #138, .F. ) ;
#299 = VERTEX_POINT ( 'NONE', #308 ) ;
#300 = MANIFOLD_SOLID_BREP ( 'M12 Clearance Hole1', #250 ) ;
#301 = ORIENTED_EDGE ( 'NONE', *, *, #318, .F. ) ;
#302 = ORIENTED_EDGE ( 'NONE', *, *, #264, .T. ) ;
#303 = CARTESIAN_POINT ( 'NONE',  ( 0.000000000000000000, 0.000000000000000000, 0.000000000000000000 ) ) ;
#304 = EDGE_LOOP ( 'NONE', ( #147, #190, #188, #358 ) ) ;
#305 = DIRECTION ( 'NONE',  ( 0.000000000000000000, 0.000000000000000000, 1.000000000000000000 ) ) ;
#306 = DIRECTION ( 'NONE',  ( -1.000000000000000000, -0.000000000000000000, -0.000000000000000000 ) ) ;
#307 = AXIS2_PLACEMENT_3D ( 'NONE', #78, #196, #171 ) ;
#308 = CARTESIAN_POINT ( 'NONE',  ( -84.00000000000000000, -24.99999999999999289, -6.999999999999992006 ) ) ;
#309 = ORIENTED_EDGE ( 'NONE', *, *, #226, .F. ) ;
#310 = DIRECTION ( 'NONE',  ( 0.000000000000000000, 0.000000000000000000, 1.000000000000000000 ) ) ;
#311 = CARTESIAN_POINT ( 'NONE',  ( 84.00000000000000000, 25.00000000000000711, 6.999999999999960920 ) ) ;
#312 = PLANE ( 'NONE',  #360 ) ;
#313 = CARTESIAN_POINT ( 'NONE',  ( 105.0000000000000000, -24.99999999999999289, 28.49999999999999645 ) ) ;
#314 = CARTESIAN_POINT ( 'NONE',  ( 84.00000000000000000, -24.99999999999999289, -3.086109933851330151E-14 ) ) ;
#315 = CARTESIAN_POINT ( 'NONE',  ( 105.0000000000000000, -24.99999999999999289, 28.49999999999999645 ) ) ;
#316 = DIRECTION ( 'NONE',  ( -0.000000000000000000, -0.000000000000000000, 1.000000000000000000 ) ) ;
#317 = AXIS2_PLACEMENT_3D ( 'NONE', #288, #159, #95 ) ;
#318 = EDGE_CURVE ( 'NONE', #299, #115, #33, .T. ) ;
#319 = CC_DESIGN_APPROVAL ( #353, ( #72 ) ) ;
#320 = APPLICATION_PROTOCOL_DEFINITION ( 'international standard', 'config_control_design', 1994, #117 ) ;
#321 = CARTESIAN_POINT ( 'NONE',  ( 105.0000000000000000, -24.99999999999999289, 28.49999999999999645 ) ) ;
#322 = CARTESIAN_POINT ( 'NONE',  ( 84.00000000000000000, -24.99999999999999289, 6.999999999999960920 ) ) ;
#323 = VECTOR ( 'NONE', #306, 1000.000000000000000 ) ;
#324 = AXIS2_PLACEMENT_3D ( 'NONE', #314, #24, #139 ) ;
#325 = ORIENTED_EDGE ( 'NONE', *, *, #175, .F. ) ;
#326 = ADVANCED_FACE ( 'NONE', ( #215 ), #312, .T. ) ;
#327 = DATE_AND_TIME ( #235, #84 ) ;
#328 = ORIENTED_EDGE ( 'NONE', *, *, #249, .F. ) ;
#329 = EDGE_LOOP ( 'NONE', ( #36, #1 ) ) ;
#330 = VECTOR ( 'NONE', #106, 1000.000000000000000 ) ;
#331 = VERTEX_POINT ( 'NONE', #363 ) ;
#332 = APPLICATION_PROTOCOL_DEFINITION ( 'international standard', 'config_control_design', 1994, #240 ) ;
#333 = EDGE_CURVE ( 'NONE', #115, #186, #156, .T. ) ;
#334 = VERTEX_POINT ( 'NONE', #189 ) ;
#335 = PERSON_AND_ORGANIZATION ( #244, #43 ) ;
#336 = DIRECTION ( 'NONE',  ( -0.000000000000000000, 1.000000000000000000, -0.000000000000000000 ) ) ;
#337 = FACE_OUTER_BOUND ( 'NONE', #208, .T. ) ;
#338 = CARTESIAN_POINT ( 'NONE',  ( -84.00000000000000000, 25.00000000000000711, 0.000000000000000000 ) ) ;
#339 = EDGE_LOOP ( 'NONE', ( #301, #129, #29, #384 ) ) ;
#340 = AXIS2_PLACEMENT_3D ( 'NONE', #247, #248, #93 ) ;
#341 = EDGE_CURVE ( 'NONE', #115, #299, #128, .T. ) ;
#342 = DIRECTION ( 'NONE',  ( -0.000000000000000000, 1.000000000000000000, -0.000000000000000000 ) ) ;
#343 = DIRECTION ( 'NONE',  ( -1.000000000000000000, 0.000000000000000000, -0.000000000000000000 ) ) ;
#344 = ADVANCED_FACE ( 'NONE', ( #243, #94, #365 ), #92, .F. ) ;
#345 = CARTESIAN_POINT ( 'NONE',  ( 84.00000000000000000, 25.00000000000000711, -3.086109933851330151E-14 ) ) ;
#346 = ORIENTED_EDGE ( 'NONE', *, *, #6, .F. ) ;
#347 = CARTESIAN_POINT ( 'NONE',  ( -84.00000000000000000, 25.00000000000000711, 0.000000000000000000 ) ) ;
#348 = COORDINATED_UNIVERSAL_TIME_OFFSET ( 10, 0, .AHEAD. ) ;
#349 = DIRECTION ( 'NONE',  ( 0.000000000000000000, 0.000000000000000000, -1.000000000000000000 ) ) ;
#350 = CYLINDRICAL_SURFACE ( 'NONE', #258, 6.999999999999992006 ) ;
#351 = AXIS2_PLACEMENT_3D ( 'NONE', #338, #150, #310 ) ;
#352 = LINE ( 'NONE', #109, #180 ) ;
#353 = APPROVAL ( #255, 'UNSPECIFIED' ) ;
#354 = EDGE_LOOP ( 'NONE', ( #385, #236, #119, #85 ) ) ;
#355 = COORDINATED_UNIVERSAL_TIME_OFFSET ( 10, 0, .AHEAD. ) ;
#356 = VECTOR ( 'NONE', #197, 1000.000000000000000 ) ;
#357 = ORIENTED_EDGE ( 'NONE', *, *, #333, .T. ) ;
#358 = ORIENTED_EDGE ( 'NONE', *, *, #138, .T. ) ;
#359 = DIRECTION ( 'NONE',  ( 0.000000000000000000, 0.000000000000000000, 1.000000000000000000 ) ) ;
#360 = AXIS2_PLACEMENT_3D ( 'NONE', #283, #281, #359 ) ;
#361 = VERTEX_POINT ( 'NONE', #98 ) ;
#362 = SECURITY_CLASSIFICATION_LEVEL ( 'unclassified' ) ;
#363 = CARTESIAN_POINT ( 'NONE',  ( -105.0000000000000000, 25.00000000000000711, -28.50000000000000355 ) ) ;
#364 = PLANE ( 'NONE',  #103 ) ;
#365 = FACE_OUTER_BOUND ( 'NONE', #304, .T. ) ;
#366 = CC_DESIGN_PERSON_AND_ORGANIZATION_ASSIGNMENT ( #70, #167, ( #53 ) ) ;
#367 = EDGE_CURVE ( 'NONE', #186, #297, #211, .T. ) ;
#368 = PLANE ( 'NONE',  #134 ) ;
#369 = FACE_BOUND ( 'NONE', #329, .T. ) ;
#370 = CIRCLE ( 'NONE', #307, 6.999999999999992006 ) ;
#371 = CARTESIAN_POINT ( 'NONE',  ( 105.0000000000000000, -24.99999999999999289, -28.50000000000000355 ) ) ;
#372 = VERTEX_POINT ( 'NONE', #278 ) ;
#373 = MECHANICAL_CONTEXT ( 'NONE', #240, 'mechanical' ) ;
#374 = CARTESIAN_POINT ( 'NONE',  ( -105.0000000000000000, -24.99999999999999289, 28.49999999999999645 ) ) ;
#375 = APPROVAL ( #123, 'UNSPECIFIED' ) ;
#376 = COORDINATED_UNIVERSAL_TIME_OFFSET ( 10, 0, .AHEAD. ) ;
#377 = DIRECTION ( 'NONE',  ( -0.000000000000000000, 1.000000000000000000, -0.000000000000000000 ) ) ;
#378 = DIRECTION ( 'NONE',  ( -1.000000000000000000, -0.000000000000000000, -0.000000000000000000 ) ) ;
#379 = PERSON_AND_ORGANIZATION ( #244, #43 ) ;
#380 = LINE ( 'NONE', #289, #330 ) ;
#381 = CARTESIAN_POINT ( 'NONE',  ( 105.0000000000000000, 25.00000000000000711, -28.50000000000000355 ) ) ;
#382 = VECTOR ( 'NONE', #316, 1000.000000000000000 ) ;
#383 = FACE_OUTER_BOUND ( 'NONE', #16, .T. ) ;
#384 = ORIENTED_EDGE ( 'NONE', *, *, #333, .F. ) ;
#385 = ORIENTED_EDGE ( 'NONE', *, *, #264, .F. ) ;
ENDSEC;
END-ISO-10303-21;
