ISO-10303-21;
HEADER;
FILE_DESCRIPTION (( 'STEP AP203' ),
    '1' );
FILE_NAME ('4229-10-40-20_REV_.step',
    '2026-01-09T02:51:28',
    ( '' ),
    ( '' ),
    'SwSTEP 2.0',
    'SolidWorks 2025',
    '' );
FILE_SCHEMA (( 'CONFIG_CONTROL_DESIGN' ));
ENDSEC;

DATA;
#1 = DIRECTION ( 'NONE',  ( 1.000000000000000000, 3.238150488490039252E-16, 0.000000000000000000 ) ) ;
#2 = PERSON_AND_ORGANIZATION ( #284, #296 ) ;
#3 = LINE ( 'NONE', #115, #253 ) ;
#4 = AXIS2_PLACEMENT_3D ( 'NONE', #70, #8, #189 ) ;
#5 = CC_DESIGN_APPROVAL ( #324, ( #130 ) ) ;
#6 = ORIENTED_EDGE ( 'NONE', *, *, #305, .T. ) ;
#7 = ADVANCED_FACE ( 'NONE', ( #255 ), #276, .T. ) ;
#8 = DIRECTION ( 'NONE',  ( 0.000000000000000000, 0.000000000000000000, 1.000000000000000000 ) ) ;
#9 = EDGE_LOOP ( 'NONE', ( #100, #122, #49, #337 ) ) ;
#10 = VERTEX_POINT ( 'NONE', #118 ) ;
#11 = CC_DESIGN_PERSON_AND_ORGANIZATION_ASSIGNMENT ( #356, #249, ( #130 ) ) ;
#12 = ORIENTED_EDGE ( 'NONE', *, *, #102, .T. ) ;
#13 = ORIENTED_EDGE ( 'NONE', *, *, #82, .T. ) ;
#14 = CC_DESIGN_DATE_AND_TIME_ASSIGNMENT ( #73, #97, ( #130 ) ) ;
#15 = VERTEX_POINT ( 'NONE', #31 ) ;
#16 = VECTOR ( 'NONE', #264, 1000.000000000000000 ) ;
#17 = LOCAL_TIME ( 13, 51, 28.00000000000000000, #136 ) ;
#18 = CARTESIAN_POINT ( 'NONE',  ( 63.50000000000000000, -130.0000000000000000, -1.500000000000000000 ) ) ;
#19 = ADVANCED_FACE ( 'NONE', ( #153 ), #112, .T. ) ;
#20 = CARTESIAN_POINT ( 'NONE',  ( 63.50000000000000000, -130.0000000000000000, -1.500000000000000000 ) ) ;
#21 = LINE ( 'NONE', #198, #258 ) ;
#22 =( NAMED_UNIT ( * ) PLANE_ANGLE_UNIT ( ) SI_UNIT ( $, .RADIAN. ) );
#23 = ORIENTED_EDGE ( 'NONE', *, *, #215, .T. ) ;
#24 = DIRECTION ( 'NONE',  ( 3.238150488490040238E-16, -1.000000000000000000, 0.000000000000000000 ) ) ;
#25 = CARTESIAN_POINT ( 'NONE',  ( -63.50000000000000000, -130.0000000000000000, -1.500000000000000000 ) ) ;
#26 = APPROVAL ( #106, 'UNSPECIFIED' ) ;
#27 = APPROVAL_ROLE ( '' ) ;
#28 = PLANE ( 'NONE',  #197 ) ;
#29 = CC_DESIGN_PERSON_AND_ORGANIZATION_ASSIGNMENT ( #129, #108, ( #226 ) ) ;
#30 = CARTESIAN_POINT ( 'NONE',  ( -63.50000000000000000, 130.0000000000000000, -1.500000000000000000 ) ) ;
#31 = CARTESIAN_POINT ( 'NONE',  ( -25.00000000000000355, 37.49999999999997868, 1.500000000000000000 ) ) ;
#32 = DIRECTION ( 'NONE',  ( -0.000000000000000000, -0.000000000000000000, 1.000000000000000000 ) ) ;
#33 = DIRECTION ( 'NONE',  ( -0.000000000000000000, -0.000000000000000000, 1.000000000000000000 ) ) ;
#34 = CIRCLE ( 'NONE', #4, 24.99999999999998579 ) ;
#35 = DIRECTION ( 'NONE',  ( -1.000000000000000000, -3.238150488490040238E-16, 0.000000000000000000 ) ) ;
#36 = CARTESIAN_POINT ( 'NONE',  ( 63.50000000000000000, -130.0000000000000000, 1.500000000000000000 ) ) ;
#37 = DIRECTION ( 'NONE',  ( -0.000000000000000000, -0.000000000000000000, 1.000000000000000000 ) ) ;
#38 = ADVANCED_BREP_SHAPE_REPRESENTATION ( '4229-10-40-20_REV_', ( #103, #352 ), #85 ) ;
#39 = LINE ( 'NONE', #46, #363 ) ;
#40 = ORIENTED_EDGE ( 'NONE', *, *, #150, .F. ) ;
#41 = EDGE_CURVE ( 'NONE', #182, #329, #92, .T. ) ;
#42 = VECTOR ( 'NONE', #232, 1000.000000000000000 ) ;
#43 = VERTEX_POINT ( 'NONE', #354 ) ;
#44 = EDGE_CURVE ( 'NONE', #239, #139, #181, .T. ) ;
#45 = EDGE_LOOP ( 'NONE', ( #360, #300, #13, #99 ) ) ;
#46 = CARTESIAN_POINT ( 'NONE',  ( -25.00000000000000000, 37.49999999999997868, -1.500000000000000000 ) ) ;
#47 = ORIENTED_EDGE ( 'NONE', *, *, #217, .T. ) ;
#48 = AXIS2_PLACEMENT_3D ( 'NONE', #170, #259, #172 ) ;
#49 = ORIENTED_EDGE ( 'NONE', *, *, #315, .F. ) ;
#50 = LOCAL_TIME ( 13, 51, 28.00000000000000000, #63 ) ;
#51 =( NAMED_UNIT ( * ) SI_UNIT ( $, .STERADIAN. ) SOLID_ANGLE_UNIT ( ) );
#52 = EDGE_LOOP ( 'NONE', ( #40, #355, #223, #270 ) ) ;
#53 = VECTOR ( 'NONE', #68, 1000.000000000000000 ) ;
#54 = APPROVAL_PERSON_ORGANIZATION ( #126, #324, #309 ) ;
#55 = DATE_TIME_ROLE ( 'creation_date' ) ;
#56 = CALENDAR_DATE ( 2026, 9, 1 ) ;
#57 = PLANE ( 'NONE',  #307 ) ;
#58 = AXIS2_PLACEMENT_3D ( 'NONE', #178, #95, #212 ) ;
#59 = PRODUCT_RELATED_PRODUCT_CATEGORY ( 'detail', '', ( #282 ) ) ;
#60 = COORDINATED_UNIVERSAL_TIME_OFFSET ( 10, 0, .AHEAD. ) ;
#61 = CARTESIAN_POINT ( 'NONE',  ( 24.99999999999999645, -37.50000000000000711, 1.500000000000000000 ) ) ;
#62 = CARTESIAN_POINT ( 'NONE',  ( -63.50000000000000000, 130.0000000000000000, 1.500000000000000000 ) ) ;
#63 = COORDINATED_UNIVERSAL_TIME_OFFSET ( 10, 0, .AHEAD. ) ;
#64 = PLANE ( 'NONE',  #269 ) ;
#65 = CARTESIAN_POINT ( 'NONE',  ( 0.000000000000000000, 0.000000000000000000, 1.500000000000000000 ) ) ;
#66 = VECTOR ( 'NONE', #151, 1000.000000000000000 ) ;
#67 = APPLICATION_PROTOCOL_DEFINITION ( 'international standard', 'config_control_design', 1994, #241 ) ;
#68 = DIRECTION ( 'NONE',  ( -0.000000000000000000, -0.000000000000000000, 1.000000000000000000 ) ) ;
#69 = CARTESIAN_POINT ( 'NONE',  ( -63.50000000000000000, -130.0000000000000000, 1.500000000000000000 ) ) ;
#70 = CARTESIAN_POINT ( 'NONE',  ( 9.127889599276759085E-15, -37.50000000000000711, 1.500000000000000000 ) ) ;
#71 = ORIENTED_EDGE ( 'NONE', *, *, #280, .F. ) ;
#72 = CALENDAR_DATE ( 2026, 9, 1 ) ;
#73 = DATE_AND_TIME ( #213, #209 ) ;
#74 = VERTEX_POINT ( 'NONE', #69 ) ;
#75 = ORIENTED_EDGE ( 'NONE', *, *, #185, .T. ) ;
#76 = PERSON_AND_ORGANIZATION_ROLE ( 'design_supplier' ) ;
#77 = EDGE_LOOP ( 'NONE', ( #94, #333, #6, #272 ) ) ;
#78 = EDGE_CURVE ( 'NONE', #329, #43, #293, .T. ) ;
#79 = ORIENTED_EDGE ( 'NONE', *, *, #254, .F. ) ;
#80 = VECTOR ( 'NONE', #344, 1000.000000000000000 ) ;
#81 = CARTESIAN_POINT ( 'NONE',  ( -25.00000000000000000, 37.49999999999997868, 1.500000000000000000 ) ) ;
#82 = EDGE_CURVE ( 'NONE', #328, #242, #205, .T. ) ;
#83 = CC_DESIGN_PERSON_AND_ORGANIZATION_ASSIGNMENT ( #2, #76, ( #252 ) ) ;
#84 = CARTESIAN_POINT ( 'NONE',  ( -1.383423788473610959E-14, 37.50000000000000711, -1.500000000000000000 ) ) ;
#85 =( GEOMETRIC_REPRESENTATION_CONTEXT ( 3 ) GLOBAL_UNCERTAINTY_ASSIGNED_CONTEXT ( ( #160 ) ) GLOBAL_UNIT_ASSIGNED_CONTEXT ( ( #299, #22, #51 ) ) REPRESENTATION_CONTEXT ( 'NONE', 'WORKASPACE' ) );
#86 = DIRECTION ( 'NONE',  ( 0.000000000000000000, 0.000000000000000000, 1.000000000000000000 ) ) ;
#87 = CARTESIAN_POINT ( 'NONE',  ( 24.99999999999997513, 37.50000000000000711, -1.500000000000000000 ) ) ;
#88 = LINE ( 'NONE', #111, #98 ) ;
#89 = LINE ( 'NONE', #147, #16 ) ;
#90 = CC_DESIGN_DATE_AND_TIME_ASSIGNMENT ( #338, #55, ( #226 ) ) ;
#91 = FACE_OUTER_BOUND ( 'NONE', #243, .T. ) ;
#92 = LINE ( 'NONE', #87, #42 ) ;
#93 = AXIS2_PLACEMENT_3D ( 'NONE', #283, #230, #260 ) ;
#94 = ORIENTED_EDGE ( 'NONE', *, *, #254, .T. ) ;
#95 = DIRECTION ( 'NONE',  ( -0.000000000000000000, -0.000000000000000000, 1.000000000000000000 ) ) ;
#96 = ORIENTED_EDGE ( 'NONE', *, *, #377, .F. ) ;
#97 = DATE_TIME_ROLE ( 'classification_date' ) ;
#98 = VECTOR ( 'NONE', #119, 1000.000000000000000 ) ;
#99 = ORIENTED_EDGE ( 'NONE', *, *, #193, .T. ) ;
#100 = ORIENTED_EDGE ( 'NONE', *, *, #175, .F. ) ;
#101 = AXIS2_PLACEMENT_3D ( 'NONE', #84, #86, #318 ) ;
#102 = EDGE_CURVE ( 'NONE', #328, #74, #3, .T. ) ;
#103 = MANIFOLD_SOLID_BREP ( 'Cut-Extrude1', #281 ) ;
#104 = ORIENTED_EDGE ( 'NONE', *, *, #301, .T. ) ;
#105 = LINE ( 'NONE', #18, #140 ) ;
#106 = APPROVAL_STATUS ( 'not_yet_approved' ) ;
#107 = CARTESIAN_POINT ( 'NONE',  ( -24.99999999999997868, -37.50000000000000711, -1.500000000000000000 ) ) ;
#108 = PERSON_AND_ORGANIZATION_ROLE ( 'creator' ) ;
#109 = ADVANCED_FACE ( 'NONE', ( #261 ), #238, .F. ) ;
#110 = VECTOR ( 'NONE', #334, 1000.000000000000000 ) ;
#111 = CARTESIAN_POINT ( 'NONE',  ( -63.50000000000000000, 130.0000000000000000, -1.500000000000000000 ) ) ;
#112 = PLANE ( 'NONE',  #162 ) ;
#113 = CC_DESIGN_APPROVAL ( #26, ( #252 ) ) ;
#114 = CARTESIAN_POINT ( 'NONE',  ( -63.50000000000000000, -130.0000000000000000, 1.500000000000000000 ) ) ;
#115 = CARTESIAN_POINT ( 'NONE',  ( -63.50000000000000000, -130.0000000000000000, -1.500000000000000000 ) ) ;
#116 = FACE_OUTER_BOUND ( 'NONE', #332, .T. ) ;
#117 = PERSON_AND_ORGANIZATION ( #284, #296 ) ;
#118 = CARTESIAN_POINT ( 'NONE',  ( 63.50000000000000000, 130.0000000000000000, -1.500000000000000000 ) ) ;
#119 = DIRECTION ( 'NONE',  ( -1.000000000000000000, -0.000000000000000000, -0.000000000000000000 ) ) ;
#120 = DIRECTION ( 'NONE',  ( 0.000000000000000000, 0.000000000000000000, 1.000000000000000000 ) ) ;
#121 = VECTOR ( 'NONE', #316, 1000.000000000000000 ) ;
#122 = ORIENTED_EDGE ( 'NONE', *, *, #142, .F. ) ;
#123 = DIRECTION ( 'NONE',  ( 0.000000000000000000, 0.000000000000000000, -1.000000000000000000 ) ) ;
#124 = DIRECTION ( 'NONE',  ( 3.238150488490040238E-16, -1.000000000000000000, 0.000000000000000000 ) ) ;
#125 = ORIENTED_EDGE ( 'NONE', *, *, #44, .F. ) ;
#126 = PERSON_AND_ORGANIZATION ( #284, #296 ) ;
#127 = EDGE_LOOP ( 'NONE', ( #306, #196, #47, #75 ) ) ;
#128 = CIRCLE ( 'NONE', #101, 24.99999999999998579 ) ;
#129 = PERSON_AND_ORGANIZATION ( #284, #296 ) ;
#130 = SECURITY_CLASSIFICATION ( '', '', #161 ) ;
#131 = EDGE_LOOP ( 'NONE', ( #163, #71, #96, #164 ) ) ;
#132 = ORIENTED_EDGE ( 'NONE', *, *, #217, .F. ) ;
#133 = VERTEX_POINT ( 'NONE', #323 ) ;
#134 = ORIENTED_EDGE ( 'NONE', *, *, #315, .T. ) ;
#135 = APPROVAL ( #138, 'UNSPECIFIED' ) ;
#136 = COORDINATED_UNIVERSAL_TIME_OFFSET ( 10, 0, .AHEAD. ) ;
#137 = APPROVAL_DATE_TIME ( #165, #26 ) ;
#138 = APPROVAL_STATUS ( 'not_yet_approved' ) ;
#139 = VERTEX_POINT ( 'NONE', #62 ) ;
#140 = VECTOR ( 'NONE', #336, 1000.000000000000000 ) ;
#141 = LINE ( 'NONE', #176, #53 ) ;
#142 = EDGE_CURVE ( 'NONE', #43, #15, #222, .T. ) ;
#143 = FACE_OUTER_BOUND ( 'NONE', #131, .T. ) ;
#144 = LINE ( 'NONE', #81, #225 ) ;
#145 = VECTOR ( 'NONE', #353, 1000.000000000000000 ) ;
#146 = LINE ( 'NONE', #114, #169 ) ;
#147 = CARTESIAN_POINT ( 'NONE',  ( -63.50000000000000000, 130.0000000000000000, 1.500000000000000000 ) ) ;
#148 = DATE_AND_TIME ( #340, #50 ) ;
#149 = DIRECTION ( 'NONE',  ( 1.000000000000000000, 0.000000000000000000, 0.000000000000000000 ) ) ;
#150 = EDGE_CURVE ( 'NONE', #322, #139, #89, .T. ) ;
#151 = DIRECTION ( 'NONE',  ( -3.238150488490039745E-16, 1.000000000000000000, -0.000000000000000000 ) ) ;
#152 = ADVANCED_FACE ( 'NONE', ( #235, #347 ), #207, .F. ) ;
#153 = FACE_OUTER_BOUND ( 'NONE', #155, .T. ) ;
#154 = CC_DESIGN_PERSON_AND_ORGANIZATION_ASSIGNMENT ( #117, #350, ( #252 ) ) ;
#155 = EDGE_LOOP ( 'NONE', ( #273, #125, #304, #12 ) ) ;
#156 = DIRECTION ( 'NONE',  ( 1.000000000000000000, 0.000000000000000000, 0.000000000000000000 ) ) ;
#157 = CIRCLE ( 'NONE', #93, 24.99999999999998579 ) ;
#158 = APPROVAL_DATE_TIME ( #187, #135 ) ;
#159 = ORIENTED_EDGE ( 'NONE', *, *, #78, .T. ) ;
#160 = UNCERTAINTY_MEASURE_WITH_UNIT (LENGTH_MEASURE( 1.000000000000000082E-05 ), #299, 'distance_accuracy_value', 'NONE');
#161 = SECURITY_CLASSIFICATION_LEVEL ( 'unclassified' ) ;
#162 = AXIS2_PLACEMENT_3D ( 'NONE', #351, #236, #266 ) ;
#163 = ORIENTED_EDGE ( 'NONE', *, *, #175, .T. ) ;
#164 = ORIENTED_EDGE ( 'NONE', *, *, #246, .T. ) ;
#165 = DATE_AND_TIME ( #335, #17 ) ;
#166 = DIRECTION ( 'NONE',  ( -0.000000000000000000, -1.000000000000000000, -0.000000000000000000 ) ) ;
#167 = EDGE_CURVE ( 'NONE', #194, #322, #290, .T. ) ;
#168 = FACE_OUTER_BOUND ( 'NONE', #45, .T. ) ;
#169 = VECTOR ( 'NONE', #149, 1000.000000000000000 ) ;
#170 = CARTESIAN_POINT ( 'NONE',  ( 9.127889599276759085E-15, -37.50000000000000711, -1.500000000000000000 ) ) ;
#171 = LINE ( 'NONE', #369, #80 ) ;
#172 = DIRECTION ( 'NONE',  ( 1.000000000000000000, 0.000000000000000000, 0.000000000000000000 ) ) ;
#173 = DIRECTION ( 'NONE',  ( -1.000000000000000000, 0.000000000000000000, -0.000000000000000000 ) ) ;
#174 = APPROVAL_DATE_TIME ( #148, #324 ) ;
#175 = EDGE_CURVE ( 'NONE', #15, #133, #144, .T. ) ;
#176 = CARTESIAN_POINT ( 'NONE',  ( -25.00000000000000000, 37.49999999999997868, -1.500000000000000000 ) ) ;
#177 = DIRECTION ( 'NONE',  ( 3.238150488490040238E-16, -1.000000000000000000, 0.000000000000000000 ) ) ;
#178 = CARTESIAN_POINT ( 'NONE',  ( -1.383423788473610959E-14, 37.50000000000000711, -1.500000000000000000 ) ) ;
#179 = PERSON_AND_ORGANIZATION ( #284, #296 ) ;
#180 = PLANE ( 'NONE',  #358 ) ;
#181 = LINE ( 'NONE', #375, #202 ) ;
#182 = VERTEX_POINT ( 'NONE', #365 ) ;
#183 = ORIENTED_EDGE ( 'NONE', *, *, #167, .T. ) ;
#184 = AXIS2_PLACEMENT_3D ( 'NONE', #25, #227, #279 ) ;
#185 = EDGE_CURVE ( 'NONE', #10, #322, #256, .T. ) ;
#186 = ORIENTED_EDGE ( 'NONE', *, *, #280, .T. ) ;
#187 = DATE_AND_TIME ( #72, #359 ) ;
#188 = ORIENTED_EDGE ( 'NONE', *, *, #41, .F. ) ;
#189 = DIRECTION ( 'NONE',  ( 1.000000000000000000, 0.000000000000000000, 0.000000000000000000 ) ) ;
#190 = COORDINATED_UNIVERSAL_TIME_OFFSET ( 10, 0, .AHEAD. ) ;
#191 = ORIENTED_EDGE ( 'NONE', *, *, #150, .T. ) ;
#192 = VECTOR ( 'NONE', #33, 1000.000000000000000 ) ;
#193 = EDGE_CURVE ( 'NONE', #242, #194, #105, .T. ) ;
#194 = VERTEX_POINT ( 'NONE', #311 ) ;
#195 = APPROVAL_ROLE ( '' ) ;
#196 = ORIENTED_EDGE ( 'NONE', *, *, #193, .F. ) ;
#197 = AXIS2_PLACEMENT_3D ( 'NONE', #247, #325, #210 ) ;
#198 = CARTESIAN_POINT ( 'NONE',  ( -63.50000000000000000, -130.0000000000000000, 1.500000000000000000 ) ) ;
#199 = COORDINATED_UNIVERSAL_TIME_OFFSET ( 10, 0, .AHEAD. ) ;
#200 = DIRECTION ( 'NONE',  ( -3.238150488490039252E-16, 1.000000000000000000, 0.000000000000000000 ) ) ;
#201 = PERSON_AND_ORGANIZATION ( #284, #296 ) ;
#202 = VECTOR ( 'NONE', #320, 1000.000000000000000 ) ;
#203 = LINE ( 'NONE', #107, #244 ) ;
#204 = CARTESIAN_POINT ( 'NONE',  ( -24.99999999999998224, -37.50000000000000711, -1.500000000000000000 ) ) ;
#205 = LINE ( 'NONE', #345, #121 ) ;
#206 = FACE_BOUND ( 'NONE', #77, .T. ) ;
#207 = PLANE ( 'NONE',  #331 ) ;
#208 = CYLINDRICAL_SURFACE ( 'NONE', #48, 24.99999999999998579 ) ;
#209 = LOCAL_TIME ( 13, 51, 28.00000000000000000, #190 ) ;
#210 = DIRECTION ( 'NONE',  ( 0.000000000000000000, -0.000000000000000000, 1.000000000000000000 ) ) ;
#211 = ORIENTED_EDGE ( 'NONE', *, *, #220, .F. ) ;
#212 = DIRECTION ( 'NONE',  ( 1.000000000000000000, 0.000000000000000000, 0.000000000000000000 ) ) ;
#213 = CALENDAR_DATE ( 2026, 9, 1 ) ;
#214 = EDGE_LOOP ( 'NONE', ( #183, #191, #23, #104 ) ) ;
#215 = EDGE_CURVE ( 'NONE', #139, #74, #21, .T. ) ;
#216 = ADVANCED_FACE ( 'NONE', ( #168 ), #228, .T. ) ;
#217 = EDGE_CURVE ( 'NONE', #242, #10, #171, .T. ) ;
#218 = EDGE_LOOP ( 'NONE', ( #357, #364, #79, #159 ) ) ;
#219 = VERTEX_POINT ( 'NONE', #204 ) ;
#220 = EDGE_CURVE ( 'NONE', #239, #328, #285, .T. ) ;
#221 = CC_DESIGN_PERSON_AND_ORGANIZATION_ASSIGNMENT ( #201, #233, ( #282 ) ) ;
#222 = CIRCLE ( 'NONE', #373, 24.99999999999998579 ) ;
#223 = ORIENTED_EDGE ( 'NONE', *, *, #330, .T. ) ;
#224 = CARTESIAN_POINT ( 'NONE',  ( 63.50000000000000000, 130.0000000000000000, -1.500000000000000000 ) ) ;
#225 = VECTOR ( 'NONE', #24, 1000.000000000000000 ) ;
#226 = PRODUCT_DEFINITION ( 'UNKNOWN', '', #252, #288 ) ;
#227 = DIRECTION ( 'NONE',  ( 0.000000000000000000, -1.000000000000000000, 0.000000000000000000 ) ) ;
#228 = PLANE ( 'NONE',  #184 ) ;
#229 = DIRECTION ( 'NONE',  ( 0.000000000000000000, 0.000000000000000000, 1.000000000000000000 ) ) ;
#230 = DIRECTION ( 'NONE',  ( 0.000000000000000000, 0.000000000000000000, 1.000000000000000000 ) ) ;
#231 = FACE_OUTER_BOUND ( 'NONE', #248, .T. ) ;
#232 = DIRECTION ( 'NONE',  ( -3.238150488490039745E-16, 1.000000000000000000, -0.000000000000000000 ) ) ;
#233 = PERSON_AND_ORGANIZATION_ROLE ( 'design_owner' ) ;
#234 = LINE ( 'NONE', #314, #367 ) ;
#235 = FACE_BOUND ( 'NONE', #9, .T. ) ;
#236 = DIRECTION ( 'NONE',  ( -1.000000000000000000, 0.000000000000000000, 0.000000000000000000 ) ) ;
#237 = DIRECTION ( 'NONE',  ( 0.000000000000000000, 0.000000000000000000, -1.000000000000000000 ) ) ;
#238 = CYLINDRICAL_SURFACE ( 'NONE', #58, 24.99999999999998579 ) ;
#239 = VERTEX_POINT ( 'NONE', #30 ) ;
#240 = DIRECTION ( 'NONE',  ( 0.000000000000000000, 1.000000000000000000, 0.000000000000000000 ) ) ;
#241 = APPLICATION_CONTEXT ( 'configuration controlled 3d designs of mechanical parts and assemblies' ) ;
#242 = VERTEX_POINT ( 'NONE', #289 ) ;
#243 = EDGE_LOOP ( 'NONE', ( #298, #294, #251, #186 ) ) ;
#244 = VECTOR ( 'NONE', #32, 1000.000000000000000 ) ;
#245 = LOCAL_TIME ( 13, 51, 28.00000000000000000, #199 ) ;
#246 = EDGE_CURVE ( 'NONE', #310, #15, #141, .T. ) ;
#247 = CARTESIAN_POINT ( 'NONE',  ( -63.50000000000000000, 130.0000000000000000, -1.500000000000000000 ) ) ;
#248 = EDGE_LOOP ( 'NONE', ( #132, #361, #211, #302 ) ) ;
#249 = PERSON_AND_ORGANIZATION_ROLE ( 'classification_officer' ) ;
#250 = VERTEX_POINT ( 'NONE', #61 ) ;
#251 = ORIENTED_EDGE ( 'NONE', *, *, #305, .F. ) ;
#252 = PRODUCT_DEFINITION_FORMATION_WITH_SPECIFIED_SOURCE ( 'ANY', '', #282, .NOT_KNOWN. ) ;
#253 = VECTOR ( 'NONE', #120, 1000.000000000000000 ) ;
#254 = EDGE_CURVE ( 'NONE', #329, #310, #128, .T. ) ;
#255 = FACE_OUTER_BOUND ( 'NONE', #127, .T. ) ;
#256 = LINE ( 'NONE', #224, #110 ) ;
#257 = DIRECTION ( 'NONE',  ( 0.000000000000000000, 0.000000000000000000, -1.000000000000000000 ) ) ;
#258 = VECTOR ( 'NONE', #166, 1000.000000000000000 ) ;
#259 = DIRECTION ( 'NONE',  ( -0.000000000000000000, -0.000000000000000000, 1.000000000000000000 ) ) ;
#260 = DIRECTION ( 'NONE',  ( 1.000000000000000000, 0.000000000000000000, 0.000000000000000000 ) ) ;
#261 = FACE_OUTER_BOUND ( 'NONE', #218, .T. ) ;
#262 = MECHANICAL_CONTEXT ( 'NONE', #291, 'mechanical' ) ;
#263 = CARTESIAN_POINT ( 'NONE',  ( 24.99999999999997513, 37.50000000000000711, 1.500000000000000000 ) ) ;
#264 = DIRECTION ( 'NONE',  ( -1.000000000000000000, -0.000000000000000000, -0.000000000000000000 ) ) ;
#265 = CARTESIAN_POINT ( 'NONE',  ( 0.000000000000000000, 0.000000000000000000, -1.500000000000000000 ) ) ;
#266 = DIRECTION ( 'NONE',  ( 0.000000000000000000, 0.000000000000000000, 1.000000000000000000 ) ) ;
#267 = CARTESIAN_POINT ( 'NONE',  ( 63.50000000000000000, 130.0000000000000000, 1.500000000000000000 ) ) ;
#268 = CARTESIAN_POINT ( 'NONE',  ( 24.99999999999997513, 37.50000000000000711, -1.500000000000000000 ) ) ;
#269 = AXIS2_PLACEMENT_3D ( 'NONE', #286, #35, #177 ) ;
#270 = ORIENTED_EDGE ( 'NONE', *, *, #44, .T. ) ;
#271 = ADVANCED_FACE ( 'NONE', ( #91 ), #208, .F. ) ;
#272 = ORIENTED_EDGE ( 'NONE', *, *, #41, .T. ) ;
#273 = ORIENTED_EDGE ( 'NONE', *, *, #215, .F. ) ;
#274 = APPLICATION_PROTOCOL_DEFINITION ( 'international standard', 'config_control_design', 1994, #291 ) ;
#275 = ADVANCED_FACE ( 'NONE', ( #143 ), #64, .F. ) ;
#276 = PLANE ( 'NONE',  #287 ) ;
#277 = DIRECTION ( 'NONE',  ( 1.000000000000000000, 0.000000000000000000, 0.000000000000000000 ) ) ;
#278 = ORIENTED_EDGE ( 'NONE', *, *, #321, .T. ) ;
#279 = DIRECTION ( 'NONE',  ( 0.000000000000000000, -0.000000000000000000, -1.000000000000000000 ) ) ;
#280 = EDGE_CURVE ( 'NONE', #219, #133, #203, .T. ) ;
#281 = CLOSED_SHELL ( 'NONE', ( #7, #216, #19, #368, #343, #152, #109, #366, #271, #275 ) ) ;
#282 = PRODUCT ( '4229-10-40-20_REV_', '4229-10-40-20_REV_', '', ( #262 ) ) ;
#283 = CARTESIAN_POINT ( 'NONE',  ( 9.127889599276759085E-15, -37.50000000000000711, -1.500000000000000000 ) ) ;
#284 = PERSON ( 'UNSPECIFIED', 'UNSPECIFIED', 'UNSPECIFIED', ('UNSPECIFIED'), ('UNSPECIFIED'), ('UNSPECIFIED') ) ;
#285 = LINE ( 'NONE', #349, #145 ) ;
#286 = CARTESIAN_POINT ( 'NONE',  ( -25.00000000000000000, 37.49999999999997868, -1.500000000000000000 ) ) ;
#287 = AXIS2_PLACEMENT_3D ( 'NONE', #20, #277, #257 ) ;
#288 = DESIGN_CONTEXT ( 'detailed design', #241, 'design' ) ;
#289 = CARTESIAN_POINT ( 'NONE',  ( 63.50000000000000000, -130.0000000000000000, -1.500000000000000000 ) ) ;
#290 = LINE ( 'NONE', #36, #342 ) ;
#291 = APPLICATION_CONTEXT ( 'configuration controlled 3d designs of mechanical parts and assemblies' ) ;
#292 = CARTESIAN_POINT ( 'NONE',  ( 24.99999999999997513, 37.50000000000000711, -1.500000000000000000 ) ) ;
#293 = LINE ( 'NONE', #268, #192 ) ;
#294 = ORIENTED_EDGE ( 'NONE', *, *, #321, .F. ) ;
#295 = CARTESIAN_POINT ( 'NONE',  ( -1.383423788473610959E-14, 37.50000000000000711, 1.500000000000000000 ) ) ;
#296 = ORGANIZATION ( 'UNSPECIFIED', 'UNSPECIFIED', '' ) ;
#297 = APPROVAL_PERSON_ORGANIZATION ( #179, #135, #27 ) ;
#298 = ORIENTED_EDGE ( 'NONE', *, *, #374, .T. ) ;
#299 =( LENGTH_UNIT ( ) NAMED_UNIT ( * ) SI_UNIT ( .MILLI., .METRE. ) );
#300 = ORIENTED_EDGE ( 'NONE', *, *, #102, .F. ) ;
#301 = EDGE_CURVE ( 'NONE', #74, #194, #146, .T. ) ;
#302 = ORIENTED_EDGE ( 'NONE', *, *, #330, .F. ) ;
#303 = ORIENTED_EDGE ( 'NONE', *, *, #78, .F. ) ;
#304 = ORIENTED_EDGE ( 'NONE', *, *, #220, .T. ) ;
#305 = EDGE_CURVE ( 'NONE', #219, #182, #157, .T. ) ;
#306 = ORIENTED_EDGE ( 'NONE', *, *, #167, .F. ) ;
#307 = AXIS2_PLACEMENT_3D ( 'NONE', #265, #237, #376 ) ;
#308 = CC_DESIGN_SECURITY_CLASSIFICATION ( #130, ( #252 ) ) ;
#309 = APPROVAL_ROLE ( '' ) ;
#310 = VERTEX_POINT ( 'NONE', #319 ) ;
#311 = CARTESIAN_POINT ( 'NONE',  ( 63.50000000000000000, -130.0000000000000000, 1.500000000000000000 ) ) ;
#312 = FACE_OUTER_BOUND ( 'NONE', #52, .T. ) ;
#313 = PERSON_AND_ORGANIZATION ( #284, #296 ) ;
#314 = CARTESIAN_POINT ( 'NONE',  ( 24.99999999999999645, -37.50000000000000711, -1.500000000000000000 ) ) ;
#315 = EDGE_CURVE ( 'NONE', #250, #43, #341, .T. ) ;
#316 = DIRECTION ( 'NONE',  ( 1.000000000000000000, 0.000000000000000000, 0.000000000000000000 ) ) ;
#317 = CARTESIAN_POINT ( 'NONE',  ( 0.000000000000000000, 0.000000000000000000, 0.000000000000000000 ) ) ;
#318 = DIRECTION ( 'NONE',  ( 1.000000000000000000, 0.000000000000000000, 0.000000000000000000 ) ) ;
#319 = CARTESIAN_POINT ( 'NONE',  ( -25.00000000000000000, 37.49999999999997868, -1.500000000000000000 ) ) ;
#320 = DIRECTION ( 'NONE',  ( 0.000000000000000000, 0.000000000000000000, 1.000000000000000000 ) ) ;
#321 = EDGE_CURVE ( 'NONE', #182, #250, #234, .T. ) ;
#322 = VERTEX_POINT ( 'NONE', #267 ) ;
#323 = CARTESIAN_POINT ( 'NONE',  ( -24.99999999999997868, -37.50000000000000711, 1.500000000000000000 ) ) ;
#324 = APPROVAL ( #326, 'UNSPECIFIED' ) ;
#325 = DIRECTION ( 'NONE',  ( 0.000000000000000000, 1.000000000000000000, 0.000000000000000000 ) ) ;
#326 = APPROVAL_STATUS ( 'not_yet_approved' ) ;
#327 = CC_DESIGN_APPROVAL ( #135, ( #226 ) ) ;
#328 = VERTEX_POINT ( 'NONE', #371 ) ;
#329 = VERTEX_POINT ( 'NONE', #346 ) ;
#330 = EDGE_CURVE ( 'NONE', #10, #239, #88, .T. ) ;
#331 = AXIS2_PLACEMENT_3D ( 'NONE', #65, #123, #173 ) ;
#332 = EDGE_LOOP ( 'NONE', ( #134, #303, #188, #278 ) ) ;
#333 = ORIENTED_EDGE ( 'NONE', *, *, #377, .T. ) ;
#334 = DIRECTION ( 'NONE',  ( 0.000000000000000000, 0.000000000000000000, 1.000000000000000000 ) ) ;
#335 = CALENDAR_DATE ( 2026, 9, 1 ) ;
#336 = DIRECTION ( 'NONE',  ( 0.000000000000000000, 0.000000000000000000, 1.000000000000000000 ) ) ;
#337 = ORIENTED_EDGE ( 'NONE', *, *, #374, .F. ) ;
#338 = DATE_AND_TIME ( #56, #245 ) ;
#339 = APPROVAL_PERSON_ORGANIZATION ( #313, #26, #195 ) ;
#340 = CALENDAR_DATE ( 2026, 9, 1 ) ;
#341 = LINE ( 'NONE', #263, #66 ) ;
#342 = VECTOR ( 'NONE', #240, 1000.000000000000000 ) ;
#343 = ADVANCED_FACE ( 'NONE', ( #206, #231 ), #57, .T. ) ;
#344 = DIRECTION ( 'NONE',  ( 0.000000000000000000, 1.000000000000000000, 0.000000000000000000 ) ) ;
#345 = CARTESIAN_POINT ( 'NONE',  ( -63.50000000000000000, -130.0000000000000000, -1.500000000000000000 ) ) ;
#346 = CARTESIAN_POINT ( 'NONE',  ( 24.99999999999997513, 37.50000000000000711, -1.500000000000000000 ) ) ;
#347 = FACE_OUTER_BOUND ( 'NONE', #214, .T. ) ;
#348 = DIRECTION ( 'NONE',  ( 1.000000000000000000, 0.000000000000000000, 0.000000000000000000 ) ) ;
#349 = CARTESIAN_POINT ( 'NONE',  ( -63.50000000000000000, -130.0000000000000000, -1.500000000000000000 ) ) ;
#350 = PERSON_AND_ORGANIZATION_ROLE ( 'creator' ) ;
#351 = CARTESIAN_POINT ( 'NONE',  ( -63.50000000000000000, -130.0000000000000000, -1.500000000000000000 ) ) ;
#352 = AXIS2_PLACEMENT_3D ( 'NONE', #317, #229, #348 ) ;
#353 = DIRECTION ( 'NONE',  ( -0.000000000000000000, -1.000000000000000000, -0.000000000000000000 ) ) ;
#354 = CARTESIAN_POINT ( 'NONE',  ( 24.99999999999997513, 37.50000000000000711, 1.500000000000000000 ) ) ;
#355 = ORIENTED_EDGE ( 'NONE', *, *, #185, .F. ) ;
#356 = PERSON_AND_ORGANIZATION ( #284, #296 ) ;
#357 = ORIENTED_EDGE ( 'NONE', *, *, #142, .T. ) ;
#358 = AXIS2_PLACEMENT_3D ( 'NONE', #292, #1, #200 ) ;
#359 = LOCAL_TIME ( 13, 51, 28.00000000000000000, #60 ) ;
#360 = ORIENTED_EDGE ( 'NONE', *, *, #301, .F. ) ;
#361 = ORIENTED_EDGE ( 'NONE', *, *, #82, .F. ) ;
#362 = PRODUCT_DEFINITION_SHAPE ( 'NONE', 'NONE',  #226 ) ;
#363 = VECTOR ( 'NONE', #124, 1000.000000000000000 ) ;
#364 = ORIENTED_EDGE ( 'NONE', *, *, #246, .F. ) ;
#365 = CARTESIAN_POINT ( 'NONE',  ( 24.99999999999999645, -37.50000000000000711, -1.500000000000000000 ) ) ;
#366 = ADVANCED_FACE ( 'NONE', ( #116 ), #180, .F. ) ;
#367 = VECTOR ( 'NONE', #37, 1000.000000000000000 ) ;
#368 = ADVANCED_FACE ( 'NONE', ( #312 ), #28, .T. ) ;
#369 = CARTESIAN_POINT ( 'NONE',  ( 63.50000000000000000, -130.0000000000000000, -1.500000000000000000 ) ) ;
#370 = SHAPE_DEFINITION_REPRESENTATION ( #362, #38 ) ;
#371 = CARTESIAN_POINT ( 'NONE',  ( -63.50000000000000000, -130.0000000000000000, -1.500000000000000000 ) ) ;
#372 = DIRECTION ( 'NONE',  ( 0.000000000000000000, 0.000000000000000000, 1.000000000000000000 ) ) ;
#373 = AXIS2_PLACEMENT_3D ( 'NONE', #295, #372, #156 ) ;
#374 = EDGE_CURVE ( 'NONE', #133, #250, #34, .T. ) ;
#375 = CARTESIAN_POINT ( 'NONE',  ( -63.50000000000000000, 130.0000000000000000, -1.500000000000000000 ) ) ;
#376 = DIRECTION ( 'NONE',  ( -1.000000000000000000, 0.000000000000000000, -0.000000000000000000 ) ) ;
#377 = EDGE_CURVE ( 'NONE', #310, #219, #39, .T. ) ;
ENDSEC;
END-ISO-10303-21;
