ISO-10303-21;
HEADER;
FILE_DESCRIPTION (( 'STEP AP203' ),
    '1' );
FILE_NAME ('4229-40-20-10_REV_.step',
    '2026-01-09T02:44:41',
    ( '' ),
    ( '' ),
    'SwSTEP 2.0',
    'SolidWorks 2025',
    '' );
FILE_SCHEMA (( 'CONFIG_CONTROL_DESIGN' ));
ENDSEC;

DATA;
#1 = AXIS2_PLACEMENT_3D ( 'NONE', #200, #158, #179 ) ;
#2 = PERSON_AND_ORGANIZATION_ROLE ( 'classification_officer' ) ;
#3 = CALENDAR_DATE ( 2026, 9, 1 ) ;
#4 = LOCAL_TIME ( 13, 44, 41.00000000000000000, #86 ) ;
#5 = CYLINDRICAL_SURFACE ( 'NONE', #234, 10.65000000000000036 ) ;
#6 = EDGE_LOOP ( 'NONE', ( #91, #115, #40, #25 ) ) ;
#7 = ORIENTED_EDGE ( 'NONE', *, *, #51, .F. ) ;
#8 = VECTOR ( 'NONE', #43, 1000.000000000000000 ) ;
#9 = VERTEX_POINT ( 'NONE', #128 ) ;
#10 = EDGE_CURVE ( 'NONE', #193, #39, #84, .T. ) ;
#11 = DIRECTION ( 'NONE',  ( -1.000000000000000000, -3.061616997868383141E-16, 0.000000000000000000 ) ) ;
#12 = DIRECTION ( 'NONE',  ( -1.000000000000000000, -3.061616997868383141E-16, 0.000000000000000000 ) ) ;
#13 = CIRCLE ( 'NONE', #146, 10.65000000000000036 ) ;
#14 = DIRECTION ( 'NONE',  ( 0.000000000000000000, -1.000000000000000000, 0.000000000000000000 ) ) ;
#15 = DIRECTION ( 'NONE',  ( -1.000000000000000000, -3.061616997868383141E-16, 0.000000000000000000 ) ) ;
#16 = CARTESIAN_POINT ( 'NONE',  ( -100.0000000000000000, -2.345198620367181874E-14, 0.000000000000000000 ) ) ;
#17 = CC_DESIGN_APPROVAL ( #98, ( #239 ) ) ;
#18 = CARTESIAN_POINT ( 'NONE',  ( -100.0000000000000000, -7.880000000000023874, 9.650216777281184027E-16 ) ) ;
#19 = EDGE_CURVE ( 'NONE', #74, #9, #108, .T. ) ;
#20 = DIRECTION ( 'NONE',  ( 0.000000000000000000, 0.000000000000000000, 1.000000000000000000 ) ) ;
#21 = DATE_AND_TIME ( #37, #90 ) ;
#22 = DIRECTION ( 'NONE',  ( 1.000000000000000000, 3.061616997868383141E-16, -0.000000000000000000 ) ) ;
#23 = APPROVAL_PERSON_ORGANIZATION ( #124, #212, #207 ) ;
#24 = EDGE_CURVE ( 'NONE', #154, #42, #13, .T. ) ;
#25 = ORIENTED_EDGE ( 'NONE', *, *, #50, .F. ) ;
#26 = DIRECTION ( 'NONE',  ( 0.000000000000000000, -1.000000000000000000, 0.000000000000000000 ) ) ;
#27 = DIRECTION ( 'NONE',  ( -1.000000000000000000, -3.061616997868383141E-16, 0.000000000000000000 ) ) ;
#28 = ORIENTED_EDGE ( 'NONE', *, *, #143, .T. ) ;
#29 = CARTESIAN_POINT ( 'NONE',  ( -100.0000000000000000, -2.345198620367181874E-14, 0.000000000000000000 ) ) ;
#30 = CARTESIAN_POINT ( 'NONE',  ( 100.0000000000000000, 3.778035375369584369E-14, 0.000000000000000000 ) ) ;
#31 = DIRECTION ( 'NONE',  ( 0.000000000000000000, 1.000000000000000000, 0.000000000000000000 ) ) ;
#32 = DIRECTION ( 'NONE',  ( 1.000000000000000000, 3.061616997868383141E-16, -0.000000000000000000 ) ) ;
#33 = MECHANICAL_CONTEXT ( 'NONE', #177, 'mechanical' ) ;
#34 = PERSON_AND_ORGANIZATION ( #211, #164 ) ;
#35 = ADVANCED_FACE ( 'NONE', ( #57 ), #5, .T. ) ;
#36 = CIRCLE ( 'NONE', #54, 10.65000000000000036 ) ;
#37 = CALENDAR_DATE ( 2026, 9, 1 ) ;
#38 = LOCAL_TIME ( 13, 44, 41.00000000000000000, #107 ) ;
#39 = VERTEX_POINT ( 'NONE', #73 ) ;
#40 = ORIENTED_EDGE ( 'NONE', *, *, #78, .T. ) ;
#41 = AXIS2_PLACEMENT_3D ( 'NONE', #16, #159, #31 ) ;
#42 = VERTEX_POINT ( 'NONE', #215 ) ;
#43 = DIRECTION ( 'NONE',  ( 1.000000000000000000, 3.061616997868383141E-16, -0.000000000000000000 ) ) ;
#44 = DIRECTION ( 'NONE',  ( 0.000000000000000000, -1.000000000000000000, 0.000000000000000000 ) ) ;
#45 = CARTESIAN_POINT ( 'NONE',  ( -100.0000000000000000, -10.65000000000002345, 1.304248841091935008E-15 ) ) ;
#46 =( NAMED_UNIT ( * ) SI_UNIT ( $, .STERADIAN. ) SOLID_ANGLE_UNIT ( ) );
#47 = DIRECTION ( 'NONE',  ( 0.000000000000000000, -1.000000000000000000, 0.000000000000000000 ) ) ;
#48 = CARTESIAN_POINT ( 'NONE',  ( 100.0000000000000000, -7.879999999999961702, 9.650216777281142612E-16 ) ) ;
#49 = DIRECTION ( 'NONE',  ( 1.000000000000000000, 3.061616997868383141E-16, -0.000000000000000000 ) ) ;
#50 = EDGE_CURVE ( 'NONE', #42, #193, #93, .T. ) ;
#51 = EDGE_CURVE ( 'NONE', #131, #9, #206, .T. ) ;
#52 = SHAPE_DEFINITION_REPRESENTATION ( #183, #136 ) ;
#53 = APPROVAL ( #145, 'UNSPECIFIED' ) ;
#54 = AXIS2_PLACEMENT_3D ( 'NONE', #116, #245, #64 ) ;
#55 = DIRECTION ( 'NONE',  ( 0.000000000000000000, 1.000000000000000000, 0.000000000000000000 ) ) ;
#56 = DIRECTION ( 'NONE',  ( 0.000000000000000000, -1.000000000000000000, 0.000000000000000000 ) ) ;
#57 = FACE_OUTER_BOUND ( 'NONE', #213, .T. ) ;
#58 = ORIENTED_EDGE ( 'NONE', *, *, #19, .T. ) ;
#59 = ORIENTED_EDGE ( 'NONE', *, *, #184, .F. ) ;
#60 = CARTESIAN_POINT ( 'NONE',  ( 100.0000000000000000, 3.778035375369584369E-14, 0.000000000000000000 ) ) ;
#61 = CARTESIAN_POINT ( 'NONE',  ( -100.0000000000000000, -7.880000000000023874, 9.650216777281142612E-16 ) ) ;
#62 = CARTESIAN_POINT ( 'NONE',  ( -100.0000000000000000, -2.345198620367181874E-14, 0.000000000000000000 ) ) ;
#63 = CC_DESIGN_SECURITY_CLASSIFICATION ( #104, ( #239 ) ) ;
#64 = DIRECTION ( 'NONE',  ( 0.000000000000000000, -1.000000000000000000, 0.000000000000000000 ) ) ;
#65 = APPROVAL_ROLE ( '' ) ;
#66 = APPROVAL_STATUS ( 'not_yet_approved' ) ;
#67 = ADVANCED_FACE ( 'NONE', ( #95 ), #80, .F. ) ;
#68 = COORDINATED_UNIVERSAL_TIME_OFFSET ( 10, 0, .AHEAD. ) ;
#69 = CC_DESIGN_DATE_AND_TIME_ASSIGNMENT ( #141, #227, ( #104 ) ) ;
#70 = DESIGN_CONTEXT ( 'detailed design', #192, 'design' ) ;
#71 = APPROVAL_DATE_TIME ( #21, #98 ) ;
#72 = ORIENTED_EDGE ( 'NONE', *, *, #137, .F. ) ;
#73 = CARTESIAN_POINT ( 'NONE',  ( 100.0000000000000000, -10.64999999999996128, 1.304248841091931261E-15 ) ) ;
#74 = VERTEX_POINT ( 'NONE', #176 ) ;
#75 = ORIENTED_EDGE ( 'NONE', *, *, #24, .T. ) ;
#76 = EDGE_LOOP ( 'NONE', ( #170, #196 ) ) ;
#77 = DIRECTION ( 'NONE',  ( -1.000000000000000000, -3.061616997868383141E-16, 0.000000000000000000 ) ) ;
#78 = EDGE_CURVE ( 'NONE', #39, #193, #198, .T. ) ;
#79 = LINE ( 'NONE', #181, #89 ) ;
#80 = CYLINDRICAL_SURFACE ( 'NONE', #41, 7.879999999999999893 ) ;
#81 = CIRCLE ( 'NONE', #238, 7.879999999999999893 ) ;
#82 = CARTESIAN_POINT ( 'NONE',  ( 100.0000000000000000, 3.778035375369584369E-14, 0.000000000000000000 ) ) ;
#83 = DIRECTION ( 'NONE',  ( 1.000000000000000000, 0.000000000000000000, 0.000000000000000000 ) ) ;
#84 = CIRCLE ( 'NONE', #129, 10.65000000000000036 ) ;
#85 = CC_DESIGN_APPROVAL ( #212, ( #186 ) ) ;
#86 = COORDINATED_UNIVERSAL_TIME_OFFSET ( 10, 0, .AHEAD. ) ;
#87 = CALENDAR_DATE ( 2026, 9, 1 ) ;
#88 = PERSON_AND_ORGANIZATION_ROLE ( 'design_supplier' ) ;
#89 = VECTOR ( 'NONE', #32, 1000.000000000000000 ) ;
#90 = LOCAL_TIME ( 13, 44, 41.00000000000000000, #106 ) ;
#91 = ORIENTED_EDGE ( 'NONE', *, *, #24, .F. ) ;
#92 = ORIENTED_EDGE ( 'NONE', *, *, #143, .F. ) ;
#93 = LINE ( 'NONE', #133, #8 ) ;
#94 = AXIS2_PLACEMENT_3D ( 'NONE', #29, #203, #242 ) ;
#95 = FACE_OUTER_BOUND ( 'NONE', #151, .T. ) ;
#96 = ORIENTED_EDGE ( 'NONE', *, *, #244, .T. ) ;
#97 = FACE_BOUND ( 'NONE', #199, .T. ) ;
#98 = APPROVAL ( #66, 'UNSPECIFIED' ) ;
#99 =( NAMED_UNIT ( * ) PLANE_ANGLE_UNIT ( ) SI_UNIT ( $, .RADIAN. ) );
#100 = EDGE_CURVE ( 'NONE', #154, #39, #79, .T. ) ;
#101 = FACE_BOUND ( 'NONE', #169, .T. ) ;
#102 = LINE ( 'NONE', #61, #172 ) ;
#103 = CIRCLE ( 'NONE', #120, 7.879999999999999893 ) ;
#104 = SECURITY_CLASSIFICATION ( '', '', #123 ) ;
#105 = PERSON_AND_ORGANIZATION ( #211, #164 ) ;
#106 = COORDINATED_UNIVERSAL_TIME_OFFSET ( 10, 0, .AHEAD. ) ;
#107 = COORDINATED_UNIVERSAL_TIME_OFFSET ( 10, 0, .AHEAD. ) ;
#108 = LINE ( 'NONE', #190, #125 ) ;
#109 = CARTESIAN_POINT ( 'NONE',  ( 100.0000000000000000, 3.778035375369584369E-14, 0.000000000000000000 ) ) ;
#110 = CC_DESIGN_PERSON_AND_ORGANIZATION_ASSIGNMENT ( #105, #2, ( #104 ) ) ;
#111 = ORIENTED_EDGE ( 'NONE', *, *, #19, .F. ) ;
#112 = CARTESIAN_POINT ( 'NONE',  ( 100.0000000000000000, 3.778035375369584369E-14, 0.000000000000000000 ) ) ;
#113 = AXIS2_PLACEMENT_3D ( 'NONE', #62, #219, #47 ) ;
#114 = MANIFOLD_SOLID_BREP ( 'Stainless chs 21.3 X 2.7 CHS(1)', #214 ) ;
#115 = ORIENTED_EDGE ( 'NONE', *, *, #100, .T. ) ;
#116 = CARTESIAN_POINT ( 'NONE',  ( -100.0000000000000000, -2.345198620367181874E-14, 0.000000000000000000 ) ) ;
#117 = LOCAL_TIME ( 13, 44, 41.00000000000000000, #167 ) ;
#118 = PLANE ( 'NONE',  #1 ) ;
#119 = CALENDAR_DATE ( 2026, 9, 1 ) ;
#120 = AXIS2_PLACEMENT_3D ( 'NONE', #241, #15, #221 ) ;
#121 = AXIS2_PLACEMENT_3D ( 'NONE', #127, #20, #83 ) ;
#122 = PERSON_AND_ORGANIZATION ( #211, #164 ) ;
#123 = SECURITY_CLASSIFICATION_LEVEL ( 'unclassified' ) ;
#124 = PERSON_AND_ORGANIZATION ( #211, #164 ) ;
#125 = VECTOR ( 'NONE', #22, 1000.000000000000000 ) ;
#126 = APPROVAL_PERSON_ORGANIZATION ( #122, #98, #65 ) ;
#127 = CARTESIAN_POINT ( 'NONE',  ( 0.000000000000000000, 0.000000000000000000, 0.000000000000000000 ) ) ;
#128 = CARTESIAN_POINT ( 'NONE',  ( 100.0000000000000000, 7.880000000000038085, 0.000000000000000000 ) ) ;
#129 = AXIS2_PLACEMENT_3D ( 'NONE', #109, #11, #56 ) ;
#130 = CIRCLE ( 'NONE', #113, 7.879999999999999893 ) ;
#131 = VERTEX_POINT ( 'NONE', #48 ) ;
#132 = CC_DESIGN_PERSON_AND_ORGANIZATION_ASSIGNMENT ( #209, #247, ( #225 ) ) ;
#133 = CARTESIAN_POINT ( 'NONE',  ( -100.0000000000000000, 10.64999999999997549, 0.000000000000000000 ) ) ;
#134 = ORIENTED_EDGE ( 'NONE', *, *, #137, .T. ) ;
#135 = CARTESIAN_POINT ( 'NONE',  ( 100.0000000000000000, 10.65000000000003766, 0.000000000000000000 ) ) ;
#136 = ADVANCED_BREP_SHAPE_REPRESENTATION ( '4229-40-20-10_REV_', ( #114, #121 ), #248 ) ;
#137 = EDGE_CURVE ( 'NONE', #42, #154, #36, .T. ) ;
#138 = CYLINDRICAL_SURFACE ( 'NONE', #94, 7.879999999999999893 ) ;
#139 = AXIS2_PLACEMENT_3D ( 'NONE', #112, #27, #44 ) ;
#140 = FACE_OUTER_BOUND ( 'NONE', #236, .T. ) ;
#141 = DATE_AND_TIME ( #119, #117 ) ;
#142 = CALENDAR_DATE ( 2026, 9, 1 ) ;
#143 = EDGE_CURVE ( 'NONE', #150, #131, #102, .T. ) ;
#144 = DATE_TIME_ROLE ( 'creation_date' ) ;
#145 = APPROVAL_STATUS ( 'not_yet_approved' ) ;
#146 = AXIS2_PLACEMENT_3D ( 'NONE', #217, #194, #26 ) ;
#147 = UNCERTAINTY_MEASURE_WITH_UNIT (LENGTH_MEASURE( 1.000000000000000082E-05 ), #240, 'distance_accuracy_value', 'NONE');
#148 = CARTESIAN_POINT ( 'NONE',  ( -100.0000000000000000, -2.345198620367181874E-14, 0.000000000000000000 ) ) ;
#149 = ADVANCED_FACE ( 'NONE', ( #140 ), #138, .F. ) ;
#150 = VERTEX_POINT ( 'NONE', #18 ) ;
#151 = EDGE_LOOP ( 'NONE', ( #92, #96, #58, #7 ) ) ;
#152 = ORIENTED_EDGE ( 'NONE', *, *, #195, .F. ) ;
#153 = ADVANCED_FACE ( 'NONE', ( #101, #223 ), #118, .T. ) ;
#154 = VERTEX_POINT ( 'NONE', #45 ) ;
#155 = APPROVAL_PERSON_ORGANIZATION ( #185, #53, #205 ) ;
#156 = DIRECTION ( 'NONE',  ( 1.000000000000000000, 3.061616997868383141E-16, -0.000000000000000000 ) ) ;
#157 = CC_DESIGN_PERSON_AND_ORGANIZATION_ASSIGNMENT ( #34, #208, ( #186 ) ) ;
#158 = DIRECTION ( 'NONE',  ( -1.000000000000000000, -3.061616997868383141E-16, 0.000000000000000000 ) ) ;
#159 = DIRECTION ( 'NONE',  ( 1.000000000000000000, 3.061616997868383141E-16, -0.000000000000000000 ) ) ;
#160 = FACE_OUTER_BOUND ( 'NONE', #76, .T. ) ;
#161 = APPROVAL_DATE_TIME ( #163, #212 ) ;
#162 = CC_DESIGN_DATE_AND_TIME_ASSIGNMENT ( #188, #144, ( #186 ) ) ;
#163 = DATE_AND_TIME ( #87, #38 ) ;
#164 = ORGANIZATION ( 'UNSPECIFIED', 'UNSPECIFIED', '' ) ;
#165 = PERSON_AND_ORGANIZATION ( #211, #164 ) ;
#166 = PRODUCT_RELATED_PRODUCT_CATEGORY ( 'detail', '', ( #225 ) ) ;
#167 = COORDINATED_UNIVERSAL_TIME_OFFSET ( 10, 0, .AHEAD. ) ;
#168 = APPROVAL_DATE_TIME ( #230, #53 ) ;
#169 = EDGE_LOOP ( 'NONE', ( #152, #175 ) ) ;
#170 = ORIENTED_EDGE ( 'NONE', *, *, #10, .F. ) ;
#171 = EDGE_LOOP ( 'NONE', ( #134, #75 ) ) ;
#172 = VECTOR ( 'NONE', #49, 1000.000000000000000 ) ;
#173 = ORIENTED_EDGE ( 'NONE', *, *, #50, .T. ) ;
#174 = ADVANCED_FACE ( 'NONE', ( #202 ), #201, .T. ) ;
#175 = ORIENTED_EDGE ( 'NONE', *, *, #244, .F. ) ;
#176 = CARTESIAN_POINT ( 'NONE',  ( -100.0000000000000000, 7.879999999999975913, 0.000000000000000000 ) ) ;
#177 = APPLICATION_CONTEXT ( 'configuration controlled 3d designs of mechanical parts and assemblies' ) ;
#178 = AXIS2_PLACEMENT_3D ( 'NONE', #82, #180, #222 ) ;
#179 = DIRECTION ( 'NONE',  ( 3.061616997868383141E-16, -1.000000000000000000, 0.000000000000000000 ) ) ;
#180 = DIRECTION ( 'NONE',  ( -1.000000000000000000, -3.061616997868383141E-16, 0.000000000000000000 ) ) ;
#181 = CARTESIAN_POINT ( 'NONE',  ( -100.0000000000000000, -10.65000000000002345, 1.304248841091931261E-15 ) ) ;
#182 = DIRECTION ( 'NONE',  ( 0.000000000000000000, 1.000000000000000000, 0.000000000000000000 ) ) ;
#183 = PRODUCT_DEFINITION_SHAPE ( 'NONE', 'NONE',  #186 ) ;
#184 = EDGE_CURVE ( 'NONE', #9, #131, #81, .T. ) ;
#185 = PERSON_AND_ORGANIZATION ( #211, #164 ) ;
#186 = PRODUCT_DEFINITION ( 'UNKNOWN', '', #239, #70 ) ;
#187 = PERSON_AND_ORGANIZATION_ROLE ( 'creator' ) ;
#188 = DATE_AND_TIME ( #3, #218 ) ;
#189 = ADVANCED_FACE ( 'NONE', ( #97, #160 ), #246, .F. ) ;
#190 = CARTESIAN_POINT ( 'NONE',  ( -100.0000000000000000, 7.879999999999975913, 0.000000000000000000 ) ) ;
#191 = CC_DESIGN_APPROVAL ( #53, ( #104 ) ) ;
#192 = APPLICATION_CONTEXT ( 'configuration controlled 3d designs of mechanical parts and assemblies' ) ;
#193 = VERTEX_POINT ( 'NONE', #135 ) ;
#194 = DIRECTION ( 'NONE',  ( -1.000000000000000000, -3.061616997868383141E-16, 0.000000000000000000 ) ) ;
#195 = EDGE_CURVE ( 'NONE', #74, #150, #103, .T. ) ;
#196 = ORIENTED_EDGE ( 'NONE', *, *, #78, .F. ) ;
#197 = CC_DESIGN_PERSON_AND_ORGANIZATION_ASSIGNMENT ( #228, #88, ( #239 ) ) ;
#198 = CIRCLE ( 'NONE', #178, 10.65000000000000036 ) ;
#199 = EDGE_LOOP ( 'NONE', ( #210, #237 ) ) ;
#200 = CARTESIAN_POINT ( 'NONE',  ( -100.0000000000000000, -2.345198620367181874E-14, 0.000000000000000000 ) ) ;
#201 = CYLINDRICAL_SURFACE ( 'NONE', #243, 10.65000000000000036 ) ;
#202 = FACE_OUTER_BOUND ( 'NONE', #6, .T. ) ;
#203 = DIRECTION ( 'NONE',  ( 1.000000000000000000, 3.061616997868383141E-16, -0.000000000000000000 ) ) ;
#204 = CARTESIAN_POINT ( 'NONE',  ( -100.0000000000000000, -2.345198620367181874E-14, 0.000000000000000000 ) ) ;
#205 = APPROVAL_ROLE ( '' ) ;
#206 = CIRCLE ( 'NONE', #139, 7.879999999999999893 ) ;
#207 = APPROVAL_ROLE ( '' ) ;
#208 = PERSON_AND_ORGANIZATION_ROLE ( 'creator' ) ;
#209 = PERSON_AND_ORGANIZATION ( #211, #164 ) ;
#210 = ORIENTED_EDGE ( 'NONE', *, *, #184, .T. ) ;
#211 = PERSON ( 'UNSPECIFIED', 'UNSPECIFIED', 'UNSPECIFIED', ('UNSPECIFIED'), ('UNSPECIFIED'), ('UNSPECIFIED') ) ;
#212 = APPROVAL ( #229, 'UNSPECIFIED' ) ;
#213 = EDGE_LOOP ( 'NONE', ( #233, #72, #173, #235 ) ) ;
#214 = CLOSED_SHELL ( 'NONE', ( #174, #149, #67, #35, #153, #189 ) ) ;
#215 = CARTESIAN_POINT ( 'NONE',  ( -100.0000000000000000, 10.64999999999997549, 0.000000000000000000 ) ) ;
#216 = ORIENTED_EDGE ( 'NONE', *, *, #195, .T. ) ;
#217 = CARTESIAN_POINT ( 'NONE',  ( -100.0000000000000000, -2.345198620367181874E-14, 0.000000000000000000 ) ) ;
#218 = LOCAL_TIME ( 13, 44, 41.00000000000000000, #68 ) ;
#219 = DIRECTION ( 'NONE',  ( -1.000000000000000000, -3.061616997868383141E-16, 0.000000000000000000 ) ) ;
#220 = DIRECTION ( 'NONE',  ( 3.061616997868383141E-16, -1.000000000000000000, 0.000000000000000000 ) ) ;
#221 = DIRECTION ( 'NONE',  ( 0.000000000000000000, -1.000000000000000000, 0.000000000000000000 ) ) ;
#222 = DIRECTION ( 'NONE',  ( 0.000000000000000000, -1.000000000000000000, 0.000000000000000000 ) ) ;
#223 = FACE_OUTER_BOUND ( 'NONE', #171, .T. ) ;
#224 = CC_DESIGN_PERSON_AND_ORGANIZATION_ASSIGNMENT ( #165, #187, ( #239 ) ) ;
#225 = PRODUCT ( '4229-40-20-10_REV_', '4229-40-20-10_REV_', '', ( #33 ) ) ;
#226 = APPLICATION_PROTOCOL_DEFINITION ( 'international standard', 'config_control_design', 1994, #192 ) ;
#227 = DATE_TIME_ROLE ( 'classification_date' ) ;
#228 = PERSON_AND_ORGANIZATION ( #211, #164 ) ;
#229 = APPROVAL_STATUS ( 'not_yet_approved' ) ;
#230 = DATE_AND_TIME ( #142, #4 ) ;
#231 = AXIS2_PLACEMENT_3D ( 'NONE', #30, #77, #220 ) ;
#232 = DIRECTION ( 'NONE',  ( 1.000000000000000000, 3.061616997868383141E-16, -0.000000000000000000 ) ) ;
#233 = ORIENTED_EDGE ( 'NONE', *, *, #100, .F. ) ;
#234 = AXIS2_PLACEMENT_3D ( 'NONE', #148, #232, #55 ) ;
#235 = ORIENTED_EDGE ( 'NONE', *, *, #10, .T. ) ;
#236 = EDGE_LOOP ( 'NONE', ( #216, #28, #59, #111 ) ) ;
#237 = ORIENTED_EDGE ( 'NONE', *, *, #51, .T. ) ;
#238 = AXIS2_PLACEMENT_3D ( 'NONE', #60, #12, #14 ) ;
#239 = PRODUCT_DEFINITION_FORMATION_WITH_SPECIFIED_SOURCE ( 'ANY', '', #225, .NOT_KNOWN. ) ;
#240 =( LENGTH_UNIT ( ) NAMED_UNIT ( * ) SI_UNIT ( .MILLI., .METRE. ) );
#241 = CARTESIAN_POINT ( 'NONE',  ( -100.0000000000000000, -2.345198620367181874E-14, 0.000000000000000000 ) ) ;
#242 = DIRECTION ( 'NONE',  ( 0.000000000000000000, 1.000000000000000000, 0.000000000000000000 ) ) ;
#243 = AXIS2_PLACEMENT_3D ( 'NONE', #204, #156, #182 ) ;
#244 = EDGE_CURVE ( 'NONE', #150, #74, #130, .T. ) ;
#245 = DIRECTION ( 'NONE',  ( -1.000000000000000000, -3.061616997868383141E-16, 0.000000000000000000 ) ) ;
#246 = PLANE ( 'NONE',  #231 ) ;
#247 = PERSON_AND_ORGANIZATION_ROLE ( 'design_owner' ) ;
#248 =( GEOMETRIC_REPRESENTATION_CONTEXT ( 3 ) GLOBAL_UNCERTAINTY_ASSIGNED_CONTEXT ( ( #147 ) ) GLOBAL_UNIT_ASSIGNED_CONTEXT ( ( #240, #99, #46 ) ) REPRESENTATION_CONTEXT ( 'NONE', 'WORKASPACE' ) );
#249 = APPLICATION_PROTOCOL_DEFINITION ( 'international standard', 'config_control_design', 1994, #177 ) ;
ENDSEC;
END-ISO-10303-21;
