ISO-10303-21;
HEADER;
FILE_DESCRIPTION (( 'STEP AP203' ),
    '1' );
FILE_NAME ('4229-50-10-10_REV_.step',
    '2026-01-09T02:49:32',
    ( '' ),
    ( '' ),
    'SwSTEP 2.0',
    'SolidWorks 2025',
    '' );
FILE_SCHEMA (( 'CONFIG_CONTROL_DESIGN' ));
ENDSEC;

DATA;
#1 = CARTESIAN_POINT ( 'NONE',  ( 0.000000000000000000, 0.000000000000000000, -6.000000000000000000 ) ) ;
#2 = PERSON_AND_ORGANIZATION ( #82, #185 ) ;
#3 = CARTESIAN_POINT ( 'NONE',  ( 0.000000000000000000, 0.000000000000000000, -6.000000000000000000 ) ) ;
#4 = VECTOR ( 'NONE', #381, 1000.000000000000000 ) ;
#5 = APPROVAL_PERSON_ORGANIZATION ( #319, #253, #324 ) ;
#6 = PRODUCT ( '4229-50-10-10_REV_', '4229-50-10-10_REV_', '', ( #230 ) ) ;
#7 = FACE_OUTER_BOUND ( 'NONE', #167, .T. ) ;
#8 = EDGE_CURVE ( 'NONE', #340, #268, #64, .T. ) ;
#9 = DIRECTION ( 'NONE',  ( 0.000000000000000000, 0.000000000000000000, 1.000000000000000000 ) ) ;
#10 = LINE ( 'NONE', #91, #330 ) ;
#11 = EDGE_LOOP ( 'NONE', ( #275, #163, #264, #195 ) ) ;
#12 = VECTOR ( 'NONE', #184, 1000.000000000000000 ) ;
#13 = FACE_BOUND ( 'NONE', #47, .T. ) ;
#14 = ORIENTED_EDGE ( 'NONE', *, *, #347, .T. ) ;
#15 = DIRECTION ( 'NONE',  ( 1.000000000000000000, 0.000000000000000000, 0.000000000000000000 ) ) ;
#16 = EDGE_LOOP ( 'NONE', ( #103, #204, #78, #309 ) ) ;
#17 = DIRECTION ( 'NONE',  ( -0.000000000000000000, -0.000000000000000000, -1.000000000000000000 ) ) ;
#18 = ORIENTED_EDGE ( 'NONE', *, *, #8, .F. ) ;
#19 = AXIS2_PLACEMENT_3D ( 'NONE', #93, #154, #38 ) ;
#20 = DIRECTION ( 'NONE',  ( 0.000000000000000000, 0.000000000000000000, 1.000000000000000000 ) ) ;
#21 = ORIENTED_EDGE ( 'NONE', *, *, #208, .T. ) ;
#22 = CC_DESIGN_DATE_AND_TIME_ASSIGNMENT ( #205, #200, ( #223 ) ) ;
#23 = PLANE ( 'NONE',  #209 ) ;
#24 = DIRECTION ( 'NONE',  ( 1.000000000000000000, 5.388445916248350069E-16, -0.000000000000000000 ) ) ;
#25 = AXIS2_PLACEMENT_3D ( 'NONE', #255, #170, #372 ) ;
#26 = ORIENTED_EDGE ( 'NONE', *, *, #62, .F. ) ;
#27 = EDGE_CURVE ( 'NONE', #218, #268, #353, .T. ) ;
#28 = SHAPE_DEFINITION_REPRESENTATION ( #122, #257 ) ;
#29 = CARTESIAN_POINT ( 'NONE',  ( -27.49999999999999645, 19.99999999999998579, 0.000000000000000000 ) ) ;
#30 = VECTOR ( 'NONE', #20, 1000.000000000000000 ) ;
#31 = DIRECTION ( 'NONE',  ( 1.000000000000000000, 0.000000000000000000, 0.000000000000000000 ) ) ;
#32 = EDGE_CURVE ( 'NONE', #100, #340, #233, .T. ) ;
#33 = PERSON_AND_ORGANIZATION_ROLE ( 'creator' ) ;
#34 = DIRECTION ( 'NONE',  ( 1.000000000000000000, 0.000000000000000000, 0.000000000000000000 ) ) ;
#35 = LINE ( 'NONE', #63, #251 ) ;
#36 = CIRCLE ( 'NONE', #134, 5.000000000000000000 ) ;
#37 = AXIS2_PLACEMENT_3D ( 'NONE', #317, #17, #339 ) ;
#38 = DIRECTION ( 'NONE',  ( 1.000000000000000000, 0.000000000000000000, 0.000000000000000000 ) ) ;
#39 = LINE ( 'NONE', #361, #12 ) ;
#40 = CARTESIAN_POINT ( 'NONE',  ( -1.387778780781445676E-14, 40.00000000000000711, 0.000000000000000000 ) ) ;
#41 = ORIENTED_EDGE ( 'NONE', *, *, #27, .F. ) ;
#42 = PRODUCT_DEFINITION_FORMATION_WITH_SPECIFIED_SOURCE ( 'ANY', '', #6, .NOT_KNOWN. ) ;
#43 = DIRECTION ( 'NONE',  ( 0.000000000000000000, 0.000000000000000000, 1.000000000000000000 ) ) ;
#44 = EDGE_CURVE ( 'NONE', #268, #340, #258, .T. ) ;
#45 = ORIENTED_EDGE ( 'NONE', *, *, #299, .T. ) ;
#46 = DIRECTION ( 'NONE',  ( -1.000000000000000000, 0.000000000000000000, 0.000000000000000000 ) ) ;
#47 = EDGE_LOOP ( 'NONE', ( #370, #193 ) ) ;
#48 = PRODUCT_RELATED_PRODUCT_CATEGORY ( 'detail', '', ( #6 ) ) ;
#49 = ORIENTED_EDGE ( 'NONE', *, *, #76, .F. ) ;
#50 = APPLICATION_CONTEXT ( 'configuration controlled 3d designs of mechanical parts and assemblies' ) ;
#51 = VECTOR ( 'NONE', #57, 1000.000000000000000 ) ;
#52 = PERSON_AND_ORGANIZATION ( #82, #185 ) ;
#53 = LOCAL_TIME ( 13, 49, 32.00000000000000000, #291 ) ;
#54 = PERSON_AND_ORGANIZATION_ROLE ( 'design_supplier' ) ;
#55 = CARTESIAN_POINT ( 'NONE',  ( -50.00000000000001421, -2.694222958124176730E-14, 0.000000000000000000 ) ) ;
#56 = COORDINATED_UNIVERSAL_TIME_OFFSET ( 10, 0, .AHEAD. ) ;
#57 = DIRECTION ( 'NONE',  ( -0.000000000000000000, -1.000000000000000000, -0.000000000000000000 ) ) ;
#58 = DIRECTION ( 'NONE',  ( -2.775557561562890858E-16, 1.000000000000000000, 0.000000000000000000 ) ) ;
#59 = VECTOR ( 'NONE', #24, 1000.000000000000000 ) ;
#60 = DIRECTION ( 'NONE',  ( 1.000000000000000000, 5.388445916248350069E-16, 0.000000000000000000 ) ) ;
#61 = PLANE ( 'NONE',  #276 ) ;
#62 = EDGE_CURVE ( 'NONE', #252, #315, #206, .T. ) ;
#63 = CARTESIAN_POINT ( 'NONE',  ( -4.999999999999999112, -2.694222958124174837E-15, -6.000000000000000000 ) ) ;
#64 = CIRCLE ( 'NONE', #125, 7.500000000000000000 ) ;
#65 = LOCAL_TIME ( 13, 49, 32.00000000000000000, #56 ) ;
#66 = DIRECTION ( 'NONE',  ( -0.000000000000000000, -0.000000000000000000, 1.000000000000000000 ) ) ;
#67 = LINE ( 'NONE', #219, #183 ) ;
#68 = ORIENTED_EDGE ( 'NONE', *, *, #8, .T. ) ;
#69 = EDGE_CURVE ( 'NONE', #117, #362, #116, .T. ) ;
#70 = DIRECTION ( 'NONE',  ( 0.000000000000000000, 0.000000000000000000, 1.000000000000000000 ) ) ;
#71 = EDGE_LOOP ( 'NONE', ( #249, #280, #176, #292, #364, #311 ) ) ;
#72 = AXIS2_PLACEMENT_3D ( 'NONE', #250, #139, #373 ) ;
#73 = CARTESIAN_POINT ( 'NONE',  ( 0.000000000000000000, 0.000000000000000000, 0.000000000000000000 ) ) ;
#74 = ORIENTED_EDGE ( 'NONE', *, *, #32, .F. ) ;
#75 =( NAMED_UNIT ( * ) PLANE_ANGLE_UNIT ( ) SI_UNIT ( $, .RADIAN. ) );
#76 = EDGE_CURVE ( 'NONE', #130, #97, #151, .T. ) ;
#77 = CC_DESIGN_PERSON_AND_ORGANIZATION_ASSIGNMENT ( #289, #198, ( #6 ) ) ;
#78 = ORIENTED_EDGE ( 'NONE', *, *, #294, .F. ) ;
#79 = CARTESIAN_POINT ( 'NONE',  ( -1.734723475976806503E-15, 4.999999999999999112, 0.000000000000000000 ) ) ;
#80 = ORIENTED_EDGE ( 'NONE', *, *, #124, .F. ) ;
#81 = APPROVAL_ROLE ( '' ) ;
#82 = PERSON ( 'UNSPECIFIED', 'UNSPECIFIED', 'UNSPECIFIED', ('UNSPECIFIED'), ('UNSPECIFIED'), ('UNSPECIFIED') ) ;
#83 = CALENDAR_DATE ( 2026, 9, 1 ) ;
#84 = CC_DESIGN_APPROVAL ( #253, ( #42 ) ) ;
#85 = ORIENTED_EDGE ( 'NONE', *, *, #27, .T. ) ;
#86 = DATE_AND_TIME ( #380, #360 ) ;
#87 = CARTESIAN_POINT ( 'NONE',  ( -12.49999999999999645, 19.99999999999998579, 0.000000000000000000 ) ) ;
#88 = DIRECTION ( 'NONE',  ( 0.000000000000000000, 0.000000000000000000, 1.000000000000000000 ) ) ;
#89 = FACE_OUTER_BOUND ( 'NONE', #16, .T. ) ;
#90 = CARTESIAN_POINT ( 'NONE',  ( 0.000000000000000000, 0.000000000000000000, -6.000000000000000000 ) ) ;
#91 = CARTESIAN_POINT ( 'NONE',  ( -50.00000000000001421, 39.99999999999999289, -6.000000000000000000 ) ) ;
#92 = ADVANCED_FACE ( 'NONE', ( #118 ), #270, .T. ) ;
#93 = CARTESIAN_POINT ( 'NONE',  ( -5.000000000000012434, 35.00000000000000711, -6.000000000000000000 ) ) ;
#94 = CYLINDRICAL_SURFACE ( 'NONE', #136, 5.000000000000000000 ) ;
#95 = ORIENTED_EDGE ( 'NONE', *, *, #347, .F. ) ;
#96 = CARTESIAN_POINT ( 'NONE',  ( 0.000000000000000000, 0.000000000000000000, 0.000000000000000000 ) ) ;
#97 = VERTEX_POINT ( 'NONE', #55 ) ;
#98 = DIRECTION ( 'NONE',  ( -1.000000000000000000, -2.775557561562891351E-16, 0.000000000000000000 ) ) ;
#99 = AXIS2_PLACEMENT_3D ( 'NONE', #110, #58, #296 ) ;
#100 = VERTEX_POINT ( 'NONE', #169 ) ;
#101 = CC_DESIGN_SECURITY_CLASSIFICATION ( #223, ( #42 ) ) ;
#102 = PLANE ( 'NONE',  #171 ) ;
#103 = ORIENTED_EDGE ( 'NONE', *, *, #69, .T. ) ;
#104 = CARTESIAN_POINT ( 'NONE',  ( -27.49999999999999645, 19.99999999999998579, 1.224646799147352468E-16 ) ) ;
#105 = EDGE_LOOP ( 'NONE', ( #80, #191, #68, #41 ) ) ;
#106 = APPLICATION_PROTOCOL_DEFINITION ( 'international standard', 'config_control_design', 1994, #213 ) ;
#107 = VECTOR ( 'NONE', #187, 1000.000000000000000 ) ;
#108 = DIRECTION ( 'NONE',  ( 1.000000000000000000, 0.000000000000000000, -0.000000000000000000 ) ) ;
#109 = APPROVAL_DATE_TIME ( #235, #318 ) ;
#110 = CARTESIAN_POINT ( 'NONE',  ( -1.387778780781445676E-14, 40.00000000000000711, -6.000000000000000000 ) ) ;
#111 = AXIS2_PLACEMENT_3D ( 'NONE', #369, #288, #137 ) ;
#112 = APPROVAL_STATUS ( 'not_yet_approved' ) ;
#113 = DIRECTION ( 'NONE',  ( -0.000000000000000000, -0.000000000000000000, 1.000000000000000000 ) ) ;
#114 = CC_DESIGN_PERSON_AND_ORGANIZATION_ASSIGNMENT ( #2, #349, ( #223 ) ) ;
#115 = COORDINATED_UNIVERSAL_TIME_OFFSET ( 10, 0, .AHEAD. ) ;
#116 = LINE ( 'NONE', #90, #222 ) ;
#117 = VERTEX_POINT ( 'NONE', #355 ) ;
#118 = FACE_OUTER_BOUND ( 'NONE', #229, .T. ) ;
#119 = ADVANCED_FACE ( 'NONE', ( #295 ), #143, .T. ) ;
#120 = DIRECTION ( 'NONE',  ( 1.000000000000000000, 0.000000000000000000, -0.000000000000000000 ) ) ;
#121 = DIRECTION ( 'NONE',  ( 0.000000000000000000, 0.000000000000000000, 1.000000000000000000 ) ) ;
#122 = PRODUCT_DEFINITION_SHAPE ( 'NONE', 'NONE',  #323 ) ;
#123 = DIRECTION ( 'NONE',  ( 0.000000000000000000, 0.000000000000000000, 1.000000000000000000 ) ) ;
#124 = EDGE_CURVE ( 'NONE', #100, #218, #368, .T. ) ;
#125 = AXIS2_PLACEMENT_3D ( 'NONE', #262, #113, #31 ) ;
#126 = AXIS2_PLACEMENT_3D ( 'NONE', #357, #66, #305 ) ;
#127 = ORIENTED_EDGE ( 'NONE', *, *, #149, .T. ) ;
#128 = UNCERTAINTY_MEASURE_WITH_UNIT (LENGTH_MEASURE( 1.000000000000000082E-05 ), #341, 'distance_accuracy_value', 'NONE');
#129 = DIRECTION ( 'NONE',  ( -0.000000000000000000, -1.000000000000000000, -0.000000000000000000 ) ) ;
#130 = VERTEX_POINT ( 'NONE', #326 ) ;
#131 = CYLINDRICAL_SURFACE ( 'NONE', #19, 5.000000000000000000 ) ;
#132 = EDGE_LOOP ( 'NONE', ( #245, #220, #278, #342 ) ) ;
#133 = ADVANCED_FACE ( 'NONE', ( #89 ), #148, .T. ) ;
#134 = AXIS2_PLACEMENT_3D ( 'NONE', #180, #298, #34 ) ;
#135 = ORIENTED_EDGE ( 'NONE', *, *, #259, .T. ) ;
#136 = AXIS2_PLACEMENT_3D ( 'NONE', #277, #70, #246 ) ;
#137 = DIRECTION ( 'NONE',  ( 1.000000000000000000, 0.000000000000000000, 0.000000000000000000 ) ) ;
#138 = ORIENTED_EDGE ( 'NONE', *, *, #44, .F. ) ;
#139 = DIRECTION ( 'NONE',  ( 0.000000000000000000, 0.000000000000000000, 1.000000000000000000 ) ) ;
#140 = APPLICATION_PROTOCOL_DEFINITION ( 'international standard', 'config_control_design', 1994, #50 ) ;
#141 = EDGE_CURVE ( 'NONE', #310, #160, #36, .T. ) ;
#142 = PERSON_AND_ORGANIZATION ( #82, #185 ) ;
#143 = PLANE ( 'NONE',  #152 ) ;
#144 = EDGE_CURVE ( 'NONE', #146, #254, #67, .T. ) ;
#145 = PERSON_AND_ORGANIZATION_ROLE ( 'creator' ) ;
#146 = VERTEX_POINT ( 'NONE', #153 ) ;
#147 = DIRECTION ( 'NONE',  ( 1.000000000000000000, 3.469446951953613696E-16, -0.000000000000000000 ) ) ;
#148 = PLANE ( 'NONE',  #285 ) ;
#149 = EDGE_CURVE ( 'NONE', #254, #130, #10, .T. ) ;
#150 = APPROVAL_DATE_TIME ( #86, #253 ) ;
#151 = LINE ( 'NONE', #328, #51 ) ;
#152 = AXIS2_PLACEMENT_3D ( 'NONE', #350, #147, #266 ) ;
#153 = CARTESIAN_POINT ( 'NONE',  ( -5.000000000000014211, 40.00000000000000711, -6.000000000000000000 ) ) ;
#154 = DIRECTION ( 'NONE',  ( 0.000000000000000000, 0.000000000000000000, 1.000000000000000000 ) ) ;
#155 = ADVANCED_FACE ( 'NONE', ( #190 ), #308, .F. ) ;
#156 = CC_DESIGN_PERSON_AND_ORGANIZATION_ASSIGNMENT ( #293, #145, ( #323 ) ) ;
#157 = LINE ( 'NONE', #216, #107 ) ;
#158 = CARTESIAN_POINT ( 'NONE',  ( -5.000000000000014211, 40.00000000000000711, -6.000000000000000000 ) ) ;
#159 = VECTOR ( 'NONE', #182, 1000.000000000000000 ) ;
#160 = VERTEX_POINT ( 'NONE', #274 ) ;
#161 = DIRECTION ( 'NONE',  ( -0.000000000000000000, -0.000000000000000000, 1.000000000000000000 ) ) ;
#162 = ADVANCED_FACE ( 'NONE', ( #244 ), #131, .T. ) ;
#163 = ORIENTED_EDGE ( 'NONE', *, *, #272, .T. ) ;
#164 = EDGE_LOOP ( 'NONE', ( #74, #286, #85, #226 ) ) ;
#165 =( NAMED_UNIT ( * ) SI_UNIT ( $, .STERADIAN. ) SOLID_ANGLE_UNIT ( ) );
#166 = LOCAL_TIME ( 13, 49, 32.00000000000000000, #115 ) ;
#167 = EDGE_LOOP ( 'NONE', ( #26, #14, #306, #178, #378, #21 ) ) ;
#168 = FACE_OUTER_BOUND ( 'NONE', #189, .T. ) ;
#169 = CARTESIAN_POINT ( 'NONE',  ( -27.49999999999999645, 19.99999999999998579, -6.000000000000000000 ) ) ;
#170 = DIRECTION ( 'NONE',  ( 0.000000000000000000, 0.000000000000000000, 1.000000000000000000 ) ) ;
#171 = AXIS2_PLACEMENT_3D ( 'NONE', #73, #375, #108 ) ;
#172 = APPROVAL_ROLE ( '' ) ;
#173 = APPROVAL_DATE_TIME ( #267, #181 ) ;
#174 = CARTESIAN_POINT ( 'NONE',  ( -19.99999999999999645, 19.99999999999998579, 1.224646799147352468E-16 ) ) ;
#175 = EDGE_CURVE ( 'NONE', #160, #130, #241, .T. ) ;
#176 = ORIENTED_EDGE ( 'NONE', *, *, #196, .T. ) ;
#177 = VECTOR ( 'NONE', #221, 1000.000000000000000 ) ;
#178 = ORIENTED_EDGE ( 'NONE', *, *, #259, .F. ) ;
#179 = CALENDAR_DATE ( 2026, 9, 1 ) ;
#180 = CARTESIAN_POINT ( 'NONE',  ( -5.000000000000012434, 35.00000000000000711, 0.000000000000000000 ) ) ;
#181 = APPROVAL ( #210, 'UNSPECIFIED' ) ;
#182 = DIRECTION ( 'NONE',  ( -0.000000000000000000, -0.000000000000000000, -1.000000000000000000 ) ) ;
#183 = VECTOR ( 'NONE', #98, 1000.000000000000000 ) ;
#184 = DIRECTION ( 'NONE',  ( -0.000000000000000000, -0.000000000000000000, -1.000000000000000000 ) ) ;
#185 = ORGANIZATION ( 'UNSPECIFIED', 'UNSPECIFIED', '' ) ;
#186 = CC_DESIGN_PERSON_AND_ORGANIZATION_ASSIGNMENT ( #321, #54, ( #42 ) ) ;
#187 = DIRECTION ( 'NONE',  ( -3.469446951953613696E-16, 1.000000000000000000, 0.000000000000000000 ) ) ;
#188 = CARTESIAN_POINT ( 'NONE',  ( -50.00000000000001421, -2.694222958124176730E-14, -6.000000000000000000 ) ) ;
#189 = EDGE_LOOP ( 'NONE', ( #49, #283, #135, #45 ) ) ;
#190 = FACE_OUTER_BOUND ( 'NONE', #105, .T. ) ;
#191 = ORIENTED_EDGE ( 'NONE', *, *, #32, .T. ) ;
#192 = ORIENTED_EDGE ( 'NONE', *, *, #265, .F. ) ;
#193 = ORIENTED_EDGE ( 'NONE', *, *, #124, .T. ) ;
#194 = CARTESIAN_POINT ( 'NONE',  ( -50.00000000000001421, -2.694222958124176730E-14, -6.000000000000000000 ) ) ;
#195 = ORIENTED_EDGE ( 'NONE', *, *, #215, .T. ) ;
#196 = EDGE_CURVE ( 'NONE', #367, #310, #157, .T. ) ;
#197 = CC_DESIGN_DATE_AND_TIME_ASSIGNMENT ( #203, #263, ( #323 ) ) ;
#198 = PERSON_AND_ORGANIZATION_ROLE ( 'design_owner' ) ;
#199 = DIRECTION ( 'NONE',  ( 0.000000000000000000, 0.000000000000000000, 1.000000000000000000 ) ) ;
#200 = DATE_TIME_ROLE ( 'classification_date' ) ;
#201 = AXIS2_PLACEMENT_3D ( 'NONE', #237, #88, #207 ) ;
#202 = APPROVAL_PERSON_ORGANIZATION ( #52, #181, #172 ) ;
#203 = DATE_AND_TIME ( #377, #65 ) ;
#204 = ORIENTED_EDGE ( 'NONE', *, *, #265, .T. ) ;
#205 = DATE_AND_TIME ( #83, #53 ) ;
#206 = LINE ( 'NONE', #3, #301 ) ;
#207 = DIRECTION ( 'NONE',  ( 1.000000000000000000, 0.000000000000000000, 0.000000000000000000 ) ) ;
#208 = EDGE_CURVE ( 'NONE', #146, #315, #302, .T. ) ;
#209 = AXIS2_PLACEMENT_3D ( 'NONE', #194, #46, #199 ) ;
#210 = APPROVAL_STATUS ( 'not_yet_approved' ) ;
#211 = DIRECTION ( 'NONE',  ( 5.388445916248350069E-16, -1.000000000000000000, 0.000000000000000000 ) ) ;
#212 = ORIENTED_EDGE ( 'NONE', *, *, #272, .F. ) ;
#213 = APPLICATION_CONTEXT ( 'configuration controlled 3d designs of mechanical parts and assemblies' ) ;
#214 = LINE ( 'NONE', #188, #338 ) ;
#215 = EDGE_CURVE ( 'NONE', #315, #310, #329, .T. ) ;
#216 = CARTESIAN_POINT ( 'NONE',  ( 0.000000000000000000, 0.000000000000000000, 0.000000000000000000 ) ) ;
#217 = CARTESIAN_POINT ( 'NONE',  ( -1.214306433183765124E-14, 35.00000000000000711, -6.000000000000000000 ) ) ;
#218 = VERTEX_POINT ( 'NONE', #271 ) ;
#219 = CARTESIAN_POINT ( 'NONE',  ( -1.387778780781445676E-14, 40.00000000000000711, -6.000000000000000000 ) ) ;
#220 = ORIENTED_EDGE ( 'NONE', *, *, #231, .F. ) ;
#221 = DIRECTION ( 'NONE',  ( -1.000000000000000000, -2.775557561562891351E-16, 0.000000000000000000 ) ) ;
#222 = VECTOR ( 'NONE', #376, 1000.000000000000000 ) ;
#223 = SECURITY_CLASSIFICATION ( '', '', #269 ) ;
#224 = ORIENTED_EDGE ( 'NONE', *, *, #144, .T. ) ;
#225 = CARTESIAN_POINT ( 'NONE',  ( -4.999999999999999112, -2.694222958124174837E-15, 0.000000000000000000 ) ) ;
#226 = ORIENTED_EDGE ( 'NONE', *, *, #44, .T. ) ;
#227 = CARTESIAN_POINT ( 'NONE',  ( -1.214306433183765124E-14, 35.00000000000000711, 0.000000000000000000 ) ) ;
#228 = ADVANCED_FACE ( 'NONE', ( #13, #7 ), #61, .F. ) ;
#229 = EDGE_LOOP ( 'NONE', ( #337, #236, #224, #127 ) ) ;
#230 = MECHANICAL_CONTEXT ( 'NONE', #213, 'mechanical' ) ;
#231 = EDGE_CURVE ( 'NONE', #160, #146, #240, .T. ) ;
#232 = COORDINATED_UNIVERSAL_TIME_OFFSET ( 10, 0, .AHEAD. ) ;
#233 = LINE ( 'NONE', #29, #313 ) ;
#234 = VECTOR ( 'NONE', #43, 1000.000000000000000 ) ;
#235 = DATE_AND_TIME ( #179, #331 ) ;
#236 = ORIENTED_EDGE ( 'NONE', *, *, #231, .T. ) ;
#237 = CARTESIAN_POINT ( 'NONE',  ( -19.99999999999999645, 19.99999999999998579, -6.000000000000000000 ) ) ;
#238 = DIRECTION ( 'NONE',  ( 1.000000000000000000, 0.000000000000000000, 0.000000000000000000 ) ) ;
#239 = DESIGN_CONTEXT ( 'detailed design', #50, 'design' ) ;
#240 = LINE ( 'NONE', #158, #159 ) ;
#241 = LINE ( 'NONE', #40, #177 ) ;
#242 = ADVANCED_FACE ( 'NONE', ( #332 ), #300, .F. ) ;
#243 = CIRCLE ( 'NONE', #72, 7.500000000000000000 ) ;
#244 = FACE_OUTER_BOUND ( 'NONE', #132, .T. ) ;
#245 = ORIENTED_EDGE ( 'NONE', *, *, #208, .F. ) ;
#246 = DIRECTION ( 'NONE',  ( 1.000000000000000000, 0.000000000000000000, 0.000000000000000000 ) ) ;
#247 = CC_DESIGN_PERSON_AND_ORGANIZATION_ASSIGNMENT ( #297, #33, ( #42 ) ) ;
#248 = CARTESIAN_POINT ( 'NONE',  ( -5.000000000000012434, 35.00000000000000711, -6.000000000000000000 ) ) ;
#249 = ORIENTED_EDGE ( 'NONE', *, *, #294, .T. ) ;
#250 = CARTESIAN_POINT ( 'NONE',  ( -19.99999999999999645, 19.99999999999998579, -6.000000000000000000 ) ) ;
#251 = VECTOR ( 'NONE', #123, 1000.000000000000000 ) ;
#252 = VERTEX_POINT ( 'NONE', #336 ) ;
#253 = APPROVAL ( #112, 'UNSPECIFIED' ) ;
#254 = VERTEX_POINT ( 'NONE', #334 ) ;
#255 = CARTESIAN_POINT ( 'NONE',  ( 0.000000000000000000, 0.000000000000000000, 0.000000000000000000 ) ) ;
#256 = FACE_OUTER_BOUND ( 'NONE', #71, .T. ) ;
#257 = ADVANCED_BREP_SHAPE_REPRESENTATION ( '4229-50-10-10_REV_', ( #282, #25 ), #351 ) ;
#258 = CIRCLE ( 'NONE', #307, 7.500000000000000000 ) ;
#259 = EDGE_CURVE ( 'NONE', #254, #117, #214, .T. ) ;
#260 = CC_DESIGN_APPROVAL ( #181, ( #223 ) ) ;
#261 = CARTESIAN_POINT ( 'NONE',  ( -4.999999999999999112, -2.694222958124174837E-15, -6.000000000000000000 ) ) ;
#262 = CARTESIAN_POINT ( 'NONE',  ( -19.99999999999999645, 19.99999999999998579, 1.224646799147352468E-16 ) ) ;
#263 = DATE_TIME_ROLE ( 'creation_date' ) ;
#264 = ORIENTED_EDGE ( 'NONE', *, *, #62, .T. ) ;
#265 = EDGE_CURVE ( 'NONE', #362, #335, #35, .T. ) ;
#266 = DIRECTION ( 'NONE',  ( -3.469446951953613696E-16, 1.000000000000000000, 0.000000000000000000 ) ) ;
#267 = DATE_AND_TIME ( #354, #166 ) ;
#268 = VERTEX_POINT ( 'NONE', #304 ) ;
#269 = SECURITY_CLASSIFICATION_LEVEL ( 'unclassified' ) ;
#270 = PLANE ( 'NONE',  #99 ) ;
#271 = CARTESIAN_POINT ( 'NONE',  ( -12.49999999999999645, 19.99999999999998579, -6.000000000000000000 ) ) ;
#272 = EDGE_CURVE ( 'NONE', #367, #252, #39, .T. ) ;
#273 = CARTESIAN_POINT ( 'NONE',  ( 0.000000000000000000, 0.000000000000000000, -6.000000000000000000 ) ) ;
#274 = CARTESIAN_POINT ( 'NONE',  ( -5.000000000000014211, 40.00000000000000711, 0.000000000000000000 ) ) ;
#275 = ORIENTED_EDGE ( 'NONE', *, *, #196, .F. ) ;
#276 = AXIS2_PLACEMENT_3D ( 'NONE', #273, #9, #120 ) ;
#277 = CARTESIAN_POINT ( 'NONE',  ( -5.000000000000001776, 4.999999999999997335, -6.000000000000000000 ) ) ;
#278 = ORIENTED_EDGE ( 'NONE', *, *, #141, .F. ) ;
#279 = CARTESIAN_POINT ( 'NONE',  ( -19.99999999999999645, 19.99999999999998579, 0.000000000000000000 ) ) ;
#280 = ORIENTED_EDGE ( 'NONE', *, *, #312, .T. ) ;
#281 = FACE_BOUND ( 'NONE', #344, .T. ) ;
#282 = MANIFOLD_SOLID_BREP ( 'Fillet1', #345 ) ;
#283 = ORIENTED_EDGE ( 'NONE', *, *, #149, .F. ) ;
#284 = ADVANCED_FACE ( 'NONE', ( #303 ), #94, .T. ) ;
#285 = AXIS2_PLACEMENT_3D ( 'NONE', #1, #211, #60 ) ;
#286 = ORIENTED_EDGE ( 'NONE', *, *, #359, .F. ) ;
#287 = LINE ( 'NONE', #343, #30 ) ;
#288 = DIRECTION ( 'NONE',  ( 0.000000000000000000, 0.000000000000000000, 1.000000000000000000 ) ) ;
#289 = PERSON_AND_ORGANIZATION ( #82, #185 ) ;
#290 = CIRCLE ( 'NONE', #37, 5.000000000000000000 ) ;
#291 = COORDINATED_UNIVERSAL_TIME_OFFSET ( 10, 0, .AHEAD. ) ;
#292 = ORIENTED_EDGE ( 'NONE', *, *, #141, .T. ) ;
#293 = PERSON_AND_ORGANIZATION ( #82, #185 ) ;
#294 = EDGE_CURVE ( 'NONE', #97, #335, #363, .T. ) ;
#295 = FACE_OUTER_BOUND ( 'NONE', #11, .T. ) ;
#296 = DIRECTION ( 'NONE',  ( -1.000000000000000000, -2.775557561562890858E-16, 0.000000000000000000 ) ) ;
#297 = PERSON_AND_ORGANIZATION ( #82, #185 ) ;
#298 = DIRECTION ( 'NONE',  ( 0.000000000000000000, 0.000000000000000000, 1.000000000000000000 ) ) ;
#299 = EDGE_CURVE ( 'NONE', #117, #97, #287, .T. ) ;
#300 = CYLINDRICAL_SURFACE ( 'NONE', #126, 7.500000000000000000 ) ;
#301 = VECTOR ( 'NONE', #325, 1000.000000000000000 ) ;
#302 = CIRCLE ( 'NONE', #320, 5.000000000000000000 ) ;
#303 = FACE_OUTER_BOUND ( 'NONE', #371, .T. ) ;
#304 = CARTESIAN_POINT ( 'NONE',  ( -12.49999999999999645, 19.99999999999998579, 1.224646799147352468E-16 ) ) ;
#305 = DIRECTION ( 'NONE',  ( 1.000000000000000000, 0.000000000000000000, 0.000000000000000000 ) ) ;
#306 = ORIENTED_EDGE ( 'NONE', *, *, #69, .F. ) ;
#307 = AXIS2_PLACEMENT_3D ( 'NONE', #174, #356, #238 ) ;
#308 = CYLINDRICAL_SURFACE ( 'NONE', #346, 7.500000000000000000 ) ;
#309 = ORIENTED_EDGE ( 'NONE', *, *, #299, .F. ) ;
#310 = VERTEX_POINT ( 'NONE', #227 ) ;
#311 = ORIENTED_EDGE ( 'NONE', *, *, #76, .T. ) ;
#312 = EDGE_CURVE ( 'NONE', #335, #367, #374, .T. ) ;
#313 = VECTOR ( 'NONE', #322, 1000.000000000000000 ) ;
#314 = CC_DESIGN_APPROVAL ( #318, ( #323 ) ) ;
#315 = VERTEX_POINT ( 'NONE', #316 ) ;
#316 = CARTESIAN_POINT ( 'NONE',  ( -1.214306433183765124E-14, 35.00000000000000711, -6.000000000000000000 ) ) ;
#317 = CARTESIAN_POINT ( 'NONE',  ( -5.000000000000001776, 4.999999999999997335, -6.000000000000000000 ) ) ;
#318 = APPROVAL ( #348, 'UNSPECIFIED' ) ;
#319 = PERSON_AND_ORGANIZATION ( #82, #185 ) ;
#320 = AXIS2_PLACEMENT_3D ( 'NONE', #248, #366, #358 ) ;
#321 = PERSON_AND_ORGANIZATION ( #82, #185 ) ;
#322 = DIRECTION ( 'NONE',  ( -0.000000000000000000, -0.000000000000000000, 1.000000000000000000 ) ) ;
#323 = PRODUCT_DEFINITION ( 'UNKNOWN', '', #42, #239 ) ;
#324 = APPROVAL_ROLE ( '' ) ;
#325 = DIRECTION ( 'NONE',  ( -3.469446951953613696E-16, 1.000000000000000000, 0.000000000000000000 ) ) ;
#326 = CARTESIAN_POINT ( 'NONE',  ( -50.00000000000001421, 39.99999999999999289, 0.000000000000000000 ) ) ;
#327 = ORIENTED_EDGE ( 'NONE', *, *, #312, .F. ) ;
#328 = CARTESIAN_POINT ( 'NONE',  ( -50.00000000000001421, -2.694222958124176730E-14, 0.000000000000000000 ) ) ;
#329 = LINE ( 'NONE', #217, #234 ) ;
#330 = VECTOR ( 'NONE', #121, 1000.000000000000000 ) ;
#331 = LOCAL_TIME ( 13, 49, 32.00000000000000000, #352 ) ;
#332 = FACE_OUTER_BOUND ( 'NONE', #164, .T. ) ;
#333 = ADVANCED_FACE ( 'NONE', ( #168 ), #23, .T. ) ;
#334 = CARTESIAN_POINT ( 'NONE',  ( -50.00000000000001421, 39.99999999999999289, -6.000000000000000000 ) ) ;
#335 = VERTEX_POINT ( 'NONE', #225 ) ;
#336 = CARTESIAN_POINT ( 'NONE',  ( -1.734723475976806503E-15, 4.999999999999999112, -6.000000000000000000 ) ) ;
#337 = ORIENTED_EDGE ( 'NONE', *, *, #175, .F. ) ;
#338 = VECTOR ( 'NONE', #129, 1000.000000000000000 ) ;
#339 = DIRECTION ( 'NONE',  ( 1.000000000000000000, 0.000000000000000000, 0.000000000000000000 ) ) ;
#340 = VERTEX_POINT ( 'NONE', #104 ) ;
#341 =( LENGTH_UNIT ( ) NAMED_UNIT ( * ) SI_UNIT ( .MILLI., .METRE. ) );
#342 = ORIENTED_EDGE ( 'NONE', *, *, #215, .F. ) ;
#343 = CARTESIAN_POINT ( 'NONE',  ( -50.00000000000001421, -2.694222958124176730E-14, -6.000000000000000000 ) ) ;
#344 = EDGE_LOOP ( 'NONE', ( #138, #18 ) ) ;
#345 = CLOSED_SHELL ( 'NONE', ( #155, #119, #133, #333, #92, #228, #365, #242, #284, #162 ) ) ;
#346 = AXIS2_PLACEMENT_3D ( 'NONE', #279, #161, #15 ) ;
#347 = EDGE_CURVE ( 'NONE', #252, #362, #290, .T. ) ;
#348 = APPROVAL_STATUS ( 'not_yet_approved' ) ;
#349 = PERSON_AND_ORGANIZATION_ROLE ( 'classification_officer' ) ;
#350 = CARTESIAN_POINT ( 'NONE',  ( 0.000000000000000000, 0.000000000000000000, -6.000000000000000000 ) ) ;
#351 =( GEOMETRIC_REPRESENTATION_CONTEXT ( 3 ) GLOBAL_UNCERTAINTY_ASSIGNED_CONTEXT ( ( #128 ) ) GLOBAL_UNIT_ASSIGNED_CONTEXT ( ( #341, #75, #165 ) ) REPRESENTATION_CONTEXT ( 'NONE', 'WORKASPACE' ) );
#352 = COORDINATED_UNIVERSAL_TIME_OFFSET ( 10, 0, .AHEAD. ) ;
#353 = LINE ( 'NONE', #87, #4 ) ;
#354 = CALENDAR_DATE ( 2026, 9, 1 ) ;
#355 = CARTESIAN_POINT ( 'NONE',  ( -50.00000000000001421, -2.694222958124176730E-14, -6.000000000000000000 ) ) ;
#356 = DIRECTION ( 'NONE',  ( -0.000000000000000000, -0.000000000000000000, 1.000000000000000000 ) ) ;
#357 = CARTESIAN_POINT ( 'NONE',  ( -19.99999999999999645, 19.99999999999998579, 0.000000000000000000 ) ) ;
#358 = DIRECTION ( 'NONE',  ( 1.000000000000000000, 1.387778780781445676E-15, 0.000000000000000000 ) ) ;
#359 = EDGE_CURVE ( 'NONE', #218, #100, #243, .T. ) ;
#360 = LOCAL_TIME ( 13, 49, 32.00000000000000000, #232 ) ;
#361 = CARTESIAN_POINT ( 'NONE',  ( -1.734723475976806503E-15, 4.999999999999999112, -6.000000000000000000 ) ) ;
#362 = VERTEX_POINT ( 'NONE', #261 ) ;
#363 = LINE ( 'NONE', #96, #59 ) ;
#364 = ORIENTED_EDGE ( 'NONE', *, *, #175, .T. ) ;
#365 = ADVANCED_FACE ( 'NONE', ( #281, #256 ), #102, .T. ) ;
#366 = DIRECTION ( 'NONE',  ( -0.000000000000000000, -0.000000000000000000, -1.000000000000000000 ) ) ;
#367 = VERTEX_POINT ( 'NONE', #79 ) ;
#368 = CIRCLE ( 'NONE', #201, 7.500000000000000000 ) ;
#369 = CARTESIAN_POINT ( 'NONE',  ( -5.000000000000001776, 4.999999999999997335, 0.000000000000000000 ) ) ;
#370 = ORIENTED_EDGE ( 'NONE', *, *, #359, .T. ) ;
#371 = EDGE_LOOP ( 'NONE', ( #95, #212, #327, #192 ) ) ;
#372 = DIRECTION ( 'NONE',  ( 1.000000000000000000, 0.000000000000000000, 0.000000000000000000 ) ) ;
#373 = DIRECTION ( 'NONE',  ( 1.000000000000000000, 0.000000000000000000, 0.000000000000000000 ) ) ;
#374 = CIRCLE ( 'NONE', #111, 5.000000000000000000 ) ;
#375 = DIRECTION ( 'NONE',  ( 0.000000000000000000, 0.000000000000000000, 1.000000000000000000 ) ) ;
#376 = DIRECTION ( 'NONE',  ( 1.000000000000000000, 5.388445916248350069E-16, -0.000000000000000000 ) ) ;
#377 = CALENDAR_DATE ( 2026, 9, 1 ) ;
#378 = ORIENTED_EDGE ( 'NONE', *, *, #144, .F. ) ;
#379 = APPROVAL_PERSON_ORGANIZATION ( #142, #318, #81 ) ;
#380 = CALENDAR_DATE ( 2026, 9, 1 ) ;
#381 = DIRECTION ( 'NONE',  ( -0.000000000000000000, -0.000000000000000000, 1.000000000000000000 ) ) ;
ENDSEC;
END-ISO-10303-21;
