ISO-10303-21;
HEADER;
FILE_DESCRIPTION (( 'STEP AP203' ),
    '1' );
FILE_NAME ('4229-50-10-15_REV_.step',
    '2026-01-09T02:49:19',
    ( '' ),
    ( '' ),
    'SwSTEP 2.0',
    'SolidWorks 2025',
    '' );
FILE_SCHEMA (( 'CONFIG_CONTROL_DESIGN' ));
ENDSEC;

DATA;
#1 = APPROVAL_ROLE ( '' ) ;
#2 = EDGE_LOOP ( 'NONE', ( #308, #44 ) ) ;
#3 = LOCAL_TIME ( 13, 49, 19.00000000000000000, #284 ) ;
#4 = DATE_AND_TIME ( #233, #144 ) ;
#5 = ADVANCED_FACE ( 'NONE', ( #51 ), #166, .T. ) ;
#6 = ORIENTED_EDGE ( 'NONE', *, *, #80, .F. ) ;
#7 = DIRECTION ( 'NONE',  ( -1.000000000000000000, -1.875376730785737966E-16, 0.000000000000000000 ) ) ;
#8 = FACE_OUTER_BOUND ( 'NONE', #217, .T. ) ;
#9 = EDGE_CURVE ( 'NONE', #139, #202, #30, .T. ) ;
#10 = CIRCLE ( 'NONE', #189, 7.500000000000000000 ) ;
#11 = CARTESIAN_POINT ( 'NONE',  ( -1.387778780781445676E-14, 40.00000000000000711, -6.000000000000000000 ) ) ;
#12 = FACE_OUTER_BOUND ( 'NONE', #76, .T. ) ;
#13 = CARTESIAN_POINT ( 'NONE',  ( 0.000000000000000000, 0.000000000000000000, -6.000000000000000000 ) ) ;
#14 = EDGE_CURVE ( 'NONE', #157, #141, #183, .T. ) ;
#15 =( LENGTH_UNIT ( ) NAMED_UNIT ( * ) SI_UNIT ( .MILLI., .METRE. ) );
#16 = UNCERTAINTY_MEASURE_WITH_UNIT (LENGTH_MEASURE( 1.000000000000000082E-05 ), #15, 'distance_accuracy_value', 'NONE');
#17 = DIRECTION ( 'NONE',  ( 1.000000000000000000, 8.274640534779421124E-17, -0.000000000000000000 ) ) ;
#18 = LINE ( 'NONE', #67, #230 ) ;
#19 = VECTOR ( 'NONE', #265, 1000.000000000000000 ) ;
#20 = LINE ( 'NONE', #247, #109 ) ;
#21 = DATE_AND_TIME ( #220, #3 ) ;
#22 = ORIENTED_EDGE ( 'NONE', *, *, #14, .F. ) ;
#23 = CC_DESIGN_APPROVAL ( #42, ( #159 ) ) ;
#24 = APPROVAL_DATE_TIME ( #43, #262 ) ;
#25 = ORIENTED_EDGE ( 'NONE', *, *, #291, .T. ) ;
#26 = DIRECTION ( 'NONE',  ( 0.000000000000000000, 0.000000000000000000, 1.000000000000000000 ) ) ;
#27 = ORIENTED_EDGE ( 'NONE', *, *, #92, .T. ) ;
#28 = PERSON_AND_ORGANIZATION ( #100, #134 ) ;
#29 = EDGE_LOOP ( 'NONE', ( #111, #238 ) ) ;
#30 = LINE ( 'NONE', #209, #257 ) ;
#31 = LINE ( 'NONE', #11, #229 ) ;
#32 = CARTESIAN_POINT ( 'NONE',  ( -74.00000000000000000, -6.123233995736770818E-15, 0.000000000000000000 ) ) ;
#33 = PLANE ( 'NONE',  #63 ) ;
#34 = FACE_BOUND ( 'NONE', #2, .T. ) ;
#35 = VECTOR ( 'NONE', #7, 1000.000000000000000 ) ;
#36 =( GEOMETRIC_REPRESENTATION_CONTEXT ( 3 ) GLOBAL_UNCERTAINTY_ASSIGNED_CONTEXT ( ( #16 ) ) GLOBAL_UNIT_ASSIGNED_CONTEXT ( ( #15, #91, #37 ) ) REPRESENTATION_CONTEXT ( 'NONE', 'WORKASPACE' ) );
#37 =( NAMED_UNIT ( * ) SI_UNIT ( $, .STERADIAN. ) SOLID_ANGLE_UNIT ( ) );
#38 = DIRECTION ( 'NONE',  ( 1.000000000000000000, 8.274640534779421124E-17, -0.000000000000000000 ) ) ;
#39 = CARTESIAN_POINT ( 'NONE',  ( 0.000000000000000000, 0.000000000000000000, 0.000000000000000000 ) ) ;
#40 = AXIS2_PLACEMENT_3D ( 'NONE', #178, #132, #90 ) ;
#41 = PERSON_AND_ORGANIZATION_ROLE ( 'classification_officer' ) ;
#42 = APPROVAL ( #117, 'UNSPECIFIED' ) ;
#43 = DATE_AND_TIME ( #212, #116 ) ;
#44 = ORIENTED_EDGE ( 'NONE', *, *, #148, .F. ) ;
#45 = APPROVAL_ROLE ( '' ) ;
#46 = ORIENTED_EDGE ( 'NONE', *, *, #249, .F. ) ;
#47 = CALENDAR_DATE ( 2026, 9, 1 ) ;
#48 = ORIENTED_EDGE ( 'NONE', *, *, #167, .T. ) ;
#49 = PERSON_AND_ORGANIZATION ( #100, #134 ) ;
#50 = VERTEX_POINT ( 'NONE', #253 ) ;
#51 = FACE_OUTER_BOUND ( 'NONE', #75, .T. ) ;
#52 = CARTESIAN_POINT ( 'NONE',  ( 0.000000000000000000, 0.000000000000000000, -6.000000000000000000 ) ) ;
#53 = CARTESIAN_POINT ( 'NONE',  ( -74.00000000000000000, 39.99999999999999289, -6.000000000000000000 ) ) ;
#54 = CARTESIAN_POINT ( 'NONE',  ( -74.00000000000000000, -6.123233995736770818E-15, -6.000000000000000000 ) ) ;
#55 = APPROVAL ( #136, 'UNSPECIFIED' ) ;
#56 = VECTOR ( 'NONE', #102, 1000.000000000000000 ) ;
#57 = VECTOR ( 'NONE', #17, 1000.000000000000000 ) ;
#58 = EDGE_CURVE ( 'NONE', #202, #168, #268, .T. ) ;
#59 = CARTESIAN_POINT ( 'NONE',  ( -44.50000000000000000, 19.99999999999999645, 1.224646799147352468E-16 ) ) ;
#60 = ADVANCED_BREP_SHAPE_REPRESENTATION ( '4229-50-10-15_REV_', ( #187, #105 ), #36 ) ;
#61 = CARTESIAN_POINT ( 'NONE',  ( 0.000000000000000000, 0.000000000000000000, -6.000000000000000000 ) ) ;
#62 = PRODUCT ( '4229-50-10-15_REV_', '4229-50-10-15_REV_', '', ( #191 ) ) ;
#63 = AXIS2_PLACEMENT_3D ( 'NONE', #199, #246, #300 ) ;
#64 = APPLICATION_CONTEXT ( 'configuration controlled 3d designs of mechanical parts and assemblies' ) ;
#65 = CARTESIAN_POINT ( 'NONE',  ( -29.50000000000000000, 19.99999999999999645, 0.000000000000000000 ) ) ;
#66 = CC_DESIGN_DATE_AND_TIME_ASSIGNMENT ( #21, #252, ( #103 ) ) ;
#67 = CARTESIAN_POINT ( 'NONE',  ( -44.50000000000000000, 19.99999999999999645, 0.000000000000000000 ) ) ;
#68 = CIRCLE ( 'NONE', #301, 7.500000000000000000 ) ;
#69 = DIRECTION ( 'NONE',  ( 1.000000000000000000, 0.000000000000000000, 0.000000000000000000 ) ) ;
#70 = ADVANCED_FACE ( 'NONE', ( #8 ), #150, .T. ) ;
#71 = APPROVAL_STATUS ( 'not_yet_approved' ) ;
#72 = DIRECTION ( 'NONE',  ( 0.000000000000000000, 0.000000000000000000, 1.000000000000000000 ) ) ;
#73 = VERTEX_POINT ( 'NONE', #78 ) ;
#74 = APPROVAL_DATE_TIME ( #4, #55 ) ;
#75 = EDGE_LOOP ( 'NONE', ( #213, #6, #145, #163 ) ) ;
#76 = EDGE_LOOP ( 'NONE', ( #101, #298, #138, #87 ) ) ;
#77 = ORIENTED_EDGE ( 'NONE', *, *, #152, .F. ) ;
#78 = CARTESIAN_POINT ( 'NONE',  ( -29.50000000000000000, 19.99999999999999645, 1.224646799147352468E-16 ) ) ;
#79 = AXIS2_PLACEMENT_3D ( 'NONE', #110, #131, #160 ) ;
#80 = EDGE_CURVE ( 'NONE', #256, #168, #125, .T. ) ;
#81 = CARTESIAN_POINT ( 'NONE',  ( -1.387778780781445676E-14, 40.00000000000000711, 0.000000000000000000 ) ) ;
#82 = CARTESIAN_POINT ( 'NONE',  ( -74.00000000000000000, -6.123233995736770818E-15, 0.000000000000000000 ) ) ;
#83 = DIRECTION ( 'NONE',  ( 1.000000000000000000, 3.469446951953613696E-16, -0.000000000000000000 ) ) ;
#84 = VECTOR ( 'NONE', #208, 1000.000000000000000 ) ;
#85 = CARTESIAN_POINT ( 'NONE',  ( -74.00000000000000000, 39.99999999999999289, 0.000000000000000000 ) ) ;
#86 = CARTESIAN_POINT ( 'NONE',  ( 0.000000000000000000, 0.000000000000000000, -6.000000000000000000 ) ) ;
#87 = ORIENTED_EDGE ( 'NONE', *, *, #291, .F. ) ;
#88 = EDGE_CURVE ( 'NONE', #122, #139, #174, .T. ) ;
#89 = VECTOR ( 'NONE', #193, 1000.000000000000000 ) ;
#90 = DIRECTION ( 'NONE',  ( 1.000000000000000000, 0.000000000000000000, 0.000000000000000000 ) ) ;
#91 =( NAMED_UNIT ( * ) PLANE_ANGLE_UNIT ( ) SI_UNIT ( $, .RADIAN. ) );
#92 = EDGE_CURVE ( 'NONE', #177, #202, #31, .T. ) ;
#93 = SECURITY_CLASSIFICATION_LEVEL ( 'unclassified' ) ;
#94 = ORIENTED_EDGE ( 'NONE', *, *, #88, .F. ) ;
#95 = DIRECTION ( 'NONE',  ( -1.000000000000000000, 0.000000000000000000, 0.000000000000000000 ) ) ;
#96 = ORIENTED_EDGE ( 'NONE', *, *, #227, .F. ) ;
#97 = CC_DESIGN_PERSON_AND_ORGANIZATION_ASSIGNMENT ( #115, #162, ( #159 ) ) ;
#98 = SHAPE_DEFINITION_REPRESENTATION ( #106, #60 ) ;
#99 = EDGE_LOOP ( 'NONE', ( #46, #285, #165, #96 ) ) ;
#100 = PERSON ( 'UNSPECIFIED', 'UNSPECIFIED', 'UNSPECIFIED', ('UNSPECIFIED'), ('UNSPECIFIED'), ('UNSPECIFIED') ) ;
#101 = ORIENTED_EDGE ( 'NONE', *, *, #218, .F. ) ;
#102 = DIRECTION ( 'NONE',  ( 0.000000000000000000, 0.000000000000000000, 1.000000000000000000 ) ) ;
#103 = PRODUCT_DEFINITION ( 'UNKNOWN', '', #159, #279 ) ;
#104 = DIRECTION ( 'NONE',  ( 0.000000000000000000, 0.000000000000000000, 1.000000000000000000 ) ) ;
#105 = AXIS2_PLACEMENT_3D ( 'NONE', #231, #26, #237 ) ;
#106 = PRODUCT_DEFINITION_SHAPE ( 'NONE', 'NONE',  #103 ) ;
#107 = PLANE ( 'NONE',  #263 ) ;
#108 = LINE ( 'NONE', #128, #89 ) ;
#109 = VECTOR ( 'NONE', #38, 1000.000000000000000 ) ;
#110 = CARTESIAN_POINT ( 'NONE',  ( -37.00000000000000000, 19.99999999999999645, 0.000000000000000000 ) ) ;
#111 = ORIENTED_EDGE ( 'NONE', *, *, #152, .T. ) ;
#112 = APPLICATION_PROTOCOL_DEFINITION ( 'international standard', 'config_control_design', 1994, #64 ) ;
#113 = CARTESIAN_POINT ( 'NONE',  ( -37.00000000000000000, 19.99999999999999645, 0.000000000000000000 ) ) ;
#114 = DIRECTION ( 'NONE',  ( -0.000000000000000000, -0.000000000000000000, 1.000000000000000000 ) ) ;
#115 = PERSON_AND_ORGANIZATION ( #100, #134 ) ;
#116 = LOCAL_TIME ( 13, 49, 19.00000000000000000, #260 ) ;
#117 = APPROVAL_STATUS ( 'not_yet_approved' ) ;
#118 = VERTEX_POINT ( 'NONE', #59 ) ;
#119 = APPLICATION_PROTOCOL_DEFINITION ( 'international standard', 'config_control_design', 1994, #188 ) ;
#120 = ORIENTED_EDGE ( 'NONE', *, *, #88, .T. ) ;
#121 = COORDINATED_UNIVERSAL_TIME_OFFSET ( 10, 0, .AHEAD. ) ;
#122 = VERTEX_POINT ( 'NONE', #52 ) ;
#123 = LOCAL_TIME ( 13, 49, 19.00000000000000000, #216 ) ;
#124 = CC_DESIGN_PERSON_AND_ORGANIZATION_ASSIGNMENT ( #214, #310, ( #62 ) ) ;
#125 = LINE ( 'NONE', #53, #299 ) ;
#126 = CARTESIAN_POINT ( 'NONE',  ( -37.00000000000000000, 19.99999999999999645, 1.224646799147352468E-16 ) ) ;
#127 = VECTOR ( 'NONE', #72, 1000.000000000000000 ) ;
#128 = CARTESIAN_POINT ( 'NONE',  ( -74.00000000000000000, -6.123233995736770818E-15, -6.000000000000000000 ) ) ;
#129 = CYLINDRICAL_SURFACE ( 'NONE', #306, 7.500000000000000000 ) ;
#130 = AXIS2_PLACEMENT_3D ( 'NONE', #239, #95, #261 ) ;
#131 = DIRECTION ( 'NONE',  ( -0.000000000000000000, -0.000000000000000000, 1.000000000000000000 ) ) ;
#132 = DIRECTION ( 'NONE',  ( -0.000000000000000000, -0.000000000000000000, 1.000000000000000000 ) ) ;
#133 = DIRECTION ( 'NONE',  ( -0.000000000000000000, -0.000000000000000000, 1.000000000000000000 ) ) ;
#134 = ORGANIZATION ( 'UNSPECIFIED', 'UNSPECIFIED', '' ) ;
#135 = FACE_OUTER_BOUND ( 'NONE', #99, .T. ) ;
#136 = APPROVAL_STATUS ( 'not_yet_approved' ) ;
#137 = PERSON_AND_ORGANIZATION_ROLE ( 'design_supplier' ) ;
#138 = ORIENTED_EDGE ( 'NONE', *, *, #175, .F. ) ;
#139 = VERTEX_POINT ( 'NONE', #289 ) ;
#140 = DATE_TIME_ROLE ( 'classification_date' ) ;
#141 = VERTEX_POINT ( 'NONE', #82 ) ;
#142 = APPROVAL_ROLE ( '' ) ;
#143 = ORIENTED_EDGE ( 'NONE', *, *, #58, .F. ) ;
#144 = LOCAL_TIME ( 13, 49, 19.00000000000000000, #121 ) ;
#145 = ORIENTED_EDGE ( 'NONE', *, *, #175, .T. ) ;
#146 = DIRECTION ( 'NONE',  ( 1.000000000000000000, 0.000000000000000000, 0.000000000000000000 ) ) ;
#147 = CARTESIAN_POINT ( 'NONE',  ( 0.000000000000000000, 0.000000000000000000, -6.000000000000000000 ) ) ;
#148 = EDGE_CURVE ( 'NONE', #118, #73, #267, .T. ) ;
#149 = APPROVAL_PERSON_ORGANIZATION ( #280, #262, #142 ) ;
#150 = PLANE ( 'NONE',  #273 ) ;
#151 = CARTESIAN_POINT ( 'NONE',  ( -37.00000000000000000, 19.99999999999999645, -6.000000000000000000 ) ) ;
#152 = EDGE_CURVE ( 'NONE', #236, #50, #68, .T. ) ;
#153 = LINE ( 'NONE', #248, #84 ) ;
#154 = APPROVAL_PERSON_ORGANIZATION ( #182, #42, #45 ) ;
#155 = CLOSED_SHELL ( 'NONE', ( #240, #195, #70, #5, #200, #179, #254, #232 ) ) ;
#156 = DIRECTION ( 'NONE',  ( -0.000000000000000000, -0.000000000000000000, 1.000000000000000000 ) ) ;
#157 = VERTEX_POINT ( 'NONE', #54 ) ;
#158 = LINE ( 'NONE', #65, #234 ) ;
#159 = PRODUCT_DEFINITION_FORMATION_WITH_SPECIFIED_SOURCE ( 'ANY', '', #62, .NOT_KNOWN. ) ;
#160 = DIRECTION ( 'NONE',  ( 1.000000000000000000, 0.000000000000000000, 0.000000000000000000 ) ) ;
#161 = ORIENTED_EDGE ( 'NONE', *, *, #203, .T. ) ;
#162 = PERSON_AND_ORGANIZATION_ROLE ( 'creator' ) ;
#163 = ORIENTED_EDGE ( 'NONE', *, *, #14, .T. ) ;
#164 = COORDINATED_UNIVERSAL_TIME_OFFSET ( 10, 0, .AHEAD. ) ;
#165 = ORIENTED_EDGE ( 'NONE', *, *, #148, .T. ) ;
#166 = PLANE ( 'NONE',  #130 ) ;
#167 = EDGE_CURVE ( 'NONE', #168, #141, #241, .T. ) ;
#168 = VERTEX_POINT ( 'NONE', #85 ) ;
#169 = VECTOR ( 'NONE', #271, 1000.000000000000000 ) ;
#170 = DIRECTION ( 'NONE',  ( 8.274640534779419892E-17, -1.000000000000000000, 0.000000000000000000 ) ) ;
#171 = DIRECTION ( 'NONE',  ( -0.000000000000000000, -0.000000000000000000, 1.000000000000000000 ) ) ;
#172 = DIRECTION ( 'NONE',  ( 0.000000000000000000, 0.000000000000000000, 1.000000000000000000 ) ) ;
#173 = LOCAL_TIME ( 13, 49, 19.00000000000000000, #164 ) ;
#174 = LINE ( 'NONE', #147, #56 ) ;
#175 = EDGE_CURVE ( 'NONE', #256, #157, #108, .T. ) ;
#176 = DIRECTION ( 'NONE',  ( 1.000000000000000000, 0.000000000000000000, 0.000000000000000000 ) ) ;
#177 = VERTEX_POINT ( 'NONE', #222 ) ;
#178 = CARTESIAN_POINT ( 'NONE',  ( -37.00000000000000000, 19.99999999999999645, 1.224646799147352468E-16 ) ) ;
#179 = ADVANCED_FACE ( 'NONE', ( #243, #12 ), #107, .F. ) ;
#180 = CARTESIAN_POINT ( 'NONE',  ( -29.50000000000000000, 19.99999999999999645, -6.000000000000000000 ) ) ;
#181 = ORIENTED_EDGE ( 'NONE', *, *, #206, .T. ) ;
#182 = PERSON_AND_ORGANIZATION ( #100, #134 ) ;
#183 = LINE ( 'NONE', #278, #127 ) ;
#184 = ORIENTED_EDGE ( 'NONE', *, *, #58, .T. ) ;
#185 = CALENDAR_DATE ( 2026, 9, 1 ) ;
#186 = EDGE_LOOP ( 'NONE', ( #221, #77, #204, #181 ) ) ;
#187 = MANIFOLD_SOLID_BREP ( 'M12 Clearance Hole1', #155 ) ;
#188 = APPLICATION_CONTEXT ( 'configuration controlled 3d designs of mechanical parts and assemblies' ) ;
#189 = AXIS2_PLACEMENT_3D ( 'NONE', #297, #226, #176 ) ;
#190 = ORIENTED_EDGE ( 'NONE', *, *, #218, .T. ) ;
#191 = MECHANICAL_CONTEXT ( 'NONE', #64, 'mechanical' ) ;
#192 = EDGE_LOOP ( 'NONE', ( #235, #184, #48, #161 ) ) ;
#193 = DIRECTION ( 'NONE',  ( -0.000000000000000000, -1.000000000000000000, -0.000000000000000000 ) ) ;
#194 = CC_DESIGN_APPROVAL ( #55, ( #225 ) ) ;
#195 = ADVANCED_FACE ( 'NONE', ( #269 ), #197, .T. ) ;
#196 = DIRECTION ( 'NONE',  ( 0.000000000000000000, 0.000000000000000000, 1.000000000000000000 ) ) ;
#197 = PLANE ( 'NONE',  #211 ) ;
#198 = AXIS2_PLACEMENT_3D ( 'NONE', #126, #171, #146 ) ;
#199 = CARTESIAN_POINT ( 'NONE',  ( -1.387778780781445676E-14, 40.00000000000000711, -6.000000000000000000 ) ) ;
#200 = ADVANCED_FACE ( 'NONE', ( #293 ), #33, .T. ) ;
#201 = DIRECTION ( 'NONE',  ( 1.000000000000000000, 0.000000000000000000, -0.000000000000000000 ) ) ;
#202 = VERTEX_POINT ( 'NONE', #244 ) ;
#203 = EDGE_CURVE ( 'NONE', #141, #139, #20, .T. ) ;
#204 = ORIENTED_EDGE ( 'NONE', *, *, #227, .T. ) ;
#205 = CC_DESIGN_SECURITY_CLASSIFICATION ( #225, ( #159 ) ) ;
#206 = EDGE_CURVE ( 'NONE', #73, #118, #277, .T. ) ;
#207 = LINE ( 'NONE', #86, #57 ) ;
#208 = DIRECTION ( 'NONE',  ( -1.000000000000000000, -1.875376730785737966E-16, 0.000000000000000000 ) ) ;
#209 = CARTESIAN_POINT ( 'NONE',  ( 0.000000000000000000, 0.000000000000000000, 0.000000000000000000 ) ) ;
#210 = CC_DESIGN_PERSON_AND_ORGANIZATION_ASSIGNMENT ( #28, #250, ( #103 ) ) ;
#211 = AXIS2_PLACEMENT_3D ( 'NONE', #292, #83, #287 ) ;
#212 = CALENDAR_DATE ( 2026, 9, 1 ) ;
#213 = ORIENTED_EDGE ( 'NONE', *, *, #167, .F. ) ;
#214 = PERSON_AND_ORGANIZATION ( #100, #134 ) ;
#215 = ORIENTED_EDGE ( 'NONE', *, *, #92, .F. ) ;
#216 = COORDINATED_UNIVERSAL_TIME_OFFSET ( 10, 0, .AHEAD. ) ;
#217 = EDGE_LOOP ( 'NONE', ( #281, #22, #259, #120 ) ) ;
#218 = EDGE_CURVE ( 'NONE', #122, #177, #275, .T. ) ;
#219 = APPROVAL_PERSON_ORGANIZATION ( #255, #55, #1 ) ;
#220 = CALENDAR_DATE ( 2026, 9, 1 ) ;
#221 = ORIENTED_EDGE ( 'NONE', *, *, #286, .F. ) ;
#222 = CARTESIAN_POINT ( 'NONE',  ( -1.387778780781445676E-14, 40.00000000000000711, -6.000000000000000000 ) ) ;
#223 = DIRECTION ( 'NONE',  ( 1.000000000000000000, 8.274640534779419892E-17, 0.000000000000000000 ) ) ;
#224 = CC_DESIGN_DATE_AND_TIME_ASSIGNMENT ( #307, #140, ( #225 ) ) ;
#225 = SECURITY_CLASSIFICATION ( '', '', #93 ) ;
#226 = DIRECTION ( 'NONE',  ( 0.000000000000000000, 0.000000000000000000, 1.000000000000000000 ) ) ;
#227 = EDGE_CURVE ( 'NONE', #236, #73, #158, .T. ) ;
#228 = PLANE ( 'NONE',  #245 ) ;
#229 = VECTOR ( 'NONE', #104, 1000.000000000000000 ) ;
#230 = VECTOR ( 'NONE', #156, 1000.000000000000000 ) ;
#231 = CARTESIAN_POINT ( 'NONE',  ( 0.000000000000000000, 0.000000000000000000, 0.000000000000000000 ) ) ;
#232 = ADVANCED_FACE ( 'NONE', ( #276 ), #302, .F. ) ;
#233 = CALENDAR_DATE ( 2026, 9, 1 ) ;
#234 = VECTOR ( 'NONE', #133, 1000.000000000000000 ) ;
#235 = ORIENTED_EDGE ( 'NONE', *, *, #9, .T. ) ;
#236 = VERTEX_POINT ( 'NONE', #180 ) ;
#237 = DIRECTION ( 'NONE',  ( 1.000000000000000000, 0.000000000000000000, 0.000000000000000000 ) ) ;
#238 = ORIENTED_EDGE ( 'NONE', *, *, #249, .T. ) ;
#239 = CARTESIAN_POINT ( 'NONE',  ( -74.00000000000000000, -6.123233995736770818E-15, -6.000000000000000000 ) ) ;
#240 = ADVANCED_FACE ( 'NONE', ( #135 ), #129, .F. ) ;
#241 = LINE ( 'NONE', #32, #19 ) ;
#242 = DIRECTION ( 'NONE',  ( 1.000000000000000000, 0.000000000000000000, -0.000000000000000000 ) ) ;
#243 = FACE_BOUND ( 'NONE', #29, .T. ) ;
#244 = CARTESIAN_POINT ( 'NONE',  ( -1.387778780781445676E-14, 40.00000000000000711, 0.000000000000000000 ) ) ;
#245 = AXIS2_PLACEMENT_3D ( 'NONE', #39, #294, #201 ) ;
#246 = DIRECTION ( 'NONE',  ( -1.875376730785737966E-16, 1.000000000000000000, 0.000000000000000000 ) ) ;
#247 = CARTESIAN_POINT ( 'NONE',  ( 0.000000000000000000, 0.000000000000000000, 0.000000000000000000 ) ) ;
#248 = CARTESIAN_POINT ( 'NONE',  ( -1.387778780781445676E-14, 40.00000000000000711, -6.000000000000000000 ) ) ;
#249 = EDGE_CURVE ( 'NONE', #50, #236, #10, .T. ) ;
#250 = PERSON_AND_ORGANIZATION_ROLE ( 'creator' ) ;
#251 = ORIENTED_EDGE ( 'NONE', *, *, #80, .T. ) ;
#252 = DATE_TIME_ROLE ( 'creation_date' ) ;
#253 = CARTESIAN_POINT ( 'NONE',  ( -44.50000000000000000, 19.99999999999999645, -6.000000000000000000 ) ) ;
#254 = ADVANCED_FACE ( 'NONE', ( #34, #303 ), #228, .T. ) ;
#255 = PERSON_AND_ORGANIZATION ( #100, #134 ) ;
#256 = VERTEX_POINT ( 'NONE', #274 ) ;
#257 = VECTOR ( 'NONE', #305, 1000.000000000000000 ) ;
#258 = APPROVAL_DATE_TIME ( #304, #42 ) ;
#259 = ORIENTED_EDGE ( 'NONE', *, *, #309, .T. ) ;
#260 = COORDINATED_UNIVERSAL_TIME_OFFSET ( 10, 0, .AHEAD. ) ;
#261 = DIRECTION ( 'NONE',  ( 0.000000000000000000, 0.000000000000000000, 1.000000000000000000 ) ) ;
#262 = APPROVAL ( #71, 'UNSPECIFIED' ) ;
#263 = AXIS2_PLACEMENT_3D ( 'NONE', #13, #172, #242 ) ;
#264 = DIRECTION ( 'NONE',  ( 0.000000000000000000, 0.000000000000000000, 1.000000000000000000 ) ) ;
#265 = DIRECTION ( 'NONE',  ( -0.000000000000000000, -1.000000000000000000, -0.000000000000000000 ) ) ;
#266 = CARTESIAN_POINT ( 'NONE',  ( 0.000000000000000000, 0.000000000000000000, -6.000000000000000000 ) ) ;
#267 = CIRCLE ( 'NONE', #198, 7.500000000000000000 ) ;
#268 = LINE ( 'NONE', #81, #35 ) ;
#269 = FACE_OUTER_BOUND ( 'NONE', #295, .T. ) ;
#270 = PRODUCT_RELATED_PRODUCT_CATEGORY ( 'detail', '', ( #62 ) ) ;
#271 = DIRECTION ( 'NONE',  ( -3.469446951953613696E-16, 1.000000000000000000, 0.000000000000000000 ) ) ;
#272 = CC_DESIGN_PERSON_AND_ORGANIZATION_ASSIGNMENT ( #49, #41, ( #225 ) ) ;
#273 = AXIS2_PLACEMENT_3D ( 'NONE', #266, #170, #223 ) ;
#274 = CARTESIAN_POINT ( 'NONE',  ( -74.00000000000000000, 39.99999999999999289, -6.000000000000000000 ) ) ;
#275 = LINE ( 'NONE', #61, #169 ) ;
#276 = FACE_OUTER_BOUND ( 'NONE', #186, .T. ) ;
#277 = CIRCLE ( 'NONE', #40, 7.500000000000000000 ) ;
#278 = CARTESIAN_POINT ( 'NONE',  ( -74.00000000000000000, -6.123233995736770818E-15, -6.000000000000000000 ) ) ;
#279 = DESIGN_CONTEXT ( 'detailed design', #188, 'design' ) ;
#280 = PERSON_AND_ORGANIZATION ( #100, #134 ) ;
#281 = ORIENTED_EDGE ( 'NONE', *, *, #203, .F. ) ;
#282 = PERSON_AND_ORGANIZATION ( #100, #134 ) ;
#283 = ORIENTED_EDGE ( 'NONE', *, *, #9, .F. ) ;
#284 = COORDINATED_UNIVERSAL_TIME_OFFSET ( 10, 0, .AHEAD. ) ;
#285 = ORIENTED_EDGE ( 'NONE', *, *, #286, .T. ) ;
#286 = EDGE_CURVE ( 'NONE', #50, #118, #18, .T. ) ;
#287 = DIRECTION ( 'NONE',  ( -3.469446951953613696E-16, 1.000000000000000000, 0.000000000000000000 ) ) ;
#288 = CC_DESIGN_APPROVAL ( #262, ( #103 ) ) ;
#289 = CARTESIAN_POINT ( 'NONE',  ( 0.000000000000000000, 0.000000000000000000, 0.000000000000000000 ) ) ;
#290 = DIRECTION ( 'NONE',  ( 1.000000000000000000, 0.000000000000000000, 0.000000000000000000 ) ) ;
#291 = EDGE_CURVE ( 'NONE', #177, #256, #153, .T. ) ;
#292 = CARTESIAN_POINT ( 'NONE',  ( 0.000000000000000000, 0.000000000000000000, -6.000000000000000000 ) ) ;
#293 = FACE_OUTER_BOUND ( 'NONE', #311, .T. ) ;
#294 = DIRECTION ( 'NONE',  ( 0.000000000000000000, 0.000000000000000000, 1.000000000000000000 ) ) ;
#295 = EDGE_LOOP ( 'NONE', ( #283, #94, #190, #27 ) ) ;
#296 = CC_DESIGN_PERSON_AND_ORGANIZATION_ASSIGNMENT ( #282, #137, ( #159 ) ) ;
#297 = CARTESIAN_POINT ( 'NONE',  ( -37.00000000000000000, 19.99999999999999645, -6.000000000000000000 ) ) ;
#298 = ORIENTED_EDGE ( 'NONE', *, *, #309, .F. ) ;
#299 = VECTOR ( 'NONE', #264, 1000.000000000000000 ) ;
#300 = DIRECTION ( 'NONE',  ( -1.000000000000000000, -1.875376730785737966E-16, 0.000000000000000000 ) ) ;
#301 = AXIS2_PLACEMENT_3D ( 'NONE', #151, #196, #290 ) ;
#302 = CYLINDRICAL_SURFACE ( 'NONE', #79, 7.500000000000000000 ) ;
#303 = FACE_OUTER_BOUND ( 'NONE', #192, .T. ) ;
#304 = DATE_AND_TIME ( #185, #173 ) ;
#305 = DIRECTION ( 'NONE',  ( -3.469446951953613696E-16, 1.000000000000000000, 0.000000000000000000 ) ) ;
#306 = AXIS2_PLACEMENT_3D ( 'NONE', #113, #114, #69 ) ;
#307 = DATE_AND_TIME ( #47, #123 ) ;
#308 = ORIENTED_EDGE ( 'NONE', *, *, #206, .F. ) ;
#309 = EDGE_CURVE ( 'NONE', #157, #122, #207, .T. ) ;
#310 = PERSON_AND_ORGANIZATION_ROLE ( 'design_owner' ) ;
#311 = EDGE_LOOP ( 'NONE', ( #143, #215, #25, #251 ) ) ;
ENDSEC;
END-ISO-10303-21;
