ISO-10303-21;
HEADER;
FILE_DESCRIPTION (( 'STEP AP203' ),
    '1' );
FILE_NAME ('4229-50-10-20_REV_.step',
    '2026-01-09T02:49:07',
    ( '' ),
    ( '' ),
    'SwSTEP 2.0',
    'SolidWorks 2025',
    '' );
FILE_SCHEMA (( 'CONFIG_CONTROL_DESIGN' ));
ENDSEC;

DATA;
#1 = ORIENTED_EDGE ( 'NONE', *, *, #60, .T. ) ;
#2 = VECTOR ( 'NONE', #287, 1000.000000000000000 ) ;
#3 = CC_DESIGN_DATE_AND_TIME_ASSIGNMENT ( #12, #13, ( #245 ) ) ;
#4 = CC_DESIGN_APPROVAL ( #57, ( #14 ) ) ;
#5 = PLANE ( 'NONE',  #147 ) ;
#6 = CARTESIAN_POINT ( 'NONE',  ( -50.00000000000000000, 20.00000000000000000, -6.000000000000000000 ) ) ;
#7 = PERSON ( 'UNSPECIFIED', 'UNSPECIFIED', 'UNSPECIFIED', ('UNSPECIFIED'), ('UNSPECIFIED'), ('UNSPECIFIED') ) ;
#8 = CARTESIAN_POINT ( 'NONE',  ( 0.000000000000000000, 0.000000000000000000, -6.000000000000000000 ) ) ;
#9 = FACE_BOUND ( 'NONE', #190, .T. ) ;
#10 = AXIS2_PLACEMENT_3D ( 'NONE', #170, #101, #39 ) ;
#11 = ORIENTED_EDGE ( 'NONE', *, *, #16, .T. ) ;
#12 = DATE_AND_TIME ( #175, #154 ) ;
#13 = DATE_TIME_ROLE ( 'creation_date' ) ;
#14 = PRODUCT_DEFINITION_FORMATION_WITH_SPECIFIED_SOURCE ( 'ANY', '', #171, .NOT_KNOWN. ) ;
#15 = EDGE_LOOP ( 'NONE', ( #179, #111, #25, #293 ) ) ;
#16 = EDGE_CURVE ( 'NONE', #70, #282, #86, .T. ) ;
#17 = CARTESIAN_POINT ( 'NONE',  ( 0.000000000000000000, 0.000000000000000000, -6.000000000000000000 ) ) ;
#18 = PLANE ( 'NONE',  #201 ) ;
#19 = APPROVAL_DATE_TIME ( #283, #145 ) ;
#20 = CARTESIAN_POINT ( 'NONE',  ( -42.50000000000000000, 20.00000000000000000, -6.000000000000000000 ) ) ;
#21 = VERTEX_POINT ( 'NONE', #259 ) ;
#22 = AXIS2_PLACEMENT_3D ( 'NONE', #198, #223, #200 ) ;
#23 = ADVANCED_FACE ( 'NONE', ( #78 ), #18, .T. ) ;
#24 = ORIENTED_EDGE ( 'NONE', *, *, #155, .F. ) ;
#25 = ORIENTED_EDGE ( 'NONE', *, *, #281, .T. ) ;
#26 = DIRECTION ( 'NONE',  ( -1.000000000000000000, 0.000000000000000000, 0.000000000000000000 ) ) ;
#27 = DIRECTION ( 'NONE',  ( 0.000000000000000000, 0.000000000000000000, 1.000000000000000000 ) ) ;
#28 = DIRECTION ( 'NONE',  ( -3.469446951953613696E-16, 1.000000000000000000, 0.000000000000000000 ) ) ;
#29 = PRODUCT_DEFINITION_SHAPE ( 'NONE', 'NONE',  #245 ) ;
#30 = APPLICATION_PROTOCOL_DEFINITION ( 'international standard', 'config_control_design', 1994, #72 ) ;
#31 = CC_DESIGN_PERSON_AND_ORGANIZATION_ASSIGNMENT ( #232, #88, ( #14 ) ) ;
#32 = COORDINATED_UNIVERSAL_TIME_OFFSET ( 10, 0, .AHEAD. ) ;
#33 = CIRCLE ( 'NONE', #110, 7.500000000000000000 ) ;
#34 = ORGANIZATION ( 'UNSPECIFIED', 'UNSPECIFIED', '' ) ;
#35 = MECHANICAL_CONTEXT ( 'NONE', #58, 'mechanical' ) ;
#36 = PRODUCT_RELATED_PRODUCT_CATEGORY ( 'detail', '', ( #171 ) ) ;
#37 =( LENGTH_UNIT ( ) NAMED_UNIT ( * ) SI_UNIT ( .MILLI., .METRE. ) );
#38 = DIRECTION ( 'NONE',  ( 0.000000000000000000, 0.000000000000000000, 1.000000000000000000 ) ) ;
#39 = DIRECTION ( 'NONE',  ( 1.000000000000000000, 0.000000000000000000, -0.000000000000000000 ) ) ;
#40 = CIRCLE ( 'NONE', #291, 7.500000000000000000 ) ;
#41 = ORIENTED_EDGE ( 'NONE', *, *, #16, .F. ) ;
#42 = EDGE_CURVE ( 'NONE', #262, #237, #76, .T. ) ;
#43 = APPROVAL ( #62, 'UNSPECIFIED' ) ;
#44 = CALENDAR_DATE ( 2026, 9, 1 ) ;
#45 = DIRECTION ( 'NONE',  ( -0.000000000000000000, -0.000000000000000000, 1.000000000000000000 ) ) ;
#46 = PERSON_AND_ORGANIZATION ( #7, #34 ) ;
#47 = LINE ( 'NONE', #280, #196 ) ;
#48 = EDGE_CURVE ( 'NONE', #310, #114, #227, .T. ) ;
#49 = ORIENTED_EDGE ( 'NONE', *, *, #94, .F. ) ;
#50 = DATE_AND_TIME ( #285, #159 ) ;
#51 = CC_DESIGN_PERSON_AND_ORGANIZATION_ASSIGNMENT ( #132, #274, ( #14 ) ) ;
#52 = CARTESIAN_POINT ( 'NONE',  ( -1.387778780781445676E-14, 40.00000000000000711, 0.000000000000000000 ) ) ;
#53 = ORIENTED_EDGE ( 'NONE', *, *, #128, .T. ) ;
#54 = FACE_OUTER_BOUND ( 'NONE', #217, .T. ) ;
#55 = VERTEX_POINT ( 'NONE', #256 ) ;
#56 = CYLINDRICAL_SURFACE ( 'NONE', #117, 7.500000000000000000 ) ;
#57 = APPROVAL ( #129, 'UNSPECIFIED' ) ;
#58 = APPLICATION_CONTEXT ( 'configuration controlled 3d designs of mechanical parts and assemblies' ) ;
#59 = EDGE_LOOP ( 'NONE', ( #49, #240, #116, #289 ) ) ;
#60 = EDGE_CURVE ( 'NONE', #55, #305, #135, .T. ) ;
#61 = CARTESIAN_POINT ( 'NONE',  ( -1.387778780781445676E-14, 40.00000000000000711, -6.000000000000000000 ) ) ;
#62 = APPROVAL_STATUS ( 'not_yet_approved' ) ;
#63 = CARTESIAN_POINT ( 'NONE',  ( 0.000000000000000000, 0.000000000000000000, -6.000000000000000000 ) ) ;
#64 = DIRECTION ( 'NONE',  ( -3.469446951953613696E-16, 1.000000000000000000, 0.000000000000000000 ) ) ;
#65 = CARTESIAN_POINT ( 'NONE',  ( -85.00000000000000000, -9.062386313690412007E-15, 0.000000000000000000 ) ) ;
#66 = EDGE_CURVE ( 'NONE', #206, #310, #47, .T. ) ;
#67 = PERSON_AND_ORGANIZATION ( #7, #34 ) ;
#68 = VECTOR ( 'NONE', #278, 1000.000000000000000 ) ;
#69 = CARTESIAN_POINT ( 'NONE',  ( -1.387778780781445676E-14, 40.00000000000000711, 0.000000000000000000 ) ) ;
#70 = VERTEX_POINT ( 'NONE', #87 ) ;
#71 = DIRECTION ( 'NONE',  ( 0.000000000000000000, 0.000000000000000000, 1.000000000000000000 ) ) ;
#72 = APPLICATION_CONTEXT ( 'configuration controlled 3d designs of mechanical parts and assemblies' ) ;
#73 = DIRECTION ( 'NONE',  ( 1.000000000000000000, 0.000000000000000000, 0.000000000000000000 ) ) ;
#74 = DIRECTION ( 'NONE',  ( -1.000000000000000000, -1.632680918566406793E-16, 0.000000000000000000 ) ) ;
#75 = CARTESIAN_POINT ( 'NONE',  ( -42.50000000000000000, 20.00000000000000000, 0.000000000000000000 ) ) ;
#76 = LINE ( 'NONE', #166, #222 ) ;
#77 = DIRECTION ( 'NONE',  ( -0.000000000000000000, -0.000000000000000000, 1.000000000000000000 ) ) ;
#78 = FACE_OUTER_BOUND ( 'NONE', #118, .T. ) ;
#79 = CC_DESIGN_DATE_AND_TIME_ASSIGNMENT ( #253, #180, ( #226 ) ) ;
#80 = PERSON_AND_ORGANIZATION ( #7, #34 ) ;
#81 = DIRECTION ( 'NONE',  ( -3.469446951953613696E-16, 1.000000000000000000, 0.000000000000000000 ) ) ;
#82 = CARTESIAN_POINT ( 'NONE',  ( -85.00000000000000000, 39.99999999999999289, 0.000000000000000000 ) ) ;
#83 = PERSON_AND_ORGANIZATION ( #7, #34 ) ;
#84 = COORDINATED_UNIVERSAL_TIME_OFFSET ( 10, 0, .AHEAD. ) ;
#85 = LINE ( 'NONE', #186, #68 ) ;
#86 = CIRCLE ( 'NONE', #169, 7.500000000000000000 ) ;
#87 = CARTESIAN_POINT ( 'NONE',  ( -50.00000000000000000, 20.00000000000000000, 1.224646799147352468E-16 ) ) ;
#88 = PERSON_AND_ORGANIZATION_ROLE ( 'design_supplier' ) ;
#89 = VERTEX_POINT ( 'NONE', #107 ) ;
#90 = ORIENTED_EDGE ( 'NONE', *, *, #128, .F. ) ;
#91 = EDGE_CURVE ( 'NONE', #21, #262, #307, .T. ) ;
#92 = DIRECTION ( 'NONE',  ( 1.000000000000000000, 0.000000000000000000, -0.000000000000000000 ) ) ;
#93 = ORIENTED_EDGE ( 'NONE', *, *, #277, .F. ) ;
#94 = EDGE_CURVE ( 'NONE', #114, #237, #161, .T. ) ;
#95 = AXIS2_PLACEMENT_3D ( 'NONE', #125, #172, #249 ) ;
#96 = EDGE_CURVE ( 'NONE', #262, #55, #162, .T. ) ;
#97 = DIRECTION ( 'NONE',  ( 1.000000000000000000, 0.000000000000000000, 0.000000000000000000 ) ) ;
#98 = VECTOR ( 'NONE', #64, 1000.000000000000000 ) ;
#99 = APPROVAL_PERSON_ORGANIZATION ( #83, #57, #178 ) ;
#100 = LINE ( 'NONE', #272, #184 ) ;
#101 = DIRECTION ( 'NONE',  ( 0.000000000000000000, 0.000000000000000000, 1.000000000000000000 ) ) ;
#102 = DIRECTION ( 'NONE',  ( 1.000000000000000000, 3.469446951953613696E-16, -0.000000000000000000 ) ) ;
#103 = MANIFOLD_SOLID_BREP ( 'M12 Clearance Hole1', #220 ) ;
#104 = VECTOR ( 'NONE', #45, 1000.000000000000000 ) ;
#105 = CC_DESIGN_PERSON_AND_ORGANIZATION_ASSIGNMENT ( #224, #246, ( #171 ) ) ;
#106 = ORIENTED_EDGE ( 'NONE', *, *, #115, .T. ) ;
#107 = CARTESIAN_POINT ( 'NONE',  ( -35.00000000000000000, 20.00000000000000000, -6.000000000000000000 ) ) ;
#108 = COORDINATED_UNIVERSAL_TIME_OFFSET ( 10, 0, .AHEAD. ) ;
#109 = DIRECTION ( 'NONE',  ( -0.000000000000000000, -0.000000000000000000, 1.000000000000000000 ) ) ;
#110 = AXIS2_PLACEMENT_3D ( 'NONE', #20, #71, #160 ) ;
#111 = ORIENTED_EDGE ( 'NONE', *, *, #94, .T. ) ;
#112 = DIRECTION ( 'NONE',  ( 1.000000000000000000, 1.066163095728283747E-16, -0.000000000000000000 ) ) ;
#113 = EDGE_CURVE ( 'NONE', #55, #206, #85, .T. ) ;
#114 = VERTEX_POINT ( 'NONE', #52 ) ;
#115 = EDGE_CURVE ( 'NONE', #89, #140, #33, .T. ) ;
#116 = ORIENTED_EDGE ( 'NONE', *, *, #91, .T. ) ;
#117 = AXIS2_PLACEMENT_3D ( 'NONE', #75, #77, #241 ) ;
#118 = EDGE_LOOP ( 'NONE', ( #127, #263, #1, #236 ) ) ;
#119 = CARTESIAN_POINT ( 'NONE',  ( -1.387778780781445676E-14, 40.00000000000000711, -6.000000000000000000 ) ) ;
#120 = ORIENTED_EDGE ( 'NONE', *, *, #304, .T. ) ;
#121 = VECTOR ( 'NONE', #126, 1000.000000000000000 ) ;
#122 = DIRECTION ( 'NONE',  ( -1.632680918566406793E-16, 1.000000000000000000, 0.000000000000000000 ) ) ;
#123 =( NAMED_UNIT ( * ) PLANE_ANGLE_UNIT ( ) SI_UNIT ( $, .RADIAN. ) );
#124 = PLANE ( 'NONE',  #233 ) ;
#125 = CARTESIAN_POINT ( 'NONE',  ( -42.50000000000000000, 20.00000000000000000, 0.000000000000000000 ) ) ;
#126 = DIRECTION ( 'NONE',  ( -0.000000000000000000, -1.000000000000000000, -0.000000000000000000 ) ) ;
#127 = ORIENTED_EDGE ( 'NONE', *, *, #66, .F. ) ;
#128 = EDGE_CURVE ( 'NONE', #140, #70, #211, .T. ) ;
#129 = APPROVAL_STATUS ( 'not_yet_approved' ) ;
#130 = CARTESIAN_POINT ( 'NONE',  ( -42.50000000000000000, 20.00000000000000000, 1.224646799147352468E-16 ) ) ;
#131 = ORIENTED_EDGE ( 'NONE', *, *, #96, .F. ) ;
#132 = PERSON_AND_ORGANIZATION ( #7, #34 ) ;
#133 = EDGE_CURVE ( 'NONE', #282, #70, #40, .T. ) ;
#134 = COORDINATED_UNIVERSAL_TIME_OFFSET ( 10, 0, .AHEAD. ) ;
#135 = LINE ( 'NONE', #17, #264 ) ;
#136 = EDGE_LOOP ( 'NONE', ( #143, #279, #131, #252 ) ) ;
#137 = APPROVAL_DATE_TIME ( #202, #43 ) ;
#138 = ORIENTED_EDGE ( 'NONE', *, *, #277, .T. ) ;
#139 = EDGE_CURVE ( 'NONE', #21, #114, #205, .T. ) ;
#140 = VERTEX_POINT ( 'NONE', #6 ) ;
#141 = CARTESIAN_POINT ( 'NONE',  ( 0.000000000000000000, 0.000000000000000000, -6.000000000000000000 ) ) ;
#142 = ADVANCED_FACE ( 'NONE', ( #54 ), #56, .F. ) ;
#143 = ORIENTED_EDGE ( 'NONE', *, *, #304, .F. ) ;
#144 = CARTESIAN_POINT ( 'NONE',  ( -42.50000000000000000, 20.00000000000000000, 1.224646799147352468E-16 ) ) ;
#145 = APPROVAL ( #174, 'UNSPECIFIED' ) ;
#146 = FACE_OUTER_BOUND ( 'NONE', #136, .T. ) ;
#147 = AXIS2_PLACEMENT_3D ( 'NONE', #192, #26, #167 ) ;
#148 = PLANE ( 'NONE',  #294 ) ;
#149 =( NAMED_UNIT ( * ) SI_UNIT ( $, .STERADIAN. ) SOLID_ANGLE_UNIT ( ) );
#150 = PLANE ( 'NONE',  #10 ) ;
#151 = ADVANCED_FACE ( 'NONE', ( #266, #146 ), #311, .F. ) ;
#152 = VECTOR ( 'NONE', #27, 1000.000000000000000 ) ;
#153 = APPLICATION_PROTOCOL_DEFINITION ( 'international standard', 'config_control_design', 1994, #58 ) ;
#154 = LOCAL_TIME ( 13, 49, 7.000000000000000000, #84 ) ;
#155 = EDGE_CURVE ( 'NONE', #305, #310, #189, .T. ) ;
#156 = CARTESIAN_POINT ( 'NONE',  ( -85.00000000000000000, -9.062386313690412007E-15, 0.000000000000000000 ) ) ;
#157 = UNCERTAINTY_MEASURE_WITH_UNIT (LENGTH_MEASURE( 1.000000000000000082E-05 ), #37, 'distance_accuracy_value', 'NONE');
#158 = ADVANCED_FACE ( 'NONE', ( #216 ), #5, .T. ) ;
#159 = LOCAL_TIME ( 13, 49, 7.000000000000000000, #134 ) ;
#160 = DIRECTION ( 'NONE',  ( 1.000000000000000000, 0.000000000000000000, 0.000000000000000000 ) ) ;
#161 = LINE ( 'NONE', #69, #301 ) ;
#162 = LINE ( 'NONE', #261, #298 ) ;
#163 = ORIENTED_EDGE ( 'NONE', *, *, #42, .F. ) ;
#164 = EDGE_LOOP ( 'NONE', ( #181, #53, #11, #93 ) ) ;
#165 = APPROVAL_PERSON_ORGANIZATION ( #80, #43, #247 ) ;
#166 = CARTESIAN_POINT ( 'NONE',  ( -85.00000000000000000, 39.99999999999999289, -6.000000000000000000 ) ) ;
#167 = DIRECTION ( 'NONE',  ( 0.000000000000000000, 0.000000000000000000, 1.000000000000000000 ) ) ;
#168 = ADVANCED_FACE ( 'NONE', ( #268 ), #148, .T. ) ;
#169 = AXIS2_PLACEMENT_3D ( 'NONE', #144, #208, #73 ) ;
#170 = CARTESIAN_POINT ( 'NONE',  ( 0.000000000000000000, 0.000000000000000000, 0.000000000000000000 ) ) ;
#171 = PRODUCT ( '4229-50-10-20_REV_', '4229-50-10-20_REV_', '', ( #35 ) ) ;
#172 = DIRECTION ( 'NONE',  ( -0.000000000000000000, -0.000000000000000000, 1.000000000000000000 ) ) ;
#173 = CARTESIAN_POINT ( 'NONE',  ( 0.000000000000000000, 0.000000000000000000, -6.000000000000000000 ) ) ;
#174 = APPROVAL_STATUS ( 'not_yet_approved' ) ;
#175 = CALENDAR_DATE ( 2026, 9, 1 ) ;
#176 = CC_DESIGN_PERSON_AND_ORGANIZATION_ASSIGNMENT ( #229, #300, ( #245 ) ) ;
#177 = DESIGN_CONTEXT ( 'detailed design', #72, 'design' ) ;
#178 = APPROVAL_ROLE ( '' ) ;
#179 = ORIENTED_EDGE ( 'NONE', *, *, #48, .T. ) ;
#180 = DATE_TIME_ROLE ( 'classification_date' ) ;
#181 = ORIENTED_EDGE ( 'NONE', *, *, #191, .F. ) ;
#182 = COORDINATED_UNIVERSAL_TIME_OFFSET ( 10, 0, .AHEAD. ) ;
#183 = CARTESIAN_POINT ( 'NONE',  ( -1.387778780781445676E-14, 40.00000000000000711, -6.000000000000000000 ) ) ;
#184 = VECTOR ( 'NONE', #225, 1000.000000000000000 ) ;
#185 = AXIS2_PLACEMENT_3D ( 'NONE', #248, #270, #97 ) ;
#186 = CARTESIAN_POINT ( 'NONE',  ( -85.00000000000000000, -9.062386313690412007E-15, -6.000000000000000000 ) ) ;
#187 = EDGE_LOOP ( 'NONE', ( #288, #24, #120, #308 ) ) ;
#188 = ADVANCED_FACE ( 'NONE', ( #297 ), #124, .T. ) ;
#189 = LINE ( 'NONE', #242, #152 ) ;
#190 = EDGE_LOOP ( 'NONE', ( #194, #41 ) ) ;
#191 = EDGE_CURVE ( 'NONE', #140, #89, #212, .T. ) ;
#192 = CARTESIAN_POINT ( 'NONE',  ( -85.00000000000000000, -9.062386313690412007E-15, -6.000000000000000000 ) ) ;
#193 = VECTOR ( 'NONE', #214, 1000.000000000000000 ) ;
#194 = ORIENTED_EDGE ( 'NONE', *, *, #133, .F. ) ;
#195 = LOCAL_TIME ( 13, 49, 7.000000000000000000, #108 ) ;
#196 = VECTOR ( 'NONE', #258, 1000.000000000000000 ) ;
#197 = CARTESIAN_POINT ( 'NONE',  ( -85.00000000000000000, 39.99999999999999289, -6.000000000000000000 ) ) ;
#198 = CARTESIAN_POINT ( 'NONE',  ( -42.50000000000000000, 20.00000000000000000, -6.000000000000000000 ) ) ;
#199 = ADVANCED_BREP_SHAPE_REPRESENTATION ( '4229-50-10-20_REV_', ( #103, #185 ), #257 ) ;
#200 = DIRECTION ( 'NONE',  ( 1.000000000000000000, 0.000000000000000000, 0.000000000000000000 ) ) ;
#201 = AXIS2_PLACEMENT_3D ( 'NONE', #213, #210, #238 ) ;
#202 = DATE_AND_TIME ( #209, #302 ) ;
#203 = CARTESIAN_POINT ( 'NONE',  ( 0.000000000000000000, 0.000000000000000000, 0.000000000000000000 ) ) ;
#204 = APPROVAL_ROLE ( '' ) ;
#205 = LINE ( 'NONE', #119, #193 ) ;
#206 = VERTEX_POINT ( 'NONE', #156 ) ;
#207 = APPROVAL_DATE_TIME ( #50, #57 ) ;
#208 = DIRECTION ( 'NONE',  ( -0.000000000000000000, -0.000000000000000000, 1.000000000000000000 ) ) ;
#209 = CALENDAR_DATE ( 2026, 9, 1 ) ;
#210 = DIRECTION ( 'NONE',  ( 1.066163095728283623E-16, -1.000000000000000000, 0.000000000000000000 ) ) ;
#211 = LINE ( 'NONE', #255, #104 ) ;
#212 = CIRCLE ( 'NONE', #22, 7.500000000000000000 ) ;
#213 = CARTESIAN_POINT ( 'NONE',  ( 0.000000000000000000, 0.000000000000000000, -6.000000000000000000 ) ) ;
#214 = DIRECTION ( 'NONE',  ( 0.000000000000000000, 0.000000000000000000, 1.000000000000000000 ) ) ;
#215 = ORIENTED_EDGE ( 'NONE', *, *, #191, .T. ) ;
#216 = FACE_OUTER_BOUND ( 'NONE', #290, .T. ) ;
#217 = EDGE_LOOP ( 'NONE', ( #90, #303, #138, #231 ) ) ;
#218 = ADVANCED_FACE ( 'NONE', ( #299 ), #219, .F. ) ;
#219 = CYLINDRICAL_SURFACE ( 'NONE', #95, 7.500000000000000000 ) ;
#220 = CLOSED_SHELL ( 'NONE', ( #218, #188, #23, #158, #168, #151, #221, #142 ) ) ;
#221 = ADVANCED_FACE ( 'NONE', ( #9, #296 ), #150, .T. ) ;
#222 = VECTOR ( 'NONE', #38, 1000.000000000000000 ) ;
#223 = DIRECTION ( 'NONE',  ( 0.000000000000000000, 0.000000000000000000, 1.000000000000000000 ) ) ;
#224 = PERSON_AND_ORGANIZATION ( #7, #34 ) ;
#225 = DIRECTION ( 'NONE',  ( -0.000000000000000000, -0.000000000000000000, 1.000000000000000000 ) ) ;
#226 = SECURITY_CLASSIFICATION ( '', '', #306 ) ;
#227 = LINE ( 'NONE', #203, #243 ) ;
#228 = ORIENTED_EDGE ( 'NONE', *, *, #96, .T. ) ;
#229 = PERSON_AND_ORGANIZATION ( #7, #34 ) ;
#230 = DIRECTION ( 'NONE',  ( 1.000000000000000000, 0.000000000000000000, 0.000000000000000000 ) ) ;
#231 = ORIENTED_EDGE ( 'NONE', *, *, #133, .T. ) ;
#232 = PERSON_AND_ORGANIZATION ( #7, #34 ) ;
#233 = AXIS2_PLACEMENT_3D ( 'NONE', #173, #102, #81 ) ;
#234 = CALENDAR_DATE ( 2026, 9, 1 ) ;
#235 = CC_DESIGN_PERSON_AND_ORGANIZATION_ASSIGNMENT ( #46, #260, ( #226 ) ) ;
#236 = ORIENTED_EDGE ( 'NONE', *, *, #155, .T. ) ;
#237 = VERTEX_POINT ( 'NONE', #82 ) ;
#238 = DIRECTION ( 'NONE',  ( 1.000000000000000000, 1.066163095728283623E-16, 0.000000000000000000 ) ) ;
#239 = DIRECTION ( 'NONE',  ( 0.000000000000000000, 0.000000000000000000, 1.000000000000000000 ) ) ;
#240 = ORIENTED_EDGE ( 'NONE', *, *, #139, .F. ) ;
#241 = DIRECTION ( 'NONE',  ( 1.000000000000000000, 0.000000000000000000, 0.000000000000000000 ) ) ;
#242 = CARTESIAN_POINT ( 'NONE',  ( 0.000000000000000000, 0.000000000000000000, -6.000000000000000000 ) ) ;
#243 = VECTOR ( 'NONE', #28, 1000.000000000000000 ) ;
#244 = DIRECTION ( 'NONE',  ( -1.000000000000000000, -1.632680918566406793E-16, 0.000000000000000000 ) ) ;
#245 = PRODUCT_DEFINITION ( 'UNKNOWN', '', #14, #177 ) ;
#246 = PERSON_AND_ORGANIZATION_ROLE ( 'design_owner' ) ;
#247 = APPROVAL_ROLE ( '' ) ;
#248 = CARTESIAN_POINT ( 'NONE',  ( 0.000000000000000000, 0.000000000000000000, 0.000000000000000000 ) ) ;
#249 = DIRECTION ( 'NONE',  ( 1.000000000000000000, 0.000000000000000000, 0.000000000000000000 ) ) ;
#250 = ORIENTED_EDGE ( 'NONE', *, *, #281, .F. ) ;
#251 = LINE ( 'NONE', #65, #121 ) ;
#252 = ORIENTED_EDGE ( 'NONE', *, *, #91, .F. ) ;
#253 = DATE_AND_TIME ( #44, #195 ) ;
#254 = DIRECTION ( 'NONE',  ( -0.000000000000000000, -1.000000000000000000, -0.000000000000000000 ) ) ;
#255 = CARTESIAN_POINT ( 'NONE',  ( -50.00000000000000000, 20.00000000000000000, 0.000000000000000000 ) ) ;
#256 = CARTESIAN_POINT ( 'NONE',  ( -85.00000000000000000, -9.062386313690412007E-15, -6.000000000000000000 ) ) ;
#257 =( GEOMETRIC_REPRESENTATION_CONTEXT ( 3 ) GLOBAL_UNCERTAINTY_ASSIGNED_CONTEXT ( ( #157 ) ) GLOBAL_UNIT_ASSIGNED_CONTEXT ( ( #37, #123, #149 ) ) REPRESENTATION_CONTEXT ( 'NONE', 'WORKASPACE' ) );
#258 = DIRECTION ( 'NONE',  ( 1.000000000000000000, 1.066163095728283747E-16, -0.000000000000000000 ) ) ;
#259 = CARTESIAN_POINT ( 'NONE',  ( -1.387778780781445676E-14, 40.00000000000000711, -6.000000000000000000 ) ) ;
#260 = PERSON_AND_ORGANIZATION_ROLE ( 'classification_officer' ) ;
#261 = CARTESIAN_POINT ( 'NONE',  ( -85.00000000000000000, -9.062386313690412007E-15, -6.000000000000000000 ) ) ;
#262 = VERTEX_POINT ( 'NONE', #197 ) ;
#263 = ORIENTED_EDGE ( 'NONE', *, *, #113, .F. ) ;
#264 = VECTOR ( 'NONE', #112, 1000.000000000000000 ) ;
#265 = CC_DESIGN_SECURITY_CLASSIFICATION ( #226, ( #14 ) ) ;
#266 = FACE_BOUND ( 'NONE', #284, .T. ) ;
#267 = ORIENTED_EDGE ( 'NONE', *, *, #113, .T. ) ;
#268 = FACE_OUTER_BOUND ( 'NONE', #59, .T. ) ;
#269 = LOCAL_TIME ( 13, 49, 7.000000000000000000, #182 ) ;
#270 = DIRECTION ( 'NONE',  ( 0.000000000000000000, 0.000000000000000000, 1.000000000000000000 ) ) ;
#271 = LINE ( 'NONE', #63, #98 ) ;
#272 = CARTESIAN_POINT ( 'NONE',  ( -35.00000000000000000, 20.00000000000000000, 0.000000000000000000 ) ) ;
#273 = CARTESIAN_POINT ( 'NONE',  ( 0.000000000000000000, 0.000000000000000000, 0.000000000000000000 ) ) ;
#274 = PERSON_AND_ORGANIZATION_ROLE ( 'creator' ) ;
#275 = SHAPE_DEFINITION_REPRESENTATION ( #29, #199 ) ;
#276 = CC_DESIGN_APPROVAL ( #145, ( #226 ) ) ;
#277 = EDGE_CURVE ( 'NONE', #89, #282, #100, .T. ) ;
#278 = DIRECTION ( 'NONE',  ( 0.000000000000000000, 0.000000000000000000, 1.000000000000000000 ) ) ;
#279 = ORIENTED_EDGE ( 'NONE', *, *, #60, .F. ) ;
#280 = CARTESIAN_POINT ( 'NONE',  ( 0.000000000000000000, 0.000000000000000000, 0.000000000000000000 ) ) ;
#281 = EDGE_CURVE ( 'NONE', #237, #206, #251, .T. ) ;
#282 = VERTEX_POINT ( 'NONE', #295 ) ;
#283 = DATE_AND_TIME ( #234, #269 ) ;
#284 = EDGE_LOOP ( 'NONE', ( #106, #215 ) ) ;
#285 = CALENDAR_DATE ( 2026, 9, 1 ) ;
#286 = AXIS2_PLACEMENT_3D ( 'NONE', #141, #239, #92 ) ;
#287 = DIRECTION ( 'NONE',  ( -1.000000000000000000, -1.632680918566406793E-16, 0.000000000000000000 ) ) ;
#288 = ORIENTED_EDGE ( 'NONE', *, *, #48, .F. ) ;
#289 = ORIENTED_EDGE ( 'NONE', *, *, #42, .T. ) ;
#290 = EDGE_LOOP ( 'NONE', ( #250, #163, #228, #267 ) ) ;
#291 = AXIS2_PLACEMENT_3D ( 'NONE', #130, #109, #230 ) ;
#292 = CC_DESIGN_APPROVAL ( #43, ( #245 ) ) ;
#293 = ORIENTED_EDGE ( 'NONE', *, *, #66, .T. ) ;
#294 = AXIS2_PLACEMENT_3D ( 'NONE', #61, #122, #244 ) ;
#295 = CARTESIAN_POINT ( 'NONE',  ( -35.00000000000000000, 20.00000000000000000, 1.224646799147352468E-16 ) ) ;
#296 = FACE_OUTER_BOUND ( 'NONE', #15, .T. ) ;
#297 = FACE_OUTER_BOUND ( 'NONE', #187, .T. ) ;
#298 = VECTOR ( 'NONE', #254, 1000.000000000000000 ) ;
#299 = FACE_OUTER_BOUND ( 'NONE', #164, .T. ) ;
#300 = PERSON_AND_ORGANIZATION_ROLE ( 'creator' ) ;
#301 = VECTOR ( 'NONE', #74, 1000.000000000000000 ) ;
#302 = LOCAL_TIME ( 13, 49, 7.000000000000000000, #32 ) ;
#303 = ORIENTED_EDGE ( 'NONE', *, *, #115, .F. ) ;
#304 = EDGE_CURVE ( 'NONE', #305, #21, #271, .T. ) ;
#305 = VERTEX_POINT ( 'NONE', #8 ) ;
#306 = SECURITY_CLASSIFICATION_LEVEL ( 'unclassified' ) ;
#307 = LINE ( 'NONE', #183, #2 ) ;
#308 = ORIENTED_EDGE ( 'NONE', *, *, #139, .T. ) ;
#309 = APPROVAL_PERSON_ORGANIZATION ( #67, #145, #204 ) ;
#310 = VERTEX_POINT ( 'NONE', #273 ) ;
#311 = PLANE ( 'NONE',  #286 ) ;
ENDSEC;
END-ISO-10303-21;
