ISO-10303-21;
HEADER;
FILE_DESCRIPTION (( 'STEP AP203' ),
    '1' );
FILE_NAME ('4229-50-10-25_REV_.step',
    '2026-01-09T02:48:54',
    ( '' ),
    ( '' ),
    'SwSTEP 2.0',
    'SolidWorks 2025',
    '' );
FILE_SCHEMA (( 'CONFIG_CONTROL_DESIGN' ));
ENDSEC;

DATA;
#1 = VECTOR ( 'NONE', #19, 1000.000000000000000 ) ;
#2 = CC_DESIGN_APPROVAL ( #165, ( #155 ) ) ;
#3 = DIRECTION ( 'NONE',  ( 1.000000000000000000, 1.157847882830225021E-16, 0.000000000000000000 ) ) ;
#4 = DIRECTION ( 'NONE',  ( 0.000000000000000000, 0.000000000000000000, 1.000000000000000000 ) ) ;
#5 = CARTESIAN_POINT ( 'NONE',  ( -54.99999999999999289, -6.938893903907228378E-15, -6.000000000000000000 ) ) ;
#6 = DIRECTION ( 'NONE',  ( 0.000000000000000000, 0.000000000000000000, 1.000000000000000000 ) ) ;
#7 = ADVANCED_FACE ( 'NONE', ( #170 ), #79, .T. ) ;
#8 = VECTOR ( 'NONE', #269, 1000.000000000000000 ) ;
#9 = PERSON_AND_ORGANIZATION_ROLE ( 'creator' ) ;
#10 = EDGE_CURVE ( 'NONE', #115, #187, #268, .T. ) ;
#11 = DATE_AND_TIME ( #228, #159 ) ;
#12 = AXIS2_PLACEMENT_3D ( 'NONE', #227, #6, #13 ) ;
#13 = DIRECTION ( 'NONE',  ( 1.000000000000000000, 0.000000000000000000, 0.000000000000000000 ) ) ;
#14 = PLANE ( 'NONE',  #35 ) ;
#15 = EDGE_CURVE ( 'NONE', #260, #115, #122, .T. ) ;
#16 = PLANE ( 'NONE',  #214 ) ;
#17 = ORIENTED_EDGE ( 'NONE', *, *, #249, .F. ) ;
#18 = APPROVAL_PERSON_ORGANIZATION ( #180, #165, #33 ) ;
#19 = DIRECTION ( 'NONE',  ( -1.000000000000000000, -3.784851220313034736E-16, 0.000000000000000000 ) ) ;
#20 = ORIENTED_EDGE ( 'NONE', *, *, #201, .F. ) ;
#21 = CARTESIAN_POINT ( 'NONE',  ( -25.99999999999999645, 19.99999999999999289, 1.224646799147473755E-16 ) ) ;
#22 = ORIENTED_EDGE ( 'NONE', *, *, #89, .T. ) ;
#23 = AXIS2_PLACEMENT_3D ( 'NONE', #21, #131, #137 ) ;
#24 =( NAMED_UNIT ( * ) PLANE_ANGLE_UNIT ( ) SI_UNIT ( $, .RADIAN. ) );
#25 = ORIENTED_EDGE ( 'NONE', *, *, #97, .F. ) ;
#26 = CARTESIAN_POINT ( 'NONE',  ( 0.000000000000000000, 40.00000000000000711, -6.000000000000000000 ) ) ;
#27 = ADVANCED_FACE ( 'NONE', ( #270 ), #202, .F. ) ;
#28 = CARTESIAN_POINT ( 'NONE',  ( 0.000000000000000000, 0.000000000000000000, -6.000000000000000000 ) ) ;
#29 = CIRCLE ( 'NONE', #205, 7.500000000000000000 ) ;
#30 = ADVANCED_FACE ( 'NONE', ( #146 ), #57, .F. ) ;
#31 = LINE ( 'NONE', #296, #281 ) ;
#32 = CLOSED_SHELL ( 'NONE', ( #30, #285, #263, #120, #7, #74, #116, #27 ) ) ;
#33 = APPROVAL_ROLE ( '' ) ;
#34 = PERSON_AND_ORGANIZATION_ROLE ( 'classification_officer' ) ;
#35 = AXIS2_PLACEMENT_3D ( 'NONE', #46, #193, #238 ) ;
#36 = CARTESIAN_POINT ( 'NONE',  ( -25.99999999999999645, 19.99999999999999289, -6.000000000000000000 ) ) ;
#37 = EDGE_LOOP ( 'NONE', ( #73, #17, #98, #135 ) ) ;
#38 = DIRECTION ( 'NONE',  ( -3.469446951953613696E-16, 1.000000000000000000, 0.000000000000000000 ) ) ;
#39 = VECTOR ( 'NONE', #38, 1000.000000000000000 ) ;
#40 = CC_DESIGN_APPROVAL ( #188, ( #107 ) ) ;
#41 = ORIENTED_EDGE ( 'NONE', *, *, #10, .T. ) ;
#42 = PRODUCT ( '4229-50-10-25_REV_', '4229-50-10-25_REV_', '', ( #206 ) ) ;
#43 = DIRECTION ( 'NONE',  ( -1.000000000000000000, -3.784851220313034736E-16, 0.000000000000000000 ) ) ;
#44 = EDGE_LOOP ( 'NONE', ( #234, #118, #190, #306 ) ) ;
#45 = CC_DESIGN_PERSON_AND_ORGANIZATION_ASSIGNMENT ( #110, #34, ( #126 ) ) ;
#46 = CARTESIAN_POINT ( 'NONE',  ( -54.99999999999999289, -6.938893903907228378E-15, -6.000000000000000000 ) ) ;
#47 = VERTEX_POINT ( 'NONE', #66 ) ;
#48 = PLANE ( 'NONE',  #185 ) ;
#49 = ORIENTED_EDGE ( 'NONE', *, *, #203, .F. ) ;
#50 = VECTOR ( 'NONE', #295, 1000.000000000000000 ) ;
#51 = DIRECTION ( 'NONE',  ( 0.000000000000000000, 0.000000000000000000, 1.000000000000000000 ) ) ;
#52 = DIRECTION ( 'NONE',  ( -3.469446951953613696E-16, 1.000000000000000000, 0.000000000000000000 ) ) ;
#53 = LINE ( 'NONE', #56, #248 ) ;
#54 = DIRECTION ( 'NONE',  ( 0.000000000000000000, 0.000000000000000000, 1.000000000000000000 ) ) ;
#55 = EDGE_CURVE ( 'NONE', #241, #257, #258, .T. ) ;
#56 = CARTESIAN_POINT ( 'NONE',  ( -54.99999999999999289, -6.938893903907228378E-15, -6.000000000000000000 ) ) ;
#57 = CYLINDRICAL_SURFACE ( 'NONE', #12, 7.500000000000000000 ) ;
#58 = PERSON_AND_ORGANIZATION ( #93, #169 ) ;
#59 = APPROVAL_ROLE ( '' ) ;
#60 = PERSON_AND_ORGANIZATION_ROLE ( 'design_supplier' ) ;
#61 = SHAPE_DEFINITION_REPRESENTATION ( #104, #217 ) ;
#62 = VECTOR ( 'NONE', #221, 1000.000000000000000 ) ;
#63 = ORIENTED_EDGE ( 'NONE', *, *, #162, .F. ) ;
#64 = CARTESIAN_POINT ( 'NONE',  ( 0.000000000000000000, 40.00000000000000711, 0.000000000000000000 ) ) ;
#65 = ORIENTED_EDGE ( 'NONE', *, *, #10, .F. ) ;
#66 = CARTESIAN_POINT ( 'NONE',  ( -18.49999999999999645, 19.99999999999999289, 1.224646799147473755E-16 ) ) ;
#67 = VECTOR ( 'NONE', #4, 1000.000000000000000 ) ;
#68 = LOCAL_TIME ( 13, 48, 54.00000000000000000, #300 ) ;
#69 = ORIENTED_EDGE ( 'NONE', *, *, #201, .T. ) ;
#70 = DIRECTION ( 'NONE',  ( 1.000000000000000000, 0.000000000000000000, 0.000000000000000000 ) ) ;
#71 = EDGE_LOOP ( 'NONE', ( #65, #49, #76, #195 ) ) ;
#72 = LINE ( 'NONE', #212, #39 ) ;
#73 = ORIENTED_EDGE ( 'NONE', *, *, #15, .F. ) ;
#74 = ADVANCED_FACE ( 'NONE', ( #292, #308 ), #16, .F. ) ;
#75 =( NAMED_UNIT ( * ) SI_UNIT ( $, .STERADIAN. ) SOLID_ANGLE_UNIT ( ) );
#76 = ORIENTED_EDGE ( 'NONE', *, *, #83, .T. ) ;
#77 = AXIS2_PLACEMENT_3D ( 'NONE', #274, #149, #124 ) ;
#78 = CARTESIAN_POINT ( 'NONE',  ( 0.000000000000000000, 0.000000000000000000, -6.000000000000000000 ) ) ;
#79 = PLANE ( 'NONE',  #77 ) ;
#80 =( LENGTH_UNIT ( ) NAMED_UNIT ( * ) SI_UNIT ( .MILLI., .METRE. ) );
#81 = ORIENTED_EDGE ( 'NONE', *, *, #172, .T. ) ;
#82 = DIRECTION ( 'NONE',  ( 0.000000000000000000, 0.000000000000000000, 1.000000000000000000 ) ) ;
#83 = EDGE_CURVE ( 'NONE', #293, #241, #72, .T. ) ;
#84 = CIRCLE ( 'NONE', #253, 7.500000000000000000 ) ;
#85 = APPROVAL_PERSON_ORGANIZATION ( #279, #278, #153 ) ;
#86 = CALENDAR_DATE ( 2026, 9, 1 ) ;
#87 = ORIENTED_EDGE ( 'NONE', *, *, #172, .F. ) ;
#88 = COORDINATED_UNIVERSAL_TIME_OFFSET ( 10, 0, .AHEAD. ) ;
#89 = EDGE_CURVE ( 'NONE', #310, #157, #222, .T. ) ;
#90 = DIRECTION ( 'NONE',  ( 0.000000000000000000, 0.000000000000000000, 1.000000000000000000 ) ) ;
#91 = CIRCLE ( 'NONE', #23, 7.500000000000000000 ) ;
#92 = CALENDAR_DATE ( 2026, 9, 1 ) ;
#93 = PERSON ( 'UNSPECIFIED', 'UNSPECIFIED', 'UNSPECIFIED', ('UNSPECIFIED'), ('UNSPECIFIED'), ('UNSPECIFIED') ) ;
#94 = DATE_AND_TIME ( #150, #106 ) ;
#95 = CARTESIAN_POINT ( 'NONE',  ( -25.99999999999999645, 19.99999999999999289, -6.000000000000000000 ) ) ;
#96 = VERTEX_POINT ( 'NONE', #235 ) ;
#97 = EDGE_CURVE ( 'NONE', #187, #143, #261, .T. ) ;
#98 = ORIENTED_EDGE ( 'NONE', *, *, #207, .T. ) ;
#99 = DIRECTION ( 'NONE',  ( 0.000000000000000000, 0.000000000000000000, 1.000000000000000000 ) ) ;
#100 = ORIENTED_EDGE ( 'NONE', *, *, #207, .F. ) ;
#101 = CARTESIAN_POINT ( 'NONE',  ( 0.000000000000000000, 40.00000000000000711, -6.000000000000000000 ) ) ;
#102 = ORIENTED_EDGE ( 'NONE', *, *, #55, .T. ) ;
#103 = CARTESIAN_POINT ( 'NONE',  ( 0.000000000000000000, 40.00000000000000711, -6.000000000000000000 ) ) ;
#104 = PRODUCT_DEFINITION_SHAPE ( 'NONE', 'NONE',  #107 ) ;
#105 = VECTOR ( 'NONE', #52, 1000.000000000000000 ) ;
#106 = LOCAL_TIME ( 13, 48, 54.00000000000000000, #230 ) ;
#107 = PRODUCT_DEFINITION ( 'UNKNOWN', '', #155, #127 ) ;
#108 = CARTESIAN_POINT ( 'NONE',  ( 0.000000000000000000, 0.000000000000000000, 0.000000000000000000 ) ) ;
#109 = DIRECTION ( 'NONE',  ( 1.000000000000000000, 0.000000000000000000, 0.000000000000000000 ) ) ;
#110 = PERSON_AND_ORGANIZATION ( #93, #169 ) ;
#111 = APPLICATION_PROTOCOL_DEFINITION ( 'international standard', 'config_control_design', 1994, #255 ) ;
#112 = CC_DESIGN_DATE_AND_TIME_ASSIGNMENT ( #182, #231, ( #107 ) ) ;
#113 = CARTESIAN_POINT ( 'NONE',  ( -25.99999999999999645, 19.99999999999999289, 1.224646799147473755E-16 ) ) ;
#114 = CARTESIAN_POINT ( 'NONE',  ( 0.000000000000000000, 0.000000000000000000, -6.000000000000000000 ) ) ;
#115 = VERTEX_POINT ( 'NONE', #186 ) ;
#116 = ADVANCED_FACE ( 'NONE', ( #256, #307 ), #283, .T. ) ;
#117 = CC_DESIGN_SECURITY_CLASSIFICATION ( #126, ( #155 ) ) ;
#118 = ORIENTED_EDGE ( 'NONE', *, *, #198, .T. ) ;
#119 = CARTESIAN_POINT ( 'NONE',  ( 0.000000000000000000, 0.000000000000000000, -6.000000000000000000 ) ) ;
#120 = ADVANCED_FACE ( 'NONE', ( #288 ), #14, .T. ) ;
#121 = CARTESIAN_POINT ( 'NONE',  ( -18.49999999999999645, 19.99999999999999289, 0.000000000000000000 ) ) ;
#122 = LINE ( 'NONE', #224, #176 ) ;
#123 = CARTESIAN_POINT ( 'NONE',  ( -33.49999999999999289, 19.99999999999999289, -6.000000000000000000 ) ) ;
#124 = DIRECTION ( 'NONE',  ( -1.000000000000000000, -3.784851220313034736E-16, 0.000000000000000000 ) ) ;
#125 = CARTESIAN_POINT ( 'NONE',  ( -54.99999999999999289, 39.99999999999998579, -6.000000000000000000 ) ) ;
#126 = SECURITY_CLASSIFICATION ( '', '', #154 ) ;
#127 = DESIGN_CONTEXT ( 'detailed design', #255, 'design' ) ;
#128 = APPROVAL_DATE_TIME ( #280, #188 ) ;
#129 = PERSON_AND_ORGANIZATION ( #93, #169 ) ;
#130 = COORDINATED_UNIVERSAL_TIME_OFFSET ( 10, 0, .AHEAD. ) ;
#131 = DIRECTION ( 'NONE',  ( 0.000000000000000000, 0.000000000000000000, 1.000000000000000000 ) ) ;
#132 = VECTOR ( 'NONE', #43, 1000.000000000000000 ) ;
#133 = CC_DESIGN_APPROVAL ( #278, ( #126 ) ) ;
#134 = DIRECTION ( 'NONE',  ( 1.000000000000000000, 0.000000000000000000, 0.000000000000000000 ) ) ;
#135 = ORIENTED_EDGE ( 'NONE', *, *, #203, .T. ) ;
#136 = CC_DESIGN_DATE_AND_TIME_ASSIGNMENT ( #178, #275, ( #126 ) ) ;
#137 = DIRECTION ( 'NONE',  ( 1.000000000000000000, 0.000000000000000000, 0.000000000000000000 ) ) ;
#138 = ORIENTED_EDGE ( 'NONE', *, *, #83, .F. ) ;
#139 = EDGE_CURVE ( 'NONE', #47, #173, #84, .T. ) ;
#140 = CARTESIAN_POINT ( 'NONE',  ( 0.000000000000000000, 40.00000000000000711, 0.000000000000000000 ) ) ;
#141 = EDGE_LOOP ( 'NONE', ( #218, #87, #237, #164 ) ) ;
#142 = VECTOR ( 'NONE', #175, 1000.000000000000000 ) ;
#143 = VERTEX_POINT ( 'NONE', #160 ) ;
#144 = CARTESIAN_POINT ( 'NONE',  ( -54.99999999999999289, -6.938893903907228378E-15, 0.000000000000000000 ) ) ;
#145 = CARTESIAN_POINT ( 'NONE',  ( -54.99999999999999289, -6.938893903907228378E-15, 0.000000000000000000 ) ) ;
#146 = FACE_OUTER_BOUND ( 'NONE', #44, .T. ) ;
#147 = APPROVAL_PERSON_ORGANIZATION ( #129, #188, #59 ) ;
#148 = LINE ( 'NONE', #144, #62 ) ;
#149 = DIRECTION ( 'NONE',  ( -3.784851220313034736E-16, 1.000000000000000000, 0.000000000000000000 ) ) ;
#150 = CALENDAR_DATE ( 2026, 9, 1 ) ;
#151 = PRODUCT_RELATED_PRODUCT_CATEGORY ( 'detail', '', ( #42 ) ) ;
#152 = APPROVAL_STATUS ( 'not_yet_approved' ) ;
#153 = APPROVAL_ROLE ( '' ) ;
#154 = SECURITY_CLASSIFICATION_LEVEL ( 'unclassified' ) ;
#155 = PRODUCT_DEFINITION_FORMATION_WITH_SPECIFIED_SOURCE ( 'ANY', '', #42, .NOT_KNOWN. ) ;
#156 = CARTESIAN_POINT ( 'NONE',  ( 0.000000000000000000, 0.000000000000000000, 0.000000000000000000 ) ) ;
#157 = VERTEX_POINT ( 'NONE', #215 ) ;
#158 = VECTOR ( 'NONE', #82, 1000.000000000000000 ) ;
#159 = LOCAL_TIME ( 13, 48, 54.00000000000000000, #251 ) ;
#160 = CARTESIAN_POINT ( 'NONE',  ( -54.99999999999999289, 39.99999999999998579, 0.000000000000000000 ) ) ;
#161 = EDGE_LOOP ( 'NONE', ( #81, #22 ) ) ;
#162 = EDGE_CURVE ( 'NONE', #173, #47, #91, .T. ) ;
#163 = DIRECTION ( 'NONE',  ( 1.000000000000000000, 0.000000000000000000, 0.000000000000000000 ) ) ;
#164 = ORIENTED_EDGE ( 'NONE', *, *, #139, .T. ) ;
#165 = APPROVAL ( #152, 'UNSPECIFIED' ) ;
#166 = FACE_OUTER_BOUND ( 'NONE', #71, .T. ) ;
#167 = EDGE_LOOP ( 'NONE', ( #265, #63 ) ) ;
#168 = DIRECTION ( 'NONE',  ( 1.157847882830225021E-16, -1.000000000000000000, 0.000000000000000000 ) ) ;
#169 = ORGANIZATION ( 'UNSPECIFIED', 'UNSPECIFIED', '' ) ;
#170 = FACE_OUTER_BOUND ( 'NONE', #219, .T. ) ;
#171 = LINE ( 'NONE', #78, #142 ) ;
#172 = EDGE_CURVE ( 'NONE', #157, #310, #29, .T. ) ;
#173 = VERTEX_POINT ( 'NONE', #286 ) ;
#174 = CC_DESIGN_PERSON_AND_ORGANIZATION_ASSIGNMENT ( #232, #60, ( #155 ) ) ;
#175 = DIRECTION ( 'NONE',  ( 1.000000000000000000, 1.157847882830225021E-16, 0.000000000000000000 ) ) ;
#176 = VECTOR ( 'NONE', #3, 1000.000000000000000 ) ;
#177 = ORIENTED_EDGE ( 'NONE', *, *, #229, .T. ) ;
#178 = DATE_AND_TIME ( #209, #282 ) ;
#179 = UNCERTAINTY_MEASURE_WITH_UNIT (LENGTH_MEASURE( 1.000000000000000082E-05 ), #80, 'distance_accuracy_value', 'NONE');
#180 = PERSON_AND_ORGANIZATION ( #93, #169 ) ;
#181 = PERSON_AND_ORGANIZATION ( #93, #169 ) ;
#182 = DATE_AND_TIME ( #86, #266 ) ;
#183 = DIRECTION ( 'NONE',  ( 1.000000000000000000, 0.000000000000000000, 0.000000000000000000 ) ) ;
#184 = APPLICATION_CONTEXT ( 'configuration controlled 3d designs of mechanical parts and assemblies' ) ;
#185 = AXIS2_PLACEMENT_3D ( 'NONE', #119, #168, #272 ) ;
#186 = CARTESIAN_POINT ( 'NONE',  ( 0.000000000000000000, 0.000000000000000000, 0.000000000000000000 ) ) ;
#187 = VERTEX_POINT ( 'NONE', #64 ) ;
#188 = APPROVAL ( #211, 'UNSPECIFIED' ) ;
#189 = DIRECTION ( 'NONE',  ( 0.000000000000000000, 0.000000000000000000, 1.000000000000000000 ) ) ;
#190 = ORIENTED_EDGE ( 'NONE', *, *, #162, .T. ) ;
#191 = DIRECTION ( 'NONE',  ( 1.000000000000000000, 0.000000000000000000, 0.000000000000000000 ) ) ;
#192 = ORIENTED_EDGE ( 'NONE', *, *, #194, .T. ) ;
#193 = DIRECTION ( 'NONE',  ( -1.000000000000000000, 0.000000000000000000, 0.000000000000000000 ) ) ;
#194 = EDGE_CURVE ( 'NONE', #143, #260, #148, .T. ) ;
#195 = ORIENTED_EDGE ( 'NONE', *, *, #259, .T. ) ;
#196 = EDGE_LOOP ( 'NONE', ( #304, #20, #177, #290 ) ) ;
#197 = PLANE ( 'NONE',  #244 ) ;
#198 = EDGE_CURVE ( 'NONE', #310, #173, #31, .T. ) ;
#199 = APPLICATION_PROTOCOL_DEFINITION ( 'international standard', 'config_control_design', 1994, #184 ) ;
#200 = AXIS2_PLACEMENT_3D ( 'NONE', #245, #90, #183 ) ;
#201 = EDGE_CURVE ( 'NONE', #257, #143, #204, .T. ) ;
#202 = CYLINDRICAL_SURFACE ( 'NONE', #277, 7.500000000000000000 ) ;
#203 = EDGE_CURVE ( 'NONE', #293, #115, #226, .T. ) ;
#204 = LINE ( 'NONE', #125, #302 ) ;
#205 = AXIS2_PLACEMENT_3D ( 'NONE', #36, #189, #70 ) ;
#206 = MECHANICAL_CONTEXT ( 'NONE', #184, 'mechanical' ) ;
#207 = EDGE_CURVE ( 'NONE', #96, #293, #171, .T. ) ;
#208 = PERSON_AND_ORGANIZATION_ROLE ( 'design_owner' ) ;
#209 = CALENDAR_DATE ( 2026, 9, 1 ) ;
#210 = CC_DESIGN_PERSON_AND_ORGANIZATION_ASSIGNMENT ( #181, #276, ( #107 ) ) ;
#211 = APPROVAL_STATUS ( 'not_yet_approved' ) ;
#212 = CARTESIAN_POINT ( 'NONE',  ( 0.000000000000000000, 0.000000000000000000, -6.000000000000000000 ) ) ;
#213 = CC_DESIGN_PERSON_AND_ORGANIZATION_ASSIGNMENT ( #58, #9, ( #155 ) ) ;
#214 = AXIS2_PLACEMENT_3D ( 'NONE', #114, #99, #305 ) ;
#215 = CARTESIAN_POINT ( 'NONE',  ( -18.49999999999999645, 19.99999999999999289, -6.000000000000000000 ) ) ;
#216 = ORIENTED_EDGE ( 'NONE', *, *, #55, .F. ) ;
#217 = ADVANCED_BREP_SHAPE_REPRESENTATION ( '4229-50-10-25_REV_', ( #299, #200 ), #223 ) ;
#218 = ORIENTED_EDGE ( 'NONE', *, *, #198, .F. ) ;
#219 = EDGE_LOOP ( 'NONE', ( #25, #309, #102, #69 ) ) ;
#220 = CARTESIAN_POINT ( 'NONE',  ( 0.000000000000000000, 0.000000000000000000, -6.000000000000000000 ) ) ;
#221 = DIRECTION ( 'NONE',  ( 0.000000000000000000, -1.000000000000000000, 0.000000000000000000 ) ) ;
#222 = CIRCLE ( 'NONE', #271, 7.500000000000000000 ) ;
#223 =( GEOMETRIC_REPRESENTATION_CONTEXT ( 3 ) GLOBAL_UNCERTAINTY_ASSIGNED_CONTEXT ( ( #179 ) ) GLOBAL_UNIT_ASSIGNED_CONTEXT ( ( #80, #24, #75 ) ) REPRESENTATION_CONTEXT ( 'NONE', 'WORKASPACE' ) );
#224 = CARTESIAN_POINT ( 'NONE',  ( 0.000000000000000000, 0.000000000000000000, 0.000000000000000000 ) ) ;
#225 = LINE ( 'NONE', #5, #8 ) ;
#226 = LINE ( 'NONE', #220, #158 ) ;
#227 = CARTESIAN_POINT ( 'NONE',  ( -25.99999999999999645, 19.99999999999999289, 0.000000000000000000 ) ) ;
#228 = CALENDAR_DATE ( 2026, 9, 1 ) ;
#229 = EDGE_CURVE ( 'NONE', #257, #96, #225, .T. ) ;
#230 = COORDINATED_UNIVERSAL_TIME_OFFSET ( 10, 0, .AHEAD. ) ;
#231 = DATE_TIME_ROLE ( 'creation_date' ) ;
#232 = PERSON_AND_ORGANIZATION ( #93, #169 ) ;
#233 = DIRECTION ( 'NONE',  ( 0.000000000000000000, 0.000000000000000000, 1.000000000000000000 ) ) ;
#234 = ORIENTED_EDGE ( 'NONE', *, *, #89, .F. ) ;
#235 = CARTESIAN_POINT ( 'NONE',  ( -54.99999999999999289, -6.938893903907228378E-15, -6.000000000000000000 ) ) ;
#236 = EDGE_LOOP ( 'NONE', ( #41, #239, #192, #284 ) ) ;
#237 = ORIENTED_EDGE ( 'NONE', *, *, #291, .T. ) ;
#238 = DIRECTION ( 'NONE',  ( 0.000000000000000000, 0.000000000000000000, 1.000000000000000000 ) ) ;
#239 = ORIENTED_EDGE ( 'NONE', *, *, #97, .T. ) ;
#240 = AXIS2_PLACEMENT_3D ( 'NONE', #156, #233, #191 ) ;
#241 = VERTEX_POINT ( 'NONE', #26 ) ;
#242 = DIRECTION ( 'NONE',  ( 0.000000000000000000, 0.000000000000000000, 1.000000000000000000 ) ) ;
#243 = DIRECTION ( 'NONE',  ( 1.000000000000000000, 3.469446951953613696E-16, 0.000000000000000000 ) ) ;
#244 = AXIS2_PLACEMENT_3D ( 'NONE', #294, #243, #264 ) ;
#245 = CARTESIAN_POINT ( 'NONE',  ( 0.000000000000000000, 0.000000000000000000, 0.000000000000000000 ) ) ;
#246 = CC_DESIGN_PERSON_AND_ORGANIZATION_ASSIGNMENT ( #252, #208, ( #42 ) ) ;
#247 = CARTESIAN_POINT ( 'NONE',  ( -54.99999999999999289, 39.99999999999998579, -6.000000000000000000 ) ) ;
#248 = VECTOR ( 'NONE', #51, 1000.000000000000000 ) ;
#249 = EDGE_CURVE ( 'NONE', #96, #260, #53, .T. ) ;
#250 = APPROVAL_DATE_TIME ( #11, #165 ) ;
#251 = COORDINATED_UNIVERSAL_TIME_OFFSET ( 10, 0, .AHEAD. ) ;
#252 = PERSON_AND_ORGANIZATION ( #93, #169 ) ;
#253 = AXIS2_PLACEMENT_3D ( 'NONE', #113, #289, #163 ) ;
#254 = DIRECTION ( 'NONE',  ( 0.000000000000000000, 0.000000000000000000, 1.000000000000000000 ) ) ;
#255 = APPLICATION_CONTEXT ( 'configuration controlled 3d designs of mechanical parts and assemblies' ) ;
#256 = FACE_BOUND ( 'NONE', #167, .T. ) ;
#257 = VERTEX_POINT ( 'NONE', #247 ) ;
#258 = LINE ( 'NONE', #101, #132 ) ;
#259 = EDGE_CURVE ( 'NONE', #241, #187, #311, .T. ) ;
#260 = VERTEX_POINT ( 'NONE', #145 ) ;
#261 = LINE ( 'NONE', #140, #1 ) ;
#262 = EDGE_LOOP ( 'NONE', ( #138, #100, #287, #216 ) ) ;
#263 = ADVANCED_FACE ( 'NONE', ( #298 ), #48, .T. ) ;
#264 = DIRECTION ( 'NONE',  ( -3.469446951953613696E-16, 1.000000000000000000, 0.000000000000000000 ) ) ;
#265 = ORIENTED_EDGE ( 'NONE', *, *, #139, .F. ) ;
#266 = LOCAL_TIME ( 13, 48, 54.00000000000000000, #130 ) ;
#267 = LINE ( 'NONE', #121, #50 ) ;
#268 = LINE ( 'NONE', #108, #105 ) ;
#269 = DIRECTION ( 'NONE',  ( 0.000000000000000000, -1.000000000000000000, 0.000000000000000000 ) ) ;
#270 = FACE_OUTER_BOUND ( 'NONE', #141, .T. ) ;
#271 = AXIS2_PLACEMENT_3D ( 'NONE', #95, #254, #134 ) ;
#272 = DIRECTION ( 'NONE',  ( 1.000000000000000000, 1.157847882830225021E-16, 0.000000000000000000 ) ) ;
#273 = CARTESIAN_POINT ( 'NONE',  ( -25.99999999999999645, 19.99999999999999289, 0.000000000000000000 ) ) ;
#274 = CARTESIAN_POINT ( 'NONE',  ( 0.000000000000000000, 40.00000000000000711, -6.000000000000000000 ) ) ;
#275 = DATE_TIME_ROLE ( 'classification_date' ) ;
#276 = PERSON_AND_ORGANIZATION_ROLE ( 'creator' ) ;
#277 = AXIS2_PLACEMENT_3D ( 'NONE', #273, #54, #109 ) ;
#278 = APPROVAL ( #303, 'UNSPECIFIED' ) ;
#279 = PERSON_AND_ORGANIZATION ( #93, #169 ) ;
#280 = DATE_AND_TIME ( #92, #68 ) ;
#281 = VECTOR ( 'NONE', #297, 1000.000000000000000 ) ;
#282 = LOCAL_TIME ( 13, 48, 54.00000000000000000, #88 ) ;
#283 = PLANE ( 'NONE',  #240 ) ;
#284 = ORIENTED_EDGE ( 'NONE', *, *, #15, .T. ) ;
#285 = ADVANCED_FACE ( 'NONE', ( #166 ), #197, .T. ) ;
#286 = CARTESIAN_POINT ( 'NONE',  ( -33.49999999999999289, 19.99999999999999289, 1.224646799147473755E-16 ) ) ;
#287 = ORIENTED_EDGE ( 'NONE', *, *, #229, .F. ) ;
#288 = FACE_OUTER_BOUND ( 'NONE', #196, .T. ) ;
#289 = DIRECTION ( 'NONE',  ( 0.000000000000000000, 0.000000000000000000, 1.000000000000000000 ) ) ;
#290 = ORIENTED_EDGE ( 'NONE', *, *, #249, .T. ) ;
#291 = EDGE_CURVE ( 'NONE', #157, #47, #267, .T. ) ;
#292 = FACE_BOUND ( 'NONE', #161, .T. ) ;
#293 = VERTEX_POINT ( 'NONE', #28 ) ;
#294 = CARTESIAN_POINT ( 'NONE',  ( 0.000000000000000000, 0.000000000000000000, -6.000000000000000000 ) ) ;
#295 = DIRECTION ( 'NONE',  ( 0.000000000000000000, 0.000000000000000000, 1.000000000000000000 ) ) ;
#296 = CARTESIAN_POINT ( 'NONE',  ( -33.49999999999999289, 19.99999999999999289, 0.000000000000000000 ) ) ;
#297 = DIRECTION ( 'NONE',  ( 0.000000000000000000, 0.000000000000000000, 1.000000000000000000 ) ) ;
#298 = FACE_OUTER_BOUND ( 'NONE', #37, .T. ) ;
#299 = MANIFOLD_SOLID_BREP ( 'M12 Clearance Hole1', #32 ) ;
#300 = COORDINATED_UNIVERSAL_TIME_OFFSET ( 10, 0, .AHEAD. ) ;
#301 = APPROVAL_DATE_TIME ( #94, #278 ) ;
#302 = VECTOR ( 'NONE', #242, 1000.000000000000000 ) ;
#303 = APPROVAL_STATUS ( 'not_yet_approved' ) ;
#304 = ORIENTED_EDGE ( 'NONE', *, *, #194, .F. ) ;
#305 = DIRECTION ( 'NONE',  ( 1.000000000000000000, 0.000000000000000000, 0.000000000000000000 ) ) ;
#306 = ORIENTED_EDGE ( 'NONE', *, *, #291, .F. ) ;
#307 = FACE_OUTER_BOUND ( 'NONE', #236, .T. ) ;
#308 = FACE_OUTER_BOUND ( 'NONE', #262, .T. ) ;
#309 = ORIENTED_EDGE ( 'NONE', *, *, #259, .F. ) ;
#310 = VERTEX_POINT ( 'NONE', #123 ) ;
#311 = LINE ( 'NONE', #103, #67 ) ;
ENDSEC;
END-ISO-10303-21;
