ISO-10303-21;
HEADER;
FILE_DESCRIPTION (( 'STEP AP203' ),
    '1' );
FILE_NAME ('4229-50-10-30_REV_.step',
    '2026-01-09T02:49:58',
    ( '' ),
    ( '' ),
    'SwSTEP 2.0',
    'SolidWorks 2025',
    '' );
FILE_SCHEMA (( 'CONFIG_CONTROL_DESIGN' ));
ENDSEC;

DATA;
#1 = CARTESIAN_POINT ( 'NONE',  ( 63.50000000000001421, 8.999999999999973355, -20.00000000000000000 ) ) ;
#2 = ORIENTED_EDGE ( 'NONE', *, *, #388, .T. ) ;
#3 = EDGE_CURVE ( 'NONE', #83, #364, #117, .T. ) ;
#4 = DIRECTION ( 'NONE',  ( -0.000000000000000000, -0.000000000000000000, -1.000000000000000000 ) ) ;
#5 = VERTEX_POINT ( 'NONE', #214 ) ;
#6 = LINE ( 'NONE', #94, #392 ) ;
#7 = EDGE_CURVE ( 'NONE', #245, #177, #78, .T. ) ;
#8 = VERTEX_POINT ( 'NONE', #144 ) ;
#9 = ORIENTED_EDGE ( 'NONE', *, *, #354, .F. ) ;
#10 = AXIS2_PLACEMENT_3D ( 'NONE', #202, #407, #62 ) ;
#11 = LOCAL_TIME ( 13, 49, 58.00000000000000000, #169 ) ;
#12 = CARTESIAN_POINT ( 'NONE',  ( -57.50000000000000711, 57.49999999999998579, 20.00000000000000000 ) ) ;
#13 = CARTESIAN_POINT ( 'NONE',  ( 57.50000000000000711, 57.49999999999999289, -20.00000000000000000 ) ) ;
#14 = EDGE_CURVE ( 'NONE', #345, #205, #274, .T. ) ;
#15 =( NAMED_UNIT ( * ) SI_UNIT ( $, .STERADIAN. ) SOLID_ANGLE_UNIT ( ) );
#16 = ORIENTED_EDGE ( 'NONE', *, *, #141, .F. ) ;
#17 = APPROVAL ( #278, 'UNSPECIFIED' ) ;
#18 = APPROVAL_ROLE ( '' ) ;
#19 = PLANE ( 'NONE',  #382 ) ;
#20 = VECTOR ( 'NONE', #379, 1000.000000000000000 ) ;
#21 = LOCAL_TIME ( 13, 49, 58.00000000000000000, #316 ) ;
#22 = PLANE ( 'NONE',  #99 ) ;
#23 = PERSON_AND_ORGANIZATION ( #357, #284 ) ;
#24 = PLANE ( 'NONE',  #373 ) ;
#25 = CARTESIAN_POINT ( 'NONE',  ( 57.50000000000000711, 8.999999999999973355, 20.00000000000000000 ) ) ;
#26 = VECTOR ( 'NONE', #168, 1000.000000000000000 ) ;
#27 = DIRECTION ( 'NONE',  ( -0.000000000000000000, -0.000000000000000000, -1.000000000000000000 ) ) ;
#28 = ADVANCED_FACE ( 'NONE', ( #311 ), #19, .T. ) ;
#29 = FACE_OUTER_BOUND ( 'NONE', #65, .T. ) ;
#30 = DIRECTION ( 'NONE',  ( 1.000000000000000000, 0.000000000000000000, -0.000000000000000000 ) ) ;
#31 = FACE_OUTER_BOUND ( 'NONE', #209, .T. ) ;
#32 = CLOSED_SHELL ( 'NONE', ( #191, #348, #84, #426, #170, #33, #28, #199, #362, #119, #255, #271, #385, #146 ) ) ;
#33 = ADVANCED_FACE ( 'NONE', ( #313 ), #22, .T. ) ;
#34 = ORIENTED_EDGE ( 'NONE', *, *, #74, .T. ) ;
#35 = MANIFOLD_SOLID_BREP ( 'Base-Flange1', #32 ) ;
#36 = CARTESIAN_POINT ( 'NONE',  ( 57.50000000000000711, 8.999999999999973355, 20.00000000000000000 ) ) ;
#37 = CARTESIAN_POINT ( 'NONE',  ( 0.000000000000000000, 57.49999999999998579, 20.00000000000000000 ) ) ;
#38 = ORIENTED_EDGE ( 'NONE', *, *, #184, .F. ) ;
#39 = CARTESIAN_POINT ( 'NONE',  ( 63.50000000000001421, 57.49999999999999289, 20.00000000000000000 ) ) ;
#40 = ORIENTED_EDGE ( 'NONE', *, *, #430, .T. ) ;
#41 = LOCAL_TIME ( 13, 49, 58.00000000000000000, #55 ) ;
#42 = FACE_OUTER_BOUND ( 'NONE', #203, .T. ) ;
#43 = EDGE_LOOP ( 'NONE', ( #161, #38, #231, #2 ) ) ;
#44 = DATE_TIME_ROLE ( 'creation_date' ) ;
#45 = LINE ( 'NONE', #171, #304 ) ;
#46 = PERSON_AND_ORGANIZATION_ROLE ( 'creator' ) ;
#47 = DIRECTION ( 'NONE',  ( -0.000000000000000000, -1.000000000000000000, 0.000000000000000000 ) ) ;
#48 = EDGE_CURVE ( 'NONE', #115, #245, #45, .T. ) ;
#49 = MECHANICAL_CONTEXT ( 'NONE', #50, 'mechanical' ) ;
#50 = APPLICATION_CONTEXT ( 'configuration controlled 3d designs of mechanical parts and assemblies' ) ;
#51 = ORIENTED_EDGE ( 'NONE', *, *, #3, .T. ) ;
#52 = APPROVAL_ROLE ( '' ) ;
#53 = ORIENTED_EDGE ( 'NONE', *, *, #332, .T. ) ;
#54 = ORIENTED_EDGE ( 'NONE', *, *, #332, .F. ) ;
#55 = COORDINATED_UNIVERSAL_TIME_OFFSET ( 10, 0, .AHEAD. ) ;
#56 = DIRECTION ( 'NONE',  ( -1.000000000000000000, 1.156482317317870344E-15, 0.000000000000000000 ) ) ;
#57 = DIRECTION ( 'NONE',  ( 0.000000000000000000, -1.000000000000000000, 0.000000000000000000 ) ) ;
#58 = DIRECTION ( 'NONE',  ( 0.000000000000000000, 0.000000000000000000, 1.000000000000000000 ) ) ;
#59 = DIRECTION ( 'NONE',  ( -0.000000000000000000, -0.000000000000000000, -1.000000000000000000 ) ) ;
#60 = VECTOR ( 'NONE', #176, 1000.000000000000000 ) ;
#61 = CARTESIAN_POINT ( 'NONE',  ( -57.50000000000000711, 8.999999999999973355, 20.00000000000000000 ) ) ;
#62 = DIRECTION ( 'NONE',  ( 0.000000000000000000, 0.000000000000000000, 1.000000000000000000 ) ) ;
#63 = DIRECTION ( 'NONE',  ( -0.000000000000000000, -1.000000000000000000, 0.000000000000000000 ) ) ;
#64 = AXIS2_PLACEMENT_3D ( 'NONE', #287, #324, #358 ) ;
#65 = EDGE_LOOP ( 'NONE', ( #54, #266, #81, #40 ) ) ;
#66 = DIRECTION ( 'NONE',  ( 0.000000000000000000, -1.000000000000000000, 0.000000000000000000 ) ) ;
#67 = ORIENTED_EDGE ( 'NONE', *, *, #430, .F. ) ;
#68 = DIRECTION ( 'NONE',  ( -0.000000000000000000, -0.000000000000000000, -1.000000000000000000 ) ) ;
#69 = ORIENTED_EDGE ( 'NONE', *, *, #77, .T. ) ;
#70 = EDGE_CURVE ( 'NONE', #331, #177, #108, .T. ) ;
#71 = CARTESIAN_POINT ( 'NONE',  ( 0.000000000000000000, 57.49999999999998579, -20.00000000000000000 ) ) ;
#72 =( LENGTH_UNIT ( ) NAMED_UNIT ( * ) SI_UNIT ( .MILLI., .METRE. ) );
#73 = ORIENTED_EDGE ( 'NONE', *, *, #248, .T. ) ;
#74 = EDGE_CURVE ( 'NONE', #8, #235, #306, .T. ) ;
#75 = UNCERTAINTY_MEASURE_WITH_UNIT (LENGTH_MEASURE( 1.000000000000000082E-05 ), #72, 'distance_accuracy_value', 'NONE');
#76 = DIRECTION ( 'NONE',  ( 1.000000000000000000, 0.000000000000000000, 0.000000000000000000 ) ) ;
#77 = EDGE_CURVE ( 'NONE', #345, #387, #249, .T. ) ;
#78 = LINE ( 'NONE', #270, #87 ) ;
#79 = ORIENTED_EDGE ( 'NONE', *, *, #141, .T. ) ;
#80 = VECTOR ( 'NONE', #63, 1000.000000000000000 ) ;
#81 = ORIENTED_EDGE ( 'NONE', *, *, #354, .T. ) ;
#82 = DATE_AND_TIME ( #383, #366 ) ;
#83 = VERTEX_POINT ( 'NONE', #395 ) ;
#84 = ADVANCED_FACE ( 'NONE', ( #391 ), #222, .T. ) ;
#85 = CALENDAR_DATE ( 2026, 9, 1 ) ;
#86 = CARTESIAN_POINT ( 'NONE',  ( 63.50000000000001421, 57.49999999999998579, 20.00000000000000000 ) ) ;
#87 = VECTOR ( 'NONE', #149, 1000.000000000000000 ) ;
#88 = CARTESIAN_POINT ( 'NONE',  ( 57.50000000000000711, 57.49999999999999289, -20.00000000000000000 ) ) ;
#89 = CARTESIAN_POINT ( 'NONE',  ( 0.000000000000000000, 57.49999999999998579, 20.00000000000000000 ) ) ;
#90 = DIRECTION ( 'NONE',  ( -0.000000000000000000, -0.000000000000000000, -1.000000000000000000 ) ) ;
#91 = AXIS2_PLACEMENT_3D ( 'NONE', #361, #164, #369 ) ;
#92 = DIRECTION ( 'NONE',  ( 0.000000000000000000, 1.000000000000000000, 0.000000000000000000 ) ) ;
#93 = DATE_AND_TIME ( #85, #41 ) ;
#94 = CARTESIAN_POINT ( 'NONE',  ( 63.50000000000001421, 8.999999999999973355, 20.00000000000000000 ) ) ;
#95 = ORIENTED_EDGE ( 'NONE', *, *, #377, .T. ) ;
#96 = EDGE_CURVE ( 'NONE', #370, #5, #217, .T. ) ;
#97 = PLANE ( 'NONE',  #10 ) ;
#98 = VECTOR ( 'NONE', #398, 1000.000000000000000 ) ;
#99 = AXIS2_PLACEMENT_3D ( 'NONE', #381, #279, #339 ) ;
#100 = EDGE_LOOP ( 'NONE', ( #95, #243, #264, #208 ) ) ;
#101 = DIRECTION ( 'NONE',  ( 0.000000000000000000, -1.000000000000000000, 0.000000000000000000 ) ) ;
#102 = ORIENTED_EDGE ( 'NONE', *, *, #124, .T. ) ;
#103 = LINE ( 'NONE', #409, #189 ) ;
#104 = APPROVAL ( #178, 'UNSPECIFIED' ) ;
#105 = ORIENTED_EDGE ( 'NONE', *, *, #402, .F. ) ;
#106 = CC_DESIGN_APPROVAL ( #104, ( #423 ) ) ;
#107 = PERSON_AND_ORGANIZATION ( #357, #284 ) ;
#108 = LINE ( 'NONE', #240, #253 ) ;
#109 = CARTESIAN_POINT ( 'NONE',  ( 63.50000000000001421, 57.49999999999998579, 20.00000000000000000 ) ) ;
#110 = PERSON_AND_ORGANIZATION_ROLE ( 'design_owner' ) ;
#111 = ORIENTED_EDGE ( 'NONE', *, *, #225, .F. ) ;
#112 = VECTOR ( 'NONE', #92, 1000.000000000000000 ) ;
#113 = VECTOR ( 'NONE', #375, 1000.000000000000000 ) ;
#114 = PERSON_AND_ORGANIZATION ( #357, #284 ) ;
#115 = VERTEX_POINT ( 'NONE', #219 ) ;
#116 = APPROVAL_ROLE ( '' ) ;
#117 = LINE ( 'NONE', #415, #20 ) ;
#118 = LINE ( 'NONE', #289, #174 ) ;
#119 = ADVANCED_FACE ( 'NONE', ( #353 ), #422, .T. ) ;
#120 = AXIS2_PLACEMENT_3D ( 'NONE', #355, #90, #397 ) ;
#121 = APPROVAL_PERSON_ORGANIZATION ( #114, #428, #52 ) ;
#122 = LINE ( 'NONE', #321, #228 ) ;
#123 = CARTESIAN_POINT ( 'NONE',  ( -57.50000000000000711, 57.49999999999998579, 20.00000000000000000 ) ) ;
#124 = EDGE_CURVE ( 'NONE', #205, #370, #424, .T. ) ;
#125 = LINE ( 'NONE', #252, #98 ) ;
#126 = AXIS2_PLACEMENT_3D ( 'NONE', #61, #57, #250 ) ;
#127 = FACE_OUTER_BOUND ( 'NONE', #212, .T. ) ;
#128 =( GEOMETRIC_REPRESENTATION_CONTEXT ( 3 ) GLOBAL_UNCERTAINTY_ASSIGNED_CONTEXT ( ( #75 ) ) GLOBAL_UNIT_ASSIGNED_CONTEXT ( ( #72, #307, #15 ) ) REPRESENTATION_CONTEXT ( 'NONE', 'WORKASPACE' ) );
#129 = CARTESIAN_POINT ( 'NONE',  ( 63.50000000000001421, 8.999999999999973355, -20.00000000000000000 ) ) ;
#130 = ORIENTED_EDGE ( 'NONE', *, *, #221, .T. ) ;
#131 = CARTESIAN_POINT ( 'NONE',  ( 0.000000000000000000, 57.49999999999998579, 20.00000000000000000 ) ) ;
#132 = CARTESIAN_POINT ( 'NONE',  ( 57.50000000000000711, 57.49999999999998579, 20.00000000000000000 ) ) ;
#133 = AXIS2_PLACEMENT_3D ( 'NONE', #131, #160, #291 ) ;
#134 = ORIENTED_EDGE ( 'NONE', *, *, #263, .T. ) ;
#135 = PLANE ( 'NONE',  #411 ) ;
#136 = EDGE_LOOP ( 'NONE', ( #257, #79, #138, #9 ) ) ;
#137 = DIRECTION ( 'NONE',  ( -0.000000000000000000, -0.000000000000000000, -1.000000000000000000 ) ) ;
#138 = ORIENTED_EDGE ( 'NONE', *, *, #77, .F. ) ;
#139 = DATE_AND_TIME ( #412, #11 ) ;
#140 = EDGE_LOOP ( 'NONE', ( #147, #350, #102, #368 ) ) ;
#141 = EDGE_CURVE ( 'NONE', #408, #387, #344, .T. ) ;
#142 = DIRECTION ( 'NONE',  ( -0.000000000000000000, 0.000000000000000000, -1.000000000000000000 ) ) ;
#143 = ORIENTED_EDGE ( 'NONE', *, *, #328, .T. ) ;
#144 = CARTESIAN_POINT ( 'NONE',  ( 57.50000000000000711, 57.49999999999999289, -20.00000000000000000 ) ) ;
#145 = LINE ( 'NONE', #206, #60 ) ;
#146 = ADVANCED_FACE ( 'NONE', ( #127 ), #186, .F. ) ;
#147 = ORIENTED_EDGE ( 'NONE', *, *, #263, .F. ) ;
#148 = APPLICATION_PROTOCOL_DEFINITION ( 'international standard', 'config_control_design', 1994, #50 ) ;
#149 = DIRECTION ( 'NONE',  ( 1.000000000000000000, -1.156482317317870344E-15, 0.000000000000000000 ) ) ;
#150 = DIRECTION ( 'NONE',  ( -1.000000000000000000, 0.000000000000000000, 0.000000000000000000 ) ) ;
#151 = EDGE_CURVE ( 'NONE', #331, #364, #153, .T. ) ;
#152 = DESIGN_CONTEXT ( 'detailed design', #292, 'design' ) ;
#153 = LINE ( 'NONE', #156, #277 ) ;
#154 = VECTOR ( 'NONE', #281, 1000.000000000000000 ) ;
#155 = CARTESIAN_POINT ( 'NONE',  ( -57.50000000000000711, 57.49999999999998579, -20.00000000000000000 ) ) ;
#156 = CARTESIAN_POINT ( 'NONE',  ( -57.50000000000000711, 8.999999999999973355, -20.00000000000000000 ) ) ;
#157 = PLANE ( 'NONE',  #64 ) ;
#158 = LINE ( 'NONE', #400, #237 ) ;
#159 = ORIENTED_EDGE ( 'NONE', *, *, #184, .T. ) ;
#160 = DIRECTION ( 'NONE',  ( -0.000000000000000000, -0.000000000000000000, -1.000000000000000000 ) ) ;
#161 = ORIENTED_EDGE ( 'NONE', *, *, #70, .T. ) ;
#162 = CARTESIAN_POINT ( 'NONE',  ( 57.50000000000000711, 57.49999999999999289, 20.00000000000000000 ) ) ;
#163 = PRODUCT_DEFINITION ( 'UNKNOWN', '', #423, #152 ) ;
#164 = DIRECTION ( 'NONE',  ( 0.000000000000000000, 0.000000000000000000, 1.000000000000000000 ) ) ;
#165 = AXIS2_PLACEMENT_3D ( 'NONE', #329, #4, #429 ) ;
#166 = AXIS2_PLACEMENT_3D ( 'NONE', #310, #300, #76 ) ;
#167 = ORIENTED_EDGE ( 'NONE', *, *, #151, .F. ) ;
#168 = DIRECTION ( 'NONE',  ( -1.000000000000000000, 0.000000000000000000, 0.000000000000000000 ) ) ;
#169 = COORDINATED_UNIVERSAL_TIME_OFFSET ( 10, 0, .AHEAD. ) ;
#170 = ADVANCED_FACE ( 'NONE', ( #220 ), #157, .F. ) ;
#171 = CARTESIAN_POINT ( 'NONE',  ( -63.50000000000001421, 57.49999999999999289, 20.00000000000000000 ) ) ;
#172 = APPROVAL_DATE_TIME ( #82, #428 ) ;
#173 = DIRECTION ( 'NONE',  ( 0.000000000000000000, 1.000000000000000000, 0.000000000000000000 ) ) ;
#174 = VECTOR ( 'NONE', #330, 1000.000000000000000 ) ;
#175 = CC_DESIGN_APPROVAL ( #428, ( #163 ) ) ;
#176 = DIRECTION ( 'NONE',  ( -1.000000000000000000, 0.000000000000000000, 0.000000000000000000 ) ) ;
#177 = VERTEX_POINT ( 'NONE', #155 ) ;
#178 = APPROVAL_STATUS ( 'not_yet_approved' ) ;
#179 = ORIENTED_EDGE ( 'NONE', *, *, #151, .T. ) ;
#180 = COORDINATED_UNIVERSAL_TIME_OFFSET ( 10, 0, .AHEAD. ) ;
#181 = DIRECTION ( 'NONE',  ( -0.000000000000000000, 0.000000000000000000, -1.000000000000000000 ) ) ;
#182 = PERSON_AND_ORGANIZATION_ROLE ( 'classification_officer' ) ;
#183 = DIRECTION ( 'NONE',  ( -1.000000000000000000, 0.000000000000000000, 0.000000000000000000 ) ) ;
#184 = EDGE_CURVE ( 'NONE', #408, #177, #187, .T. ) ;
#185 = ADVANCED_BREP_SHAPE_REPRESENTATION ( '4229-50-10-30_REV_', ( #35, #166 ), #128 ) ;
#186 = PLANE ( 'NONE',  #327 ) ;
#187 = LINE ( 'NONE', #421, #365 ) ;
#188 = AXIS2_PLACEMENT_3D ( 'NONE', #71, #137, #234 ) ;
#189 = VECTOR ( 'NONE', #417, 1000.000000000000000 ) ;
#190 = DIRECTION ( 'NONE',  ( -1.000000000000000000, 0.000000000000000000, 0.000000000000000000 ) ) ;
#191 = ADVANCED_FACE ( 'NONE', ( #318 ), #24, .T. ) ;
#192 = DIRECTION ( 'NONE',  ( -1.000000000000000000, 0.000000000000000000, 0.000000000000000000 ) ) ;
#193 = DIRECTION ( 'NONE',  ( 0.000000000000000000, 0.000000000000000000, 1.000000000000000000 ) ) ;
#194 = APPROVAL_DATE_TIME ( #93, #17 ) ;
#195 = EDGE_CURVE ( 'NONE', #387, #8, #122, .T. ) ;
#196 = AXIS2_PLACEMENT_3D ( 'NONE', #88, #285, #150 ) ;
#197 = PLANE ( 'NONE',  #91 ) ;
#198 = CC_DESIGN_APPROVAL ( #17, ( #269 ) ) ;
#199 = ADVANCED_FACE ( 'NONE', ( #29 ), #396, .T. ) ;
#200 = FACE_OUTER_BOUND ( 'NONE', #401, .T. ) ;
#201 = EDGE_LOOP ( 'NONE', ( #293, #67, #347, #73 ) ) ;
#202 = CARTESIAN_POINT ( 'NONE',  ( -57.50000000000000711, 8.999999999999973355, 20.00000000000000000 ) ) ;
#203 = EDGE_LOOP ( 'NONE', ( #410, #308, #16, #159 ) ) ;
#204 = DIRECTION ( 'NONE',  ( -1.000000000000000000, -0.000000000000000000, 0.000000000000000000 ) ) ;
#205 = VERTEX_POINT ( 'NONE', #286 ) ;
#206 = CARTESIAN_POINT ( 'NONE',  ( -57.50000000000000711, 8.999999999999973355, 20.00000000000000000 ) ) ;
#207 = ORIENTED_EDGE ( 'NONE', *, *, #218, .T. ) ;
#208 = ORIENTED_EDGE ( 'NONE', *, *, #195, .T. ) ;
#209 = EDGE_LOOP ( 'NONE', ( #143, #130, #261, #105 ) ) ;
#210 = AXIS2_PLACEMENT_3D ( 'NONE', #89, #59, #190 ) ;
#211 = PERSON_AND_ORGANIZATION ( #357, #284 ) ;
#212 = EDGE_LOOP ( 'NONE', ( #301, #238, #372, #179 ) ) ;
#213 = CC_DESIGN_PERSON_AND_ORGANIZATION_ASSIGNMENT ( #239, #378, ( #423 ) ) ;
#214 = CARTESIAN_POINT ( 'NONE',  ( 57.50000000000000711, 8.999999999999973355, -20.00000000000000000 ) ) ;
#215 = PERSON_AND_ORGANIZATION ( #357, #284 ) ;
#216 = LINE ( 'NONE', #352, #342 ) ;
#217 = LINE ( 'NONE', #25, #154 ) ;
#218 = EDGE_CURVE ( 'NONE', #83, #115, #125, .T. ) ;
#219 = CARTESIAN_POINT ( 'NONE',  ( -63.50000000000001421, 57.49999999999999289, 20.00000000000000000 ) ) ;
#220 = FACE_OUTER_BOUND ( 'NONE', #100, .T. ) ;
#221 = EDGE_CURVE ( 'NONE', #408, #115, #216, .T. ) ;
#222 = PLANE ( 'NONE',  #196 ) ;
#223 = CARTESIAN_POINT ( 'NONE',  ( -57.50000000000000711, 8.999999999999973355, -20.00000000000000000 ) ) ;
#224 = PRODUCT ( '4229-50-10-30_REV_', '4229-50-10-30_REV_', '', ( #49 ) ) ;
#225 = EDGE_CURVE ( 'NONE', #364, #245, #118, .T. ) ;
#226 = DIRECTION ( 'NONE',  ( -0.000000000000000000, -0.000000000000000000, -1.000000000000000000 ) ) ;
#227 = EDGE_LOOP ( 'NONE', ( #167, #290, #420, #51 ) ) ;
#228 = VECTOR ( 'NONE', #251, 1000.000000000000000 ) ;
#229 = FACE_OUTER_BOUND ( 'NONE', #334, .T. ) ;
#230 = CC_DESIGN_SECURITY_CLASSIFICATION ( #269, ( #423 ) ) ;
#231 = ORIENTED_EDGE ( 'NONE', *, *, #328, .F. ) ;
#232 = CARTESIAN_POINT ( 'NONE',  ( -57.50000000000000711, 8.999999999999973355, 20.00000000000000000 ) ) ;
#233 = ORIENTED_EDGE ( 'NONE', *, *, #124, .F. ) ;
#234 = DIRECTION ( 'NONE',  ( -1.000000000000000000, 0.000000000000000000, 0.000000000000000000 ) ) ;
#235 = VERTEX_POINT ( 'NONE', #403 ) ;
#236 = PERSON_AND_ORGANIZATION ( #357, #284 ) ;
#237 = VECTOR ( 'NONE', #66, 1000.000000000000000 ) ;
#238 = ORIENTED_EDGE ( 'NONE', *, *, #7, .T. ) ;
#239 = PERSON_AND_ORGANIZATION ( #357, #284 ) ;
#240 = CARTESIAN_POINT ( 'NONE',  ( -57.50000000000000711, 8.999999999999973355, -20.00000000000000000 ) ) ;
#241 = DIRECTION ( 'NONE',  ( 1.000000000000000000, 0.000000000000000000, -0.000000000000000000 ) ) ;
#242 = APPROVAL_STATUS ( 'not_yet_approved' ) ;
#243 = ORIENTED_EDGE ( 'NONE', *, *, #96, .F. ) ;
#244 = APPLICATION_PROTOCOL_DEFINITION ( 'international standard', 'config_control_design', 1994, #292 ) ;
#245 = VERTEX_POINT ( 'NONE', #294 ) ;
#246 = DATE_TIME_ROLE ( 'classification_date' ) ;
#247 = VERTEX_POINT ( 'NONE', #1 ) ;
#248 = EDGE_CURVE ( 'NONE', #205, #247, #6, .T. ) ;
#249 = LINE ( 'NONE', #360, #295 ) ;
#250 = DIRECTION ( 'NONE',  ( 0.000000000000000000, -0.000000000000000000, -1.000000000000000000 ) ) ;
#251 = DIRECTION ( 'NONE',  ( -0.000000000000000000, -0.000000000000000000, -1.000000000000000000 ) ) ;
#252 = CARTESIAN_POINT ( 'NONE',  ( -63.50000000000001421, 8.999999999999973355, 20.00000000000000000 ) ) ;
#253 = VECTOR ( 'NONE', #173, 1000.000000000000000 ) ;
#254 = CARTESIAN_POINT ( 'NONE',  ( 63.50000000000001421, 8.999999999999973355, 20.00000000000000000 ) ) ;
#255 = ADVANCED_FACE ( 'NONE', ( #260 ), #97, .F. ) ;
#256 = CARTESIAN_POINT ( 'NONE',  ( 63.50000000000001421, 57.49999999999998579, -20.00000000000000000 ) ) ;
#257 = ORIENTED_EDGE ( 'NONE', *, *, #221, .F. ) ;
#258 = DIRECTION ( 'NONE',  ( 1.000000000000000000, 0.000000000000000000, 0.000000000000000000 ) ) ;
#259 = VECTOR ( 'NONE', #101, 1000.000000000000000 ) ;
#260 = FACE_OUTER_BOUND ( 'NONE', #43, .T. ) ;
#261 = ORIENTED_EDGE ( 'NONE', *, *, #218, .F. ) ;
#262 = DIRECTION ( 'NONE',  ( 1.000000000000000000, 0.000000000000000000, -0.000000000000000000 ) ) ;
#263 = EDGE_CURVE ( 'NONE', #247, #5, #406, .T. ) ;
#264 = ORIENTED_EDGE ( 'NONE', *, *, #280, .F. ) ;
#265 = LINE ( 'NONE', #432, #112 ) ;
#266 = ORIENTED_EDGE ( 'NONE', *, *, #48, .F. ) ;
#267 = APPROVAL_DATE_TIME ( #139, #104 ) ;
#268 = VECTOR ( 'NONE', #192, 1000.000000000000000 ) ;
#269 = SECURITY_CLASSIFICATION ( '', '', #389 ) ;
#270 = CARTESIAN_POINT ( 'NONE',  ( -63.50000000000001421, 57.49999999999999289, -20.00000000000000000 ) ) ;
#271 = ADVANCED_FACE ( 'NONE', ( #42 ), #363, .F. ) ;
#272 = LINE ( 'NONE', #414, #113 ) ;
#273 = ORIENTED_EDGE ( 'NONE', *, *, #377, .F. ) ;
#274 = LINE ( 'NONE', #109, #283 ) ;
#275 = FACE_OUTER_BOUND ( 'NONE', #276, .T. ) ;
#276 = EDGE_LOOP ( 'NONE', ( #273, #34, #341, #134 ) ) ;
#277 = VECTOR ( 'NONE', #319, 1000.000000000000000 ) ;
#278 = APPROVAL_STATUS ( 'not_yet_approved' ) ;
#279 = DIRECTION ( 'NONE',  ( 0.000000000000000000, -1.000000000000000000, 0.000000000000000000 ) ) ;
#280 = EDGE_CURVE ( 'NONE', #387, #370, #298, .T. ) ;
#281 = DIRECTION ( 'NONE',  ( -0.000000000000000000, -0.000000000000000000, -1.000000000000000000 ) ) ;
#282 = DIRECTION ( 'NONE',  ( 0.000000000000000000, 0.000000000000000000, 1.000000000000000000 ) ) ;
#283 = VECTOR ( 'NONE', #47, 1000.000000000000000 ) ;
#284 = ORGANIZATION ( 'UNSPECIFIED', 'UNSPECIFIED', '' ) ;
#285 = DIRECTION ( 'NONE',  ( -0.000000000000000000, 0.000000000000000000, -1.000000000000000000 ) ) ;
#286 = CARTESIAN_POINT ( 'NONE',  ( 63.50000000000001421, 8.999999999999973355, 20.00000000000000000 ) ) ;
#287 = CARTESIAN_POINT ( 'NONE',  ( 57.50000000000000711, 57.49999999999998579, 20.00000000000000000 ) ) ;
#288 = LOCAL_TIME ( 13, 49, 58.00000000000000000, #180 ) ;
#289 = CARTESIAN_POINT ( 'NONE',  ( -63.50000000000001421, 8.999999999999973355, -20.00000000000000000 ) ) ;
#290 = ORIENTED_EDGE ( 'NONE', *, *, #388, .F. ) ;
#291 = DIRECTION ( 'NONE',  ( -1.000000000000000000, 0.000000000000000000, 0.000000000000000000 ) ) ;
#292 = APPLICATION_CONTEXT ( 'configuration controlled 3d designs of mechanical parts and assemblies' ) ;
#293 = ORIENTED_EDGE ( 'NONE', *, *, #302, .F. ) ;
#294 = CARTESIAN_POINT ( 'NONE',  ( -63.50000000000001421, 57.49999999999999289, -20.00000000000000000 ) ) ;
#295 = VECTOR ( 'NONE', #183, 1000.000000000000000 ) ;
#296 = CARTESIAN_POINT ( 'NONE',  ( -63.50000000000001421, 8.999999999999973355, 20.00000000000000000 ) ) ;
#297 = ORIENTED_EDGE ( 'NONE', *, *, #3, .F. ) ;
#298 = LINE ( 'NONE', #132, #259 ) ;
#299 = PRODUCT_RELATED_PRODUCT_CATEGORY ( 'detail', '', ( #224 ) ) ;
#300 = DIRECTION ( 'NONE',  ( 0.000000000000000000, 0.000000000000000000, 1.000000000000000000 ) ) ;
#301 = ORIENTED_EDGE ( 'NONE', *, *, #225, .T. ) ;
#302 = EDGE_CURVE ( 'NONE', #235, #247, #326, .T. ) ;
#303 = CALENDAR_DATE ( 2026, 9, 1 ) ;
#304 = VECTOR ( 'NONE', #413, 1000.000000000000000 ) ;
#305 = AXIS2_PLACEMENT_3D ( 'NONE', #371, #68, #258 ) ;
#306 = LINE ( 'NONE', #13, #314 ) ;
#307 =( NAMED_UNIT ( * ) PLANE_ANGLE_UNIT ( ) SI_UNIT ( $, .RADIAN. ) );
#308 = ORIENTED_EDGE ( 'NONE', *, *, #195, .F. ) ;
#309 = PRODUCT_DEFINITION_SHAPE ( 'NONE', 'NONE',  #163 ) ;
#310 = CARTESIAN_POINT ( 'NONE',  ( 0.000000000000000000, 0.000000000000000000, 0.000000000000000000 ) ) ;
#311 = FACE_OUTER_BOUND ( 'NONE', #201, .T. ) ;
#312 = CARTESIAN_POINT ( 'NONE',  ( -63.50000000000001421, 57.49999999999999289, -20.00000000000000000 ) ) ;
#313 = FACE_OUTER_BOUND ( 'NONE', #140, .T. ) ;
#314 = VECTOR ( 'NONE', #427, 1000.000000000000000 ) ;
#315 = AXIS2_PLACEMENT_3D ( 'NONE', #312, #142, #343 ) ;
#316 = COORDINATED_UNIVERSAL_TIME_OFFSET ( 10, 0, .AHEAD. ) ;
#317 = CC_DESIGN_DATE_AND_TIME_ASSIGNMENT ( #419, #246, ( #269 ) ) ;
#318 = FACE_OUTER_BOUND ( 'NONE', #136, .T. ) ;
#319 = DIRECTION ( 'NONE',  ( -1.000000000000000000, 0.000000000000000000, 0.000000000000000000 ) ) ;
#320 = EDGE_CURVE ( 'NONE', #177, #8, #322, .T. ) ;
#321 = CARTESIAN_POINT ( 'NONE',  ( 57.50000000000000711, 57.49999999999999289, 20.00000000000000000 ) ) ;
#322 = CIRCLE ( 'NONE', #188, 57.50000000000000711 ) ;
#323 = APPROVAL_PERSON_ORGANIZATION ( #211, #104, #18 ) ;
#324 = DIRECTION ( 'NONE',  ( 1.000000000000000000, 0.000000000000000000, -0.000000000000000000 ) ) ;
#325 = CARTESIAN_POINT ( 'NONE',  ( 0.000000000000000000, 57.49999999999998579, -20.00000000000000000 ) ) ;
#326 = LINE ( 'NONE', #256, #80 ) ;
#327 = AXIS2_PLACEMENT_3D ( 'NONE', #325, #58, #30 ) ;
#328 = EDGE_CURVE ( 'NONE', #337, #408, #265, .T. ) ;
#329 = CARTESIAN_POINT ( 'NONE',  ( 0.000000000000000000, 57.49999999999998579, -20.00000000000000000 ) ) ;
#330 = DIRECTION ( 'NONE',  ( -0.000000000000000000, 1.000000000000000000, 0.000000000000000000 ) ) ;
#331 = VERTEX_POINT ( 'NONE', #223 ) ;
#332 = EDGE_CURVE ( 'NONE', #245, #235, #359, .T. ) ;
#333 = PLANE ( 'NONE',  #405 ) ;
#334 = EDGE_LOOP ( 'NONE', ( #111, #297, #207, #416 ) ) ;
#335 = CC_DESIGN_DATE_AND_TIME_ASSIGNMENT ( #346, #44, ( #163 ) ) ;
#336 = DIRECTION ( 'NONE',  ( 0.000000000000000000, 0.000000000000000000, 1.000000000000000000 ) ) ;
#337 = VERTEX_POINT ( 'NONE', #232 ) ;
#338 = PERSON_AND_ORGANIZATION_ROLE ( 'creator' ) ;
#339 = DIRECTION ( 'NONE',  ( 0.000000000000000000, -0.000000000000000000, -1.000000000000000000 ) ) ;
#340 = PERSON_AND_ORGANIZATION ( #357, #284 ) ;
#341 = ORIENTED_EDGE ( 'NONE', *, *, #302, .T. ) ;
#342 = VECTOR ( 'NONE', #56, 1000.000000000000000 ) ;
#343 = DIRECTION ( 'NONE',  ( -1.000000000000000000, 0.000000000000000000, 0.000000000000000000 ) ) ;
#344 = CIRCLE ( 'NONE', #120, 57.50000000000000711 ) ;
#345 = VERTEX_POINT ( 'NONE', #39 ) ;
#346 = DATE_AND_TIME ( #303, #288 ) ;
#347 = ORIENTED_EDGE ( 'NONE', *, *, #14, .T. ) ;
#348 = ADVANCED_FACE ( 'NONE', ( #31 ), #197, .T. ) ;
#349 = PLANE ( 'NONE',  #315 ) ;
#350 = ORIENTED_EDGE ( 'NONE', *, *, #248, .F. ) ;
#351 = CALENDAR_DATE ( 2026, 9, 1 ) ;
#352 = CARTESIAN_POINT ( 'NONE',  ( -57.50000000000000711, 57.49999999999998579, 20.00000000000000000 ) ) ;
#353 = FACE_OUTER_BOUND ( 'NONE', #227, .T. ) ;
#354 = EDGE_CURVE ( 'NONE', #115, #345, #393, .T. ) ;
#355 = CARTESIAN_POINT ( 'NONE',  ( 0.000000000000000000, 57.49999999999998579, 20.00000000000000000 ) ) ;
#356 = CC_DESIGN_PERSON_AND_ORGANIZATION_ASSIGNMENT ( #23, #182, ( #269 ) ) ;
#357 = PERSON ( 'UNSPECIFIED', 'UNSPECIFIED', 'UNSPECIFIED', ('UNSPECIFIED'), ('UNSPECIFIED'), ('UNSPECIFIED') ) ;
#358 = DIRECTION ( 'NONE',  ( -0.000000000000000000, 0.000000000000000000, -1.000000000000000000 ) ) ;
#359 = CIRCLE ( 'NONE', #165, 63.50000000000001421 ) ;
#360 = CARTESIAN_POINT ( 'NONE',  ( 63.50000000000001421, 57.49999999999999289, 20.00000000000000000 ) ) ;
#361 = CARTESIAN_POINT ( 'NONE',  ( 63.50000000000001421, 57.49999999999999289, 20.00000000000000000 ) ) ;
#362 = ADVANCED_FACE ( 'NONE', ( #229 ), #333, .T. ) ;
#363 = CYLINDRICAL_SURFACE ( 'NONE', #133, 57.50000000000000711 ) ;
#364 = VERTEX_POINT ( 'NONE', #367 ) ;
#365 = VECTOR ( 'NONE', #27, 1000.000000000000000 ) ;
#366 = LOCAL_TIME ( 13, 49, 58.00000000000000000, #386 ) ;
#367 = CARTESIAN_POINT ( 'NONE',  ( -63.50000000000001421, 8.999999999999973355, -20.00000000000000000 ) ) ;
#368 = ORIENTED_EDGE ( 'NONE', *, *, #96, .T. ) ;
#369 = DIRECTION ( 'NONE',  ( 1.000000000000000000, 0.000000000000000000, -0.000000000000000000 ) ) ;
#370 = VERTEX_POINT ( 'NONE', #36 ) ;
#371 = CARTESIAN_POINT ( 'NONE',  ( 0.000000000000000000, 57.49999999999998579, 20.00000000000000000 ) ) ;
#372 = ORIENTED_EDGE ( 'NONE', *, *, #70, .F. ) ;
#373 = AXIS2_PLACEMENT_3D ( 'NONE', #123, #282, #425 ) ;
#374 = APPROVAL_PERSON_ORGANIZATION ( #215, #17, #116 ) ;
#375 = DIRECTION ( 'NONE',  ( -0.000000000000000000, -0.000000000000000000, -1.000000000000000000 ) ) ;
#376 = ORIENTED_EDGE ( 'NONE', *, *, #14, .F. ) ;
#377 = EDGE_CURVE ( 'NONE', #8, #5, #158, .T. ) ;
#378 = PERSON_AND_ORGANIZATION_ROLE ( 'design_supplier' ) ;
#379 = DIRECTION ( 'NONE',  ( -0.000000000000000000, -0.000000000000000000, -1.000000000000000000 ) ) ;
#380 = CC_DESIGN_PERSON_AND_ORGANIZATION_ASSIGNMENT ( #107, #46, ( #423 ) ) ;
#381 = CARTESIAN_POINT ( 'NONE',  ( 63.50000000000001421, 8.999999999999973355, 20.00000000000000000 ) ) ;
#382 = AXIS2_PLACEMENT_3D ( 'NONE', #86, #241, #181 ) ;
#383 = CALENDAR_DATE ( 2026, 9, 1 ) ;
#384 = ORIENTED_EDGE ( 'NONE', *, *, #280, .T. ) ;
#385 = ADVANCED_FACE ( 'NONE', ( #200 ), #135, .T. ) ;
#386 = COORDINATED_UNIVERSAL_TIME_OFFSET ( 10, 0, .AHEAD. ) ;
#387 = VERTEX_POINT ( 'NONE', #162 ) ;
#388 = EDGE_CURVE ( 'NONE', #337, #331, #103, .T. ) ;
#389 = SECURITY_CLASSIFICATION_LEVEL ( 'unclassified' ) ;
#390 = EDGE_LOOP ( 'NONE', ( #431, #433, #418, #53 ) ) ;
#391 = FACE_OUTER_BOUND ( 'NONE', #390, .T. ) ;
#392 = VECTOR ( 'NONE', #226, 1000.000000000000000 ) ;
#393 = CIRCLE ( 'NONE', #305, 63.50000000000001421 ) ;
#394 = CC_DESIGN_PERSON_AND_ORGANIZATION_ASSIGNMENT ( #340, #338, ( #163 ) ) ;
#395 = CARTESIAN_POINT ( 'NONE',  ( -63.50000000000001421, 8.999999999999973355, 20.00000000000000000 ) ) ;
#396 = CYLINDRICAL_SURFACE ( 'NONE', #210, 63.50000000000001421 ) ;
#397 = DIRECTION ( 'NONE',  ( -1.000000000000000000, 0.000000000000000000, 0.000000000000000000 ) ) ;
#398 = DIRECTION ( 'NONE',  ( -0.000000000000000000, 1.000000000000000000, 0.000000000000000000 ) ) ;
#399 = CC_DESIGN_PERSON_AND_ORGANIZATION_ASSIGNMENT ( #236, #110, ( #224 ) ) ;
#400 = CARTESIAN_POINT ( 'NONE',  ( 57.50000000000000711, 57.49999999999998579, -20.00000000000000000 ) ) ;
#401 = EDGE_LOOP ( 'NONE', ( #384, #233, #376, #69 ) ) ;
#402 = EDGE_CURVE ( 'NONE', #337, #83, #145, .T. ) ;
#403 = CARTESIAN_POINT ( 'NONE',  ( 63.50000000000001421, 57.49999999999999289, -20.00000000000000000 ) ) ;
#404 = SHAPE_DEFINITION_REPRESENTATION ( #309, #185 ) ;
#405 = AXIS2_PLACEMENT_3D ( 'NONE', #296, #204, #193 ) ;
#406 = LINE ( 'NONE', #129, #26 ) ;
#407 = DIRECTION ( 'NONE',  ( -1.000000000000000000, 0.000000000000000000, 0.000000000000000000 ) ) ;
#408 = VERTEX_POINT ( 'NONE', #12 ) ;
#409 = CARTESIAN_POINT ( 'NONE',  ( -57.50000000000000711, 8.999999999999973355, 20.00000000000000000 ) ) ;
#410 = ORIENTED_EDGE ( 'NONE', *, *, #320, .T. ) ;
#411 = AXIS2_PLACEMENT_3D ( 'NONE', #37, #336, #262 ) ;
#412 = CALENDAR_DATE ( 2026, 9, 1 ) ;
#413 = DIRECTION ( 'NONE',  ( -0.000000000000000000, -0.000000000000000000, -1.000000000000000000 ) ) ;
#414 = CARTESIAN_POINT ( 'NONE',  ( 63.50000000000001421, 57.49999999999999289, 20.00000000000000000 ) ) ;
#415 = CARTESIAN_POINT ( 'NONE',  ( -63.50000000000001421, 8.999999999999973355, 20.00000000000000000 ) ) ;
#416 = ORIENTED_EDGE ( 'NONE', *, *, #48, .T. ) ;
#417 = DIRECTION ( 'NONE',  ( -0.000000000000000000, -0.000000000000000000, -1.000000000000000000 ) ) ;
#418 = ORIENTED_EDGE ( 'NONE', *, *, #7, .F. ) ;
#419 = DATE_AND_TIME ( #351, #21 ) ;
#420 = ORIENTED_EDGE ( 'NONE', *, *, #402, .T. ) ;
#421 = CARTESIAN_POINT ( 'NONE',  ( -57.50000000000000711, 57.49999999999998579, 20.00000000000000000 ) ) ;
#422 = PLANE ( 'NONE',  #126 ) ;
#423 = PRODUCT_DEFINITION_FORMATION_WITH_SPECIFIED_SOURCE ( 'ANY', '', #224, .NOT_KNOWN. ) ;
#424 = LINE ( 'NONE', #254, #268 ) ;
#425 = DIRECTION ( 'NONE',  ( 1.000000000000000000, 0.000000000000000000, -0.000000000000000000 ) ) ;
#426 = ADVANCED_FACE ( 'NONE', ( #275 ), #349, .T. ) ;
#427 = DIRECTION ( 'NONE',  ( 1.000000000000000000, 0.000000000000000000, 0.000000000000000000 ) ) ;
#428 = APPROVAL ( #242, 'UNSPECIFIED' ) ;
#429 = DIRECTION ( 'NONE',  ( 1.000000000000000000, 0.000000000000000000, 0.000000000000000000 ) ) ;
#430 = EDGE_CURVE ( 'NONE', #345, #235, #272, .T. ) ;
#431 = ORIENTED_EDGE ( 'NONE', *, *, #74, .F. ) ;
#432 = CARTESIAN_POINT ( 'NONE',  ( -57.50000000000000711, 8.999999999999973355, 20.00000000000000000 ) ) ;
#433 = ORIENTED_EDGE ( 'NONE', *, *, #320, .F. ) ;
ENDSEC;
END-ISO-10303-21;
