ISO-10303-21;
HEADER;
FILE_DESCRIPTION (( 'STEP AP203' ),
    '1' );
FILE_NAME ('4229-50-10-35_REV_.step',
    '2026-01-09T02:49:45',
    ( '' ),
    ( '' ),
    'SwSTEP 2.0',
    'SolidWorks 2025',
    '' );
FILE_SCHEMA (( 'CONFIG_CONTROL_DESIGN' ));
ENDSEC;

DATA;
#1 = ORIENTED_EDGE ( 'NONE', *, *, #152, .T. ) ;
#2 = FACE_OUTER_BOUND ( 'NONE', #399, .T. ) ;
#3 = DIRECTION ( 'NONE',  ( -1.000000000000000000, 0.000000000000000000, 0.000000000000000000 ) ) ;
#4 = CC_DESIGN_PERSON_AND_ORGANIZATION_ASSIGNMENT ( #113, #150, ( #363 ) ) ;
#5 = COORDINATED_UNIVERSAL_TIME_OFFSET ( 10, 0, .AHEAD. ) ;
#6 = AXIS2_PLACEMENT_3D ( 'NONE', #260, #36, #93 ) ;
#7 = ORIENTED_EDGE ( 'NONE', *, *, #327, .T. ) ;
#8 = DIRECTION ( 'NONE',  ( -0.000000000000000000, 0.000000000000000000, -1.000000000000000000 ) ) ;
#9 = CARTESIAN_POINT ( 'NONE',  ( -44.50000000000000000, 8.999999999999984013, -20.00000000000000000 ) ) ;
#10 = CARTESIAN_POINT ( 'NONE',  ( 0.000000000000000000, 44.50000000000000000, 20.00000000000000000 ) ) ;
#11 = DATE_AND_TIME ( #306, #95 ) ;
#12 = VECTOR ( 'NONE', #179, 1000.000000000000000 ) ;
#13 = EDGE_CURVE ( 'NONE', #352, #231, #117, .T. ) ;
#14 = DIRECTION ( 'NONE',  ( -1.000000000000000000, -0.000000000000000000, 0.000000000000000000 ) ) ;
#15 = DIRECTION ( 'NONE',  ( 0.000000000000000000, 1.000000000000000000, 0.000000000000000000 ) ) ;
#16 = SECURITY_CLASSIFICATION_LEVEL ( 'unclassified' ) ;
#17 = ORIENTED_EDGE ( 'NONE', *, *, #58, .F. ) ;
#18 = PERSON_AND_ORGANIZATION_ROLE ( 'classification_officer' ) ;
#19 = VECTOR ( 'NONE', #401, 1000.000000000000000 ) ;
#20 = CALENDAR_DATE ( 2026, 9, 1 ) ;
#21 = ADVANCED_FACE ( 'NONE', ( #334 ), #208, .F. ) ;
#22 = ORIENTED_EDGE ( 'NONE', *, *, #205, .T. ) ;
#23 = ORIENTED_EDGE ( 'NONE', *, *, #343, .T. ) ;
#24 = ADVANCED_FACE ( 'NONE', ( #276 ), #105, .F. ) ;
#25 = VECTOR ( 'NONE', #124, 1000.000000000000000 ) ;
#26 = CARTESIAN_POINT ( 'NONE',  ( 44.50000000000000000, 44.50000000000000711, -20.00000000000000000 ) ) ;
#27 = ORIENTED_EDGE ( 'NONE', *, *, #343, .F. ) ;
#28 = FACE_OUTER_BOUND ( 'NONE', #97, .T. ) ;
#29 = EDGE_LOOP ( 'NONE', ( #388, #123, #261, #22 ) ) ;
#30 = PRODUCT_RELATED_PRODUCT_CATEGORY ( 'detail', '', ( #347 ) ) ;
#31 = CARTESIAN_POINT ( 'NONE',  ( 50.49999999999999289, 44.50000000000000000, -20.00000000000000000 ) ) ;
#32 = VERTEX_POINT ( 'NONE', #241 ) ;
#33 = DIRECTION ( 'NONE',  ( -0.000000000000000000, -1.000000000000000000, 0.000000000000000000 ) ) ;
#34 = LOCAL_TIME ( 13, 49, 45.00000000000000000, #5 ) ;
#35 = VERTEX_POINT ( 'NONE', #298 ) ;
#36 = DIRECTION ( 'NONE',  ( -0.000000000000000000, 0.000000000000000000, -1.000000000000000000 ) ) ;
#37 = CARTESIAN_POINT ( 'NONE',  ( 0.000000000000000000, 44.50000000000000000, -20.00000000000000000 ) ) ;
#38 = LINE ( 'NONE', #63, #294 ) ;
#39 = DIRECTION ( 'NONE',  ( 1.000000000000000000, 0.000000000000000000, 0.000000000000000000 ) ) ;
#40 = CARTESIAN_POINT ( 'NONE',  ( -50.49999999999999289, 8.999999999999984013, 20.00000000000000000 ) ) ;
#41 = AXIS2_PLACEMENT_3D ( 'NONE', #10, #273, #173 ) ;
#42 = APPROVAL_PERSON_ORGANIZATION ( #410, #125, #80 ) ;
#43 = ORIENTED_EDGE ( 'NONE', *, *, #136, .T. ) ;
#44 = CARTESIAN_POINT ( 'NONE',  ( 0.000000000000000000, 44.50000000000000000, -20.00000000000000000 ) ) ;
#45 = EDGE_CURVE ( 'NONE', #64, #194, #311, .T. ) ;
#46 = COORDINATED_UNIVERSAL_TIME_OFFSET ( 10, 0, .AHEAD. ) ;
#47 = EDGE_CURVE ( 'NONE', #424, #64, #178, .T. ) ;
#48 = LINE ( 'NONE', #280, #215 ) ;
#49 =( NAMED_UNIT ( * ) PLANE_ANGLE_UNIT ( ) SI_UNIT ( $, .RADIAN. ) );
#50 = VECTOR ( 'NONE', #364, 1000.000000000000000 ) ;
#51 = ORIENTED_EDGE ( 'NONE', *, *, #149, .T. ) ;
#52 = PRODUCT_DEFINITION_SHAPE ( 'NONE', 'NONE',  #153 ) ;
#53 = CARTESIAN_POINT ( 'NONE',  ( -44.50000000000000000, 8.999999999999984013, 20.00000000000000000 ) ) ;
#54 = APPROVAL_STATUS ( 'not_yet_approved' ) ;
#55 = PERSON ( 'UNSPECIFIED', 'UNSPECIFIED', 'UNSPECIFIED', ('UNSPECIFIED'), ('UNSPECIFIED'), ('UNSPECIFIED') ) ;
#56 = CC_DESIGN_PERSON_AND_ORGANIZATION_ASSIGNMENT ( #168, #368, ( #153 ) ) ;
#57 = EDGE_LOOP ( 'NONE', ( #143, #223, #266, #23 ) ) ;
#58 = EDGE_CURVE ( 'NONE', #358, #318, #303, .T. ) ;
#59 = VERTEX_POINT ( 'NONE', #307 ) ;
#60 = VECTOR ( 'NONE', #128, 1000.000000000000000 ) ;
#61 = LINE ( 'NONE', #389, #171 ) ;
#62 = ORIENTED_EDGE ( 'NONE', *, *, #165, .F. ) ;
#63 = CARTESIAN_POINT ( 'NONE',  ( -44.50000000000000000, 44.50000000000000000, 20.00000000000000000 ) ) ;
#64 = VERTEX_POINT ( 'NONE', #274 ) ;
#65 = PLANE ( 'NONE',  #6 ) ;
#66 = ORIENTED_EDGE ( 'NONE', *, *, #195, .T. ) ;
#67 = LINE ( 'NONE', #287, #430 ) ;
#68 = DIRECTION ( 'NONE',  ( -0.000000000000000000, -0.000000000000000000, -1.000000000000000000 ) ) ;
#69 = DIRECTION ( 'NONE',  ( 0.000000000000000000, 0.000000000000000000, 1.000000000000000000 ) ) ;
#70 = FACE_OUTER_BOUND ( 'NONE', #259, .T. ) ;
#71 =( NAMED_UNIT ( * ) SI_UNIT ( $, .STERADIAN. ) SOLID_ANGLE_UNIT ( ) );
#72 = VERTEX_POINT ( 'NONE', #135 ) ;
#73 = PERSON_AND_ORGANIZATION ( #55, #302 ) ;
#74 = CLOSED_SHELL ( 'NONE', ( #403, #98, #322, #267, #24, #397, #405, #315, #431, #337, #90, #21, #185, #371 ) ) ;
#75 = VECTOR ( 'NONE', #414, 1000.000000000000000 ) ;
#76 = CARTESIAN_POINT ( 'NONE',  ( 50.49999999999999289, 44.50000000000000711, 20.00000000000000000 ) ) ;
#77 = EDGE_CURVE ( 'NONE', #263, #72, #366, .T. ) ;
#78 = APPLICATION_PROTOCOL_DEFINITION ( 'international standard', 'config_control_design', 1994, #288 ) ;
#79 = CARTESIAN_POINT ( 'NONE',  ( 50.49999999999999289, 44.50000000000000000, 20.00000000000000000 ) ) ;
#80 = APPROVAL_ROLE ( '' ) ;
#81 = VECTOR ( 'NONE', #222, 1000.000000000000000 ) ;
#82 = ORIENTED_EDGE ( 'NONE', *, *, #362, .T. ) ;
#83 = DIRECTION ( 'NONE',  ( -0.000000000000000000, -0.000000000000000000, -1.000000000000000000 ) ) ;
#84 = EDGE_CURVE ( 'NONE', #194, #271, #107, .T. ) ;
#85 = DATE_AND_TIME ( #20, #333 ) ;
#86 = VECTOR ( 'NONE', #181, 1000.000000000000000 ) ;
#87 = VECTOR ( 'NONE', #106, 1000.000000000000000 ) ;
#88 = EDGE_CURVE ( 'NONE', #353, #271, #112, .T. ) ;
#89 = DIRECTION ( 'NONE',  ( -1.000000000000000000, 0.000000000000000000, 0.000000000000000000 ) ) ;
#90 = ADVANCED_FACE ( 'NONE', ( #70 ), #395, .F. ) ;
#91 = ORIENTED_EDGE ( 'NONE', *, *, #188, .T. ) ;
#92 = ORIENTED_EDGE ( 'NONE', *, *, #220, .F. ) ;
#93 = DIRECTION ( 'NONE',  ( -1.000000000000000000, 0.000000000000000000, 0.000000000000000000 ) ) ;
#94 = ORIENTED_EDGE ( 'NONE', *, *, #58, .T. ) ;
#95 = LOCAL_TIME ( 13, 49, 45.00000000000000000, #46 ) ;
#96 = PLANE ( 'NONE',  #325 ) ;
#97 = EDGE_LOOP ( 'NONE', ( #154, #92, #91, #356 ) ) ;
#98 = ADVANCED_FACE ( 'NONE', ( #369 ), #330, .T. ) ;
#99 = CARTESIAN_POINT ( 'NONE',  ( -50.49999999999999289, 8.999999999999984013, 20.00000000000000000 ) ) ;
#100 = VERTEX_POINT ( 'NONE', #176 ) ;
#101 = FACE_OUTER_BOUND ( 'NONE', #314, .T. ) ;
#102 = DIRECTION ( 'NONE',  ( 0.000000000000000000, 0.000000000000000000, 1.000000000000000000 ) ) ;
#103 = CC_DESIGN_PERSON_AND_ORGANIZATION_ASSIGNMENT ( #142, #402, ( #347 ) ) ;
#104 = FACE_OUTER_BOUND ( 'NONE', #29, .T. ) ;
#105 = PLANE ( 'NONE',  #227 ) ;
#106 = DIRECTION ( 'NONE',  ( 1.000000000000000000, 0.000000000000000000, 0.000000000000000000 ) ) ;
#107 = LINE ( 'NONE', #406, #421 ) ;
#108 = CALENDAR_DATE ( 2026, 9, 1 ) ;
#109 = DIRECTION ( 'NONE',  ( 0.000000000000000000, -1.000000000000000000, 0.000000000000000000 ) ) ;
#110 = DATE_TIME_ROLE ( 'creation_date' ) ;
#111 = VECTOR ( 'NONE', #359, 1000.000000000000000 ) ;
#112 = LINE ( 'NONE', #245, #238 ) ;
#113 = PERSON_AND_ORGANIZATION ( #55, #302 ) ;
#114 = CC_DESIGN_DATE_AND_TIME_ASSIGNMENT ( #418, #119, ( #407 ) ) ;
#115 = DIRECTION ( 'NONE',  ( -0.000000000000000000, -0.000000000000000000, -1.000000000000000000 ) ) ;
#116 = LINE ( 'NONE', #122, #75 ) ;
#117 = CIRCLE ( 'NONE', #170, 50.49999999999999289 ) ;
#118 = LOCAL_TIME ( 13, 49, 45.00000000000000000, #209 ) ;
#119 = DATE_TIME_ROLE ( 'classification_date' ) ;
#120 = CARTESIAN_POINT ( 'NONE',  ( 0.000000000000000000, 44.50000000000000000, 20.00000000000000000 ) ) ;
#121 = VECTOR ( 'NONE', #429, 1000.000000000000000 ) ;
#122 = CARTESIAN_POINT ( 'NONE',  ( 50.49999999999999289, 8.999999999999980460, 20.00000000000000000 ) ) ;
#123 = ORIENTED_EDGE ( 'NONE', *, *, #175, .F. ) ;
#124 = DIRECTION ( 'NONE',  ( -0.000000000000000000, -0.000000000000000000, -1.000000000000000000 ) ) ;
#125 = APPROVAL ( #376, 'UNSPECIFIED' ) ;
#126 = DIRECTION ( 'NONE',  ( -0.000000000000000000, -0.000000000000000000, -1.000000000000000000 ) ) ;
#127 = EDGE_LOOP ( 'NONE', ( #140, #385, #291, #192 ) ) ;
#128 = DIRECTION ( 'NONE',  ( -0.000000000000000000, -0.000000000000000000, -1.000000000000000000 ) ) ;
#129 = ORIENTED_EDGE ( 'NONE', *, *, #413, .F. ) ;
#130 = AXIS2_PLACEMENT_3D ( 'NONE', #44, #301, #328 ) ;
#131 = AXIS2_PLACEMENT_3D ( 'NONE', #163, #134, #394 ) ;
#132 = LINE ( 'NONE', #232, #111 ) ;
#133 = ORIENTED_EDGE ( 'NONE', *, *, #346, .T. ) ;
#134 = DIRECTION ( 'NONE',  ( 0.000000000000000000, 0.000000000000000000, 1.000000000000000000 ) ) ;
#135 = CARTESIAN_POINT ( 'NONE',  ( 44.50000000000000000, 44.50000000000000711, 20.00000000000000000 ) ) ;
#136 = EDGE_CURVE ( 'NONE', #352, #64, #305, .T. ) ;
#137 = PLANE ( 'NONE',  #246 ) ;
#138 = EDGE_LOOP ( 'NONE', ( #133, #43, #293, #426 ) ) ;
#139 = DIRECTION ( 'NONE',  ( 0.000000000000000000, 0.000000000000000000, 1.000000000000000000 ) ) ;
#140 = ORIENTED_EDGE ( 'NONE', *, *, #236, .F. ) ;
#141 = ORIENTED_EDGE ( 'NONE', *, *, #182, .F. ) ;
#142 = PERSON_AND_ORGANIZATION ( #55, #302 ) ;
#143 = ORIENTED_EDGE ( 'NONE', *, *, #45, .T. ) ;
#144 = EDGE_CURVE ( 'NONE', #263, #35, #237, .T. ) ;
#145 = APPROVAL_DATE_TIME ( #11, #218 ) ;
#146 = AXIS2_PLACEMENT_3D ( 'NONE', #423, #126, #433 ) ;
#147 = LINE ( 'NONE', #286, #25 ) ;
#148 = ORIENTED_EDGE ( 'NONE', *, *, #136, .F. ) ;
#149 = EDGE_CURVE ( 'NONE', #59, #271, #48, .T. ) ;
#150 = PERSON_AND_ORGANIZATION_ROLE ( 'design_supplier' ) ;
#151 = CC_DESIGN_SECURITY_CLASSIFICATION ( #407, ( #363 ) ) ;
#152 = EDGE_CURVE ( 'NONE', #228, #424, #384, .T. ) ;
#153 = PRODUCT_DEFINITION ( 'UNKNOWN', '', #363, #299 ) ;
#154 = ORIENTED_EDGE ( 'NONE', *, *, #13, .F. ) ;
#155 = ORIENTED_EDGE ( 'NONE', *, *, #144, .F. ) ;
#156 = AXIS2_PLACEMENT_3D ( 'NONE', #275, #336, #8 ) ;
#157 = EDGE_LOOP ( 'NONE', ( #159, #378, #7, #320 ) ) ;
#158 = LINE ( 'NONE', #290, #121 ) ;
#159 = ORIENTED_EDGE ( 'NONE', *, *, #84, .F. ) ;
#160 = PLANE ( 'NONE',  #253 ) ;
#161 = ORIENTED_EDGE ( 'NONE', *, *, #409, .F. ) ;
#162 = APPROVAL_PERSON_ORGANIZATION ( #73, #218, #304 ) ;
#163 = CARTESIAN_POINT ( 'NONE',  ( 0.000000000000000000, 44.50000000000000000, -20.00000000000000000 ) ) ;
#164 = EDGE_LOOP ( 'NONE', ( #186, #360, #62, #82 ) ) ;
#165 = EDGE_CURVE ( 'NONE', #72, #59, #224, .T. ) ;
#166 = FACE_OUTER_BOUND ( 'NONE', #127, .T. ) ;
#167 = CARTESIAN_POINT ( 'NONE',  ( 44.50000000000000000, 44.50000000000000000, 20.00000000000000000 ) ) ;
#168 = PERSON_AND_ORGANIZATION ( #55, #302 ) ;
#169 = DIRECTION ( 'NONE',  ( -0.000000000000000000, 0.000000000000000000, -1.000000000000000000 ) ) ;
#170 = AXIS2_PLACEMENT_3D ( 'NONE', #37, #68, #39 ) ;
#171 = VECTOR ( 'NONE', #387, 1000.000000000000000 ) ;
#172 = LINE ( 'NONE', #207, #87 ) ;
#173 = DIRECTION ( 'NONE',  ( -1.000000000000000000, 0.000000000000000000, 0.000000000000000000 ) ) ;
#174 = LINE ( 'NONE', #331, #12 ) ;
#175 = EDGE_CURVE ( 'NONE', #263, #231, #147, .T. ) ;
#176 = CARTESIAN_POINT ( 'NONE',  ( -50.49999999999999289, 8.999999999999984013, -20.00000000000000000 ) ) ;
#177 = DATE_AND_TIME ( #108, #118 ) ;
#178 = LINE ( 'NONE', #9, #428 ) ;
#179 = DIRECTION ( 'NONE',  ( -0.000000000000000000, -0.000000000000000000, -1.000000000000000000 ) ) ;
#180 = VECTOR ( 'NONE', #3, 1000.000000000000000 ) ;
#181 = DIRECTION ( 'NONE',  ( 0.000000000000000000, -1.000000000000000000, 0.000000000000000000 ) ) ;
#182 = EDGE_CURVE ( 'NONE', #228, #32, #386, .T. ) ;
#183 = COORDINATED_UNIVERSAL_TIME_OFFSET ( 10, 0, .AHEAD. ) ;
#184 = CARTESIAN_POINT ( 'NONE',  ( 50.49999999999999289, 44.50000000000000711, -20.00000000000000000 ) ) ;
#185 = ADVANCED_FACE ( 'NONE', ( #252 ), #377, .T. ) ;
#186 = ORIENTED_EDGE ( 'NONE', *, *, #84, .T. ) ;
#187 = DIRECTION ( 'NONE',  ( -0.000000000000000000, -0.000000000000000000, -1.000000000000000000 ) ) ;
#188 = EDGE_CURVE ( 'NONE', #318, #263, #381, .T. ) ;
#189 = ORIENTED_EDGE ( 'NONE', *, *, #77, .T. ) ;
#190 =( GEOMETRIC_REPRESENTATION_CONTEXT ( 3 ) GLOBAL_UNCERTAINTY_ASSIGNED_CONTEXT ( ( #335 ) ) GLOBAL_UNIT_ASSIGNED_CONTEXT ( ( #211, #49, #71 ) ) REPRESENTATION_CONTEXT ( 'NONE', 'WORKASPACE' ) );
#191 = DIRECTION ( 'NONE',  ( -1.000000000000000000, 1.156482317317871725E-15, 0.000000000000000000 ) ) ;
#192 = ORIENTED_EDGE ( 'NONE', *, *, #409, .T. ) ;
#193 = CYLINDRICAL_SURFACE ( 'NONE', #146, 50.49999999999999289 ) ;
#194 = VERTEX_POINT ( 'NONE', #26 ) ;
#195 = EDGE_CURVE ( 'NONE', #32, #72, #284, .T. ) ;
#196 = CC_DESIGN_PERSON_AND_ORGANIZATION_ASSIGNMENT ( #279, #408, ( #363 ) ) ;
#197 = FACE_OUTER_BOUND ( 'NONE', #138, .T. ) ;
#198 = ORIENTED_EDGE ( 'NONE', *, *, #182, .T. ) ;
#199 = AXIS2_PLACEMENT_3D ( 'NONE', #120, #382, #89 ) ;
#200 = CARTESIAN_POINT ( 'NONE',  ( 50.49999999999999289, 8.999999999999980460, 20.00000000000000000 ) ) ;
#201 = DIRECTION ( 'NONE',  ( 1.000000000000000000, 0.000000000000000000, -0.000000000000000000 ) ) ;
#202 = DIRECTION ( 'NONE',  ( -0.000000000000000000, 0.000000000000000000, -1.000000000000000000 ) ) ;
#203 = CARTESIAN_POINT ( 'NONE',  ( -44.50000000000000000, 8.999999999999984013, 20.00000000000000000 ) ) ;
#204 = CC_DESIGN_PERSON_AND_ORGANIZATION_ASSIGNMENT ( #419, #18, ( #407 ) ) ;
#205 = EDGE_CURVE ( 'NONE', #35, #353, #116, .T. ) ;
#206 = CC_DESIGN_APPROVAL ( #218, ( #363 ) ) ;
#207 = CARTESIAN_POINT ( 'NONE',  ( 44.50000000000000000, 44.50000000000000711, -20.00000000000000000 ) ) ;
#208 = CYLINDRICAL_SURFACE ( 'NONE', #41, 44.50000000000000000 ) ;
#209 = COORDINATED_UNIVERSAL_TIME_OFFSET ( 10, 0, .AHEAD. ) ;
#210 = CARTESIAN_POINT ( 'NONE',  ( -50.49999999999999289, 8.999999999999984013, 20.00000000000000000 ) ) ;
#211 =( LENGTH_UNIT ( ) NAMED_UNIT ( * ) SI_UNIT ( .MILLI., .METRE. ) );
#212 = EDGE_CURVE ( 'NONE', #228, #358, #379, .T. ) ;
#213 = EDGE_LOOP ( 'NONE', ( #296, #161, #94, #351 ) ) ;
#214 = APPLICATION_PROTOCOL_DEFINITION ( 'international standard', 'config_control_design', 1994, #427 ) ;
#215 = VECTOR ( 'NONE', #115, 1000.000000000000000 ) ;
#216 = CARTESIAN_POINT ( 'NONE',  ( 0.000000000000000000, 44.50000000000000000, 20.00000000000000000 ) ) ;
#217 = CARTESIAN_POINT ( 'NONE',  ( -44.50000000000000000, 8.999999999999984013, 20.00000000000000000 ) ) ;
#218 = APPROVAL ( #372, 'UNSPECIFIED' ) ;
#219 = APPROVAL_DATE_TIME ( #85, #249 ) ;
#220 = EDGE_CURVE ( 'NONE', #318, #352, #313, .T. ) ;
#221 = LOCAL_TIME ( 13, 49, 45.00000000000000000, #412 ) ;
#222 = DIRECTION ( 'NONE',  ( -1.000000000000000000, 0.000000000000000000, 0.000000000000000000 ) ) ;
#223 = ORIENTED_EDGE ( 'NONE', *, *, #362, .F. ) ;
#224 = LINE ( 'NONE', #339, #86 ) ;
#225 = ORIENTED_EDGE ( 'NONE', *, *, #308, .T. ) ;
#226 = LINE ( 'NONE', #31, #317 ) ;
#227 = AXIS2_PLACEMENT_3D ( 'NONE', #167, #201, #169 ) ;
#228 = VERTEX_POINT ( 'NONE', #217 ) ;
#229 = VECTOR ( 'NONE', #338, 1000.000000000000000 ) ;
#230 = CARTESIAN_POINT ( 'NONE',  ( 44.50000000000000000, 8.999999999999984013, -20.00000000000000000 ) ) ;
#231 = VERTEX_POINT ( 'NONE', #184 ) ;
#232 = CARTESIAN_POINT ( 'NONE',  ( 44.50000000000000000, 44.50000000000000711, 20.00000000000000000 ) ) ;
#233 = EDGE_LOOP ( 'NONE', ( #129, #393, #148, #254 ) ) ;
#234 = MANIFOLD_SOLID_BREP ( 'Base-Flange1', #74 ) ;
#235 = CARTESIAN_POINT ( 'NONE',  ( -44.50000000000000000, 44.50000000000000000, 20.00000000000000000 ) ) ;
#236 = EDGE_CURVE ( 'NONE', #424, #100, #61, .T. ) ;
#237 = LINE ( 'NONE', #79, #229 ) ;
#238 = VECTOR ( 'NONE', #243, 1000.000000000000000 ) ;
#239 = PLANE ( 'NONE',  #156 ) ;
#240 = CC_DESIGN_DATE_AND_TIME_ASSIGNMENT ( #242, #110, ( #153 ) ) ;
#241 = CARTESIAN_POINT ( 'NONE',  ( -44.50000000000000000, 44.50000000000000000, 20.00000000000000000 ) ) ;
#242 = DATE_AND_TIME ( #400, #34 ) ;
#243 = DIRECTION ( 'NONE',  ( -1.000000000000000000, 5.782411586589358625E-16, 0.000000000000000000 ) ) ;
#244 = MECHANICAL_CONTEXT ( 'NONE', #427, 'mechanical' ) ;
#245 = CARTESIAN_POINT ( 'NONE',  ( 50.49999999999999289, 8.999999999999980460, -20.00000000000000000 ) ) ;
#246 = AXIS2_PLACEMENT_3D ( 'NONE', #270, #69, #396 ) ;
#247 = PLANE ( 'NONE',  #390 ) ;
#248 = CARTESIAN_POINT ( 'NONE',  ( -50.49999999999999289, 44.50000000000000711, -20.00000000000000000 ) ) ;
#249 = APPROVAL ( #54, 'UNSPECIFIED' ) ;
#250 = CARTESIAN_POINT ( 'NONE',  ( -44.50000000000000000, 8.999999999999984013, -20.00000000000000000 ) ) ;
#251 = DIRECTION ( 'NONE',  ( 0.000000000000000000, 0.000000000000000000, 1.000000000000000000 ) ) ;
#252 = FACE_OUTER_BOUND ( 'NONE', #411, .T. ) ;
#253 = AXIS2_PLACEMENT_3D ( 'NONE', #354, #319, #292 ) ;
#254 = ORIENTED_EDGE ( 'NONE', *, *, #13, .T. ) ;
#255 = APPROVAL_ROLE ( '' ) ;
#256 = CC_DESIGN_APPROVAL ( #249, ( #407 ) ) ;
#257 = ORIENTED_EDGE ( 'NONE', *, *, #212, .F. ) ;
#258 = PERSON_AND_ORGANIZATION ( #55, #302 ) ;
#259 = EDGE_LOOP ( 'NONE', ( #391, #27, #141, #1 ) ) ;
#260 = CARTESIAN_POINT ( 'NONE',  ( 44.50000000000000000, 44.50000000000000711, -20.00000000000000000 ) ) ;
#261 = ORIENTED_EDGE ( 'NONE', *, *, #144, .T. ) ;
#262 = CARTESIAN_POINT ( 'NONE',  ( 50.49999999999999289, 8.999999999999980460, -20.00000000000000000 ) ) ;
#263 = VERTEX_POINT ( 'NONE', #297 ) ;
#264 = VECTOR ( 'NONE', #415, 1000.000000000000000 ) ;
#265 = FACE_OUTER_BOUND ( 'NONE', #157, .T. ) ;
#266 = ORIENTED_EDGE ( 'NONE', *, *, #195, .F. ) ;
#267 = ADVANCED_FACE ( 'NONE', ( #265 ), #96, .T. ) ;
#268 = FACE_OUTER_BOUND ( 'NONE', #233, .T. ) ;
#269 = DIRECTION ( 'NONE',  ( 0.000000000000000000, 0.000000000000000000, 1.000000000000000000 ) ) ;
#270 = CARTESIAN_POINT ( 'NONE',  ( -44.50000000000000000, 44.50000000000000000, 20.00000000000000000 ) ) ;
#271 = VERTEX_POINT ( 'NONE', #230 ) ;
#272 = VECTOR ( 'NONE', #15, 1000.000000000000000 ) ;
#273 = DIRECTION ( 'NONE',  ( -0.000000000000000000, -0.000000000000000000, -1.000000000000000000 ) ) ;
#274 = CARTESIAN_POINT ( 'NONE',  ( -44.50000000000000000, 44.50000000000000000, -20.00000000000000000 ) ) ;
#275 = CARTESIAN_POINT ( 'NONE',  ( 50.49999999999999289, 44.50000000000000000, 20.00000000000000000 ) ) ;
#276 = FACE_OUTER_BOUND ( 'NONE', #164, .T. ) ;
#277 = AXIS2_PLACEMENT_3D ( 'NONE', #203, #367, #269 ) ;
#278 = APPROVAL_PERSON_ORGANIZATION ( #258, #249, #255 ) ;
#279 = PERSON_AND_ORGANIZATION ( #55, #302 ) ;
#280 = CARTESIAN_POINT ( 'NONE',  ( 44.50000000000000000, 8.999999999999984013, 20.00000000000000000 ) ) ;
#281 = AXIS2_PLACEMENT_3D ( 'NONE', #216, #344, #420 ) ;
#282 = EDGE_CURVE ( 'NONE', #32, #318, #38, .T. ) ;
#283 = CARTESIAN_POINT ( 'NONE',  ( -50.49999999999999289, 44.50000000000000711, 20.00000000000000000 ) ) ;
#284 = CIRCLE ( 'NONE', #199, 44.50000000000000000 ) ;
#285 = EDGE_LOOP ( 'NONE', ( #198, #345, #17, #257 ) ) ;
#286 = CARTESIAN_POINT ( 'NONE',  ( 50.49999999999999289, 44.50000000000000711, 20.00000000000000000 ) ) ;
#287 = CARTESIAN_POINT ( 'NONE',  ( 50.49999999999999289, 8.999999999999980460, 20.00000000000000000 ) ) ;
#288 = APPLICATION_CONTEXT ( 'configuration controlled 3d designs of mechanical parts and assemblies' ) ;
#289 = ORIENTED_EDGE ( 'NONE', *, *, #88, .F. ) ;
#290 = CARTESIAN_POINT ( 'NONE',  ( -50.49999999999999289, 8.999999999999984013, -20.00000000000000000 ) ) ;
#291 = ORIENTED_EDGE ( 'NONE', *, *, #212, .T. ) ;
#292 = DIRECTION ( 'NONE',  ( 0.000000000000000000, -0.000000000000000000, -1.000000000000000000 ) ) ;
#293 = ORIENTED_EDGE ( 'NONE', *, *, #47, .F. ) ;
#294 = VECTOR ( 'NONE', #191, 1000.000000000000000 ) ;
#295 = DIRECTION ( 'NONE',  ( -1.000000000000000000, 0.000000000000000000, 0.000000000000000000 ) ) ;
#296 = ORIENTED_EDGE ( 'NONE', *, *, #346, .F. ) ;
#297 = CARTESIAN_POINT ( 'NONE',  ( 50.49999999999999289, 44.50000000000000711, 20.00000000000000000 ) ) ;
#298 = CARTESIAN_POINT ( 'NONE',  ( 50.49999999999999289, 8.999999999999980460, 20.00000000000000000 ) ) ;
#299 = DESIGN_CONTEXT ( 'detailed design', #288, 'design' ) ;
#300 = APPROVAL_DATE_TIME ( #177, #125 ) ;
#301 = DIRECTION ( 'NONE',  ( -0.000000000000000000, -0.000000000000000000, -1.000000000000000000 ) ) ;
#302 = ORGANIZATION ( 'UNSPECIFIED', 'UNSPECIFIED', '' ) ;
#303 = LINE ( 'NONE', #210, #19 ) ;
#304 = APPROVAL_ROLE ( '' ) ;
#305 = LINE ( 'NONE', #248, #50 ) ;
#306 = CALENDAR_DATE ( 2026, 9, 1 ) ;
#307 = CARTESIAN_POINT ( 'NONE',  ( 44.50000000000000000, 8.999999999999984013, 20.00000000000000000 ) ) ;
#308 = EDGE_CURVE ( 'NONE', #35, #59, #67, .T. ) ;
#309 = CARTESIAN_POINT ( 'NONE',  ( 0.000000000000000000, 0.000000000000000000, 0.000000000000000000 ) ) ;
#310 = CARTESIAN_POINT ( 'NONE',  ( -44.50000000000000000, 8.999999999999984013, 20.00000000000000000 ) ) ;
#311 = CIRCLE ( 'NONE', #130, 44.50000000000000000 ) ;
#312 = AXIS2_PLACEMENT_3D ( 'NONE', #350, #187, #316 ) ;
#313 = LINE ( 'NONE', #283, #398 ) ;
#314 = EDGE_LOOP ( 'NONE', ( #289, #432, #225, #51 ) ) ;
#315 = ADVANCED_FACE ( 'NONE', ( #28 ), #193, .T. ) ;
#316 = DIRECTION ( 'NONE',  ( 1.000000000000000000, 0.000000000000000000, 0.000000000000000000 ) ) ;
#317 = VECTOR ( 'NONE', #33, 1000.000000000000000 ) ;
#318 = VERTEX_POINT ( 'NONE', #321 ) ;
#319 = DIRECTION ( 'NONE',  ( 0.000000000000000000, -1.000000000000000000, 0.000000000000000000 ) ) ;
#320 = ORIENTED_EDGE ( 'NONE', *, *, #88, .T. ) ;
#321 = CARTESIAN_POINT ( 'NONE',  ( -50.49999999999999289, 44.50000000000000711, 20.00000000000000000 ) ) ;
#322 = ADVANCED_FACE ( 'NONE', ( #268 ), #65, .T. ) ;
#323 = ORIENTED_EDGE ( 'NONE', *, *, #188, .F. ) ;
#324 = PLANE ( 'NONE',  #131 ) ;
#325 = AXIS2_PLACEMENT_3D ( 'NONE', #329, #202, #295 ) ;
#326 = DIRECTION ( 'NONE',  ( 1.000000000000000000, -5.782411586589358625E-16, 0.000000000000000000 ) ) ;
#327 = EDGE_CURVE ( 'NONE', #231, #353, #226, .T. ) ;
#328 = DIRECTION ( 'NONE',  ( -1.000000000000000000, 0.000000000000000000, 0.000000000000000000 ) ) ;
#329 = CARTESIAN_POINT ( 'NONE',  ( -50.49999999999999289, 44.50000000000000711, -20.00000000000000000 ) ) ;
#330 = PLANE ( 'NONE',  #355 ) ;
#331 = CARTESIAN_POINT ( 'NONE',  ( -50.49999999999999289, 8.999999999999984013, 20.00000000000000000 ) ) ;
#332 = DIRECTION ( 'NONE',  ( 0.000000000000000000, 1.000000000000000000, 0.000000000000000000 ) ) ;
#333 = LOCAL_TIME ( 13, 49, 45.00000000000000000, #183 ) ;
#334 = FACE_OUTER_BOUND ( 'NONE', #57, .T. ) ;
#335 = UNCERTAINTY_MEASURE_WITH_UNIT (LENGTH_MEASURE( 1.000000000000000082E-05 ), #211, 'distance_accuracy_value', 'NONE');
#336 = DIRECTION ( 'NONE',  ( 1.000000000000000000, 0.000000000000000000, -0.000000000000000000 ) ) ;
#337 = ADVANCED_FACE ( 'NONE', ( #166 ), #160, .T. ) ;
#338 = DIRECTION ( 'NONE',  ( -0.000000000000000000, -1.000000000000000000, 0.000000000000000000 ) ) ;
#339 = CARTESIAN_POINT ( 'NONE',  ( 44.50000000000000000, 44.50000000000000000, 20.00000000000000000 ) ) ;
#340 = ORIENTED_EDGE ( 'NONE', *, *, #282, .F. ) ;
#341 = AXIS2_PLACEMENT_3D ( 'NONE', #200, #365, #326 ) ;
#342 = FACE_OUTER_BOUND ( 'NONE', #213, .T. ) ;
#343 = EDGE_CURVE ( 'NONE', #32, #64, #392, .T. ) ;
#344 = DIRECTION ( 'NONE',  ( 0.000000000000000000, 0.000000000000000000, 1.000000000000000000 ) ) ;
#345 = ORIENTED_EDGE ( 'NONE', *, *, #282, .T. ) ;
#346 = EDGE_CURVE ( 'NONE', #100, #352, #158, .T. ) ;
#347 = PRODUCT ( '4229-50-10-35_REV_', '4229-50-10-35_REV_', '', ( #244 ) ) ;
#348 = SHAPE_DEFINITION_REPRESENTATION ( #52, #416 ) ;
#349 = CC_DESIGN_APPROVAL ( #125, ( #153 ) ) ;
#350 = CARTESIAN_POINT ( 'NONE',  ( 0.000000000000000000, 44.50000000000000000, 20.00000000000000000 ) ) ;
#351 = ORIENTED_EDGE ( 'NONE', *, *, #220, .T. ) ;
#352 = VERTEX_POINT ( 'NONE', #425 ) ;
#353 = VERTEX_POINT ( 'NONE', #262 ) ;
#354 = CARTESIAN_POINT ( 'NONE',  ( -44.50000000000000000, 8.999999999999984013, 20.00000000000000000 ) ) ;
#355 = AXIS2_PLACEMENT_3D ( 'NONE', #76, #102, #373 ) ;
#356 = ORIENTED_EDGE ( 'NONE', *, *, #175, .T. ) ;
#357 = DIRECTION ( 'NONE',  ( -1.000000000000000000, 5.782411586589358625E-16, 0.000000000000000000 ) ) ;
#358 = VERTEX_POINT ( 'NONE', #99 ) ;
#359 = DIRECTION ( 'NONE',  ( -0.000000000000000000, -0.000000000000000000, -1.000000000000000000 ) ) ;
#360 = ORIENTED_EDGE ( 'NONE', *, *, #149, .F. ) ;
#361 = PLANE ( 'NONE',  #341 ) ;
#362 = EDGE_CURVE ( 'NONE', #72, #194, #132, .T. ) ;
#363 = PRODUCT_DEFINITION_FORMATION_WITH_SPECIFIED_SOURCE ( 'ANY', '', #347, .NOT_KNOWN. ) ;
#364 = DIRECTION ( 'NONE',  ( 1.000000000000000000, -1.156482317317871725E-15, 0.000000000000000000 ) ) ;
#365 = DIRECTION ( 'NONE',  ( -5.782411586589358625E-16, -1.000000000000000000, 0.000000000000000000 ) ) ;
#366 = LINE ( 'NONE', #404, #180 ) ;
#367 = DIRECTION ( 'NONE',  ( -1.000000000000000000, 0.000000000000000000, 0.000000000000000000 ) ) ;
#368 = PERSON_AND_ORGANIZATION_ROLE ( 'creator' ) ;
#369 = FACE_OUTER_BOUND ( 'NONE', #285, .T. ) ;
#370 = AXIS2_PLACEMENT_3D ( 'NONE', #309, #251, #374 ) ;
#371 = ADVANCED_FACE ( 'NONE', ( #197 ), #324, .F. ) ;
#372 = APPROVAL_STATUS ( 'not_yet_approved' ) ;
#373 = DIRECTION ( 'NONE',  ( 1.000000000000000000, 0.000000000000000000, -0.000000000000000000 ) ) ;
#374 = DIRECTION ( 'NONE',  ( 1.000000000000000000, 0.000000000000000000, 0.000000000000000000 ) ) ;
#375 = CARTESIAN_POINT ( 'NONE',  ( -44.50000000000000000, 8.999999999999984013, 20.00000000000000000 ) ) ;
#376 = APPROVAL_STATUS ( 'not_yet_approved' ) ;
#377 = PLANE ( 'NONE',  #281 ) ;
#378 = ORIENTED_EDGE ( 'NONE', *, *, #413, .T. ) ;
#379 = LINE ( 'NONE', #53, #81 ) ;
#380 = CALENDAR_DATE ( 2026, 9, 1 ) ;
#381 = CIRCLE ( 'NONE', #312, 50.49999999999999289 ) ;
#382 = DIRECTION ( 'NONE',  ( -0.000000000000000000, -0.000000000000000000, -1.000000000000000000 ) ) ;
#383 = ORIENTED_EDGE ( 'NONE', *, *, #308, .F. ) ;
#384 = LINE ( 'NONE', #375, #264 ) ;
#385 = ORIENTED_EDGE ( 'NONE', *, *, #152, .F. ) ;
#386 = LINE ( 'NONE', #310, #272 ) ;
#387 = DIRECTION ( 'NONE',  ( -1.000000000000000000, 0.000000000000000000, 0.000000000000000000 ) ) ;
#388 = ORIENTED_EDGE ( 'NONE', *, *, #327, .F. ) ;
#389 = CARTESIAN_POINT ( 'NONE',  ( -44.50000000000000000, 8.999999999999984013, -20.00000000000000000 ) ) ;
#390 = AXIS2_PLACEMENT_3D ( 'NONE', #40, #14, #139 ) ;
#391 = ORIENTED_EDGE ( 'NONE', *, *, #47, .T. ) ;
#392 = LINE ( 'NONE', #235, #60 ) ;
#393 = ORIENTED_EDGE ( 'NONE', *, *, #45, .F. ) ;
#394 = DIRECTION ( 'NONE',  ( 1.000000000000000000, 0.000000000000000000, -0.000000000000000000 ) ) ;
#395 = PLANE ( 'NONE',  #277 ) ;
#396 = DIRECTION ( 'NONE',  ( 1.000000000000000000, 0.000000000000000000, -0.000000000000000000 ) ) ;
#397 = ADVANCED_FACE ( 'NONE', ( #101 ), #361, .T. ) ;
#398 = VECTOR ( 'NONE', #83, 1000.000000000000000 ) ;
#399 = EDGE_LOOP ( 'NONE', ( #340, #66, #422, #323 ) ) ;
#400 = CALENDAR_DATE ( 2026, 9, 1 ) ;
#401 = DIRECTION ( 'NONE',  ( -0.000000000000000000, 1.000000000000000000, 0.000000000000000000 ) ) ;
#402 = PERSON_AND_ORGANIZATION_ROLE ( 'design_owner' ) ;
#403 = ADVANCED_FACE ( 'NONE', ( #2 ), #137, .T. ) ;
#404 = CARTESIAN_POINT ( 'NONE',  ( 50.49999999999999289, 44.50000000000000711, 20.00000000000000000 ) ) ;
#405 = ADVANCED_FACE ( 'NONE', ( #104 ), #239, .T. ) ;
#406 = CARTESIAN_POINT ( 'NONE',  ( 44.50000000000000000, 44.50000000000000000, -20.00000000000000000 ) ) ;
#407 = SECURITY_CLASSIFICATION ( '', '', #16 ) ;
#408 = PERSON_AND_ORGANIZATION_ROLE ( 'creator' ) ;
#409 = EDGE_CURVE ( 'NONE', #358, #100, #174, .T. ) ;
#410 = PERSON_AND_ORGANIZATION ( #55, #302 ) ;
#411 = EDGE_LOOP ( 'NONE', ( #417, #383, #155, #189 ) ) ;
#412 = COORDINATED_UNIVERSAL_TIME_OFFSET ( 10, 0, .AHEAD. ) ;
#413 = EDGE_CURVE ( 'NONE', #194, #231, #172, .T. ) ;
#414 = DIRECTION ( 'NONE',  ( -0.000000000000000000, -0.000000000000000000, -1.000000000000000000 ) ) ;
#415 = DIRECTION ( 'NONE',  ( -0.000000000000000000, -0.000000000000000000, -1.000000000000000000 ) ) ;
#416 = ADVANCED_BREP_SHAPE_REPRESENTATION ( '4229-50-10-35_REV_', ( #234, #370 ), #190 ) ;
#417 = ORIENTED_EDGE ( 'NONE', *, *, #165, .T. ) ;
#418 = DATE_AND_TIME ( #380, #221 ) ;
#419 = PERSON_AND_ORGANIZATION ( #55, #302 ) ;
#420 = DIRECTION ( 'NONE',  ( 1.000000000000000000, 0.000000000000000000, -0.000000000000000000 ) ) ;
#421 = VECTOR ( 'NONE', #109, 1000.000000000000000 ) ;
#422 = ORIENTED_EDGE ( 'NONE', *, *, #77, .F. ) ;
#423 = CARTESIAN_POINT ( 'NONE',  ( 0.000000000000000000, 44.50000000000000000, 20.00000000000000000 ) ) ;
#424 = VERTEX_POINT ( 'NONE', #250 ) ;
#425 = CARTESIAN_POINT ( 'NONE',  ( -50.49999999999999289, 44.50000000000000711, -20.00000000000000000 ) ) ;
#426 = ORIENTED_EDGE ( 'NONE', *, *, #236, .T. ) ;
#427 = APPLICATION_CONTEXT ( 'configuration controlled 3d designs of mechanical parts and assemblies' ) ;
#428 = VECTOR ( 'NONE', #332, 1000.000000000000000 ) ;
#429 = DIRECTION ( 'NONE',  ( -0.000000000000000000, 1.000000000000000000, 0.000000000000000000 ) ) ;
#430 = VECTOR ( 'NONE', #357, 1000.000000000000000 ) ;
#431 = ADVANCED_FACE ( 'NONE', ( #342 ), #247, .T. ) ;
#432 = ORIENTED_EDGE ( 'NONE', *, *, #205, .F. ) ;
#433 = DIRECTION ( 'NONE',  ( -1.000000000000000000, 0.000000000000000000, 0.000000000000000000 ) ) ;
ENDSEC;
END-ISO-10303-21;
