ISO-10303-21;
HEADER;
FILE_DESCRIPTION (( 'STEP AP203' ),
    '1' );
FILE_NAME ('4229-50-20-15_REV_.step',
    '2026-01-09T02:47:36',
    ( '' ),
    ( '' ),
    'SwSTEP 2.0',
    'SolidWorks 2025',
    '' );
FILE_SCHEMA (( 'CONFIG_CONTROL_DESIGN' ));
ENDSEC;

DATA;
#1 = CARTESIAN_POINT ( 'NONE',  ( 0.000000000000000000, 0.000000000000000000, 0.000000000000000000 ) ) ;
#2 = ORIENTED_EDGE ( 'NONE', *, *, #355, .T. ) ;
#3 = CARTESIAN_POINT ( 'NONE',  ( -20.00000000000000000, 44.99999999999998579, 0.000000000000000000 ) ) ;
#4 = VERTEX_POINT ( 'NONE', #7 ) ;
#5 = LINE ( 'NONE', #199, #179 ) ;
#6 = ORIENTED_EDGE ( 'NONE', *, *, #107, .F. ) ;
#7 = CARTESIAN_POINT ( 'NONE',  ( -20.00000000000000000, 64.99999999999998579, 0.000000000000000000 ) ) ;
#8 = CIRCLE ( 'NONE', #59, 20.00000000000000000 ) ;
#9 = DIRECTION ( 'NONE',  ( -0.000000000000000000, 0.000000000000000000, -1.000000000000000000 ) ) ;
#10 = ORIENTED_EDGE ( 'NONE', *, *, #216, .T. ) ;
#11 = EDGE_CURVE ( 'NONE', #4, #58, #213, .T. ) ;
#12 =( NAMED_UNIT ( * ) PLANE_ANGLE_UNIT ( ) SI_UNIT ( $, .RADIAN. ) );
#13 = VERTEX_POINT ( 'NONE', #40 ) ;
#14 = EDGE_LOOP ( 'NONE', ( #353, #97, #336, #273 ) ) ;
#15 = LOCAL_TIME ( 13, 47, 36.00000000000000000, #201 ) ;
#16 = ORIENTED_EDGE ( 'NONE', *, *, #82, .F. ) ;
#17 = DIRECTION ( 'NONE',  ( 0.000000000000000000, 1.000000000000000000, -0.000000000000000000 ) ) ;
#18 = CARTESIAN_POINT ( 'NONE',  ( -20.00000000000000000, 64.99999999999998579, -6.000000000000000000 ) ) ;
#19 = VECTOR ( 'NONE', #215, 1000.000000000000000 ) ;
#20 = DIRECTION ( 'NONE',  ( 1.000000000000000000, 0.000000000000000000, 0.000000000000000000 ) ) ;
#21 = CARTESIAN_POINT ( 'NONE',  ( -86.00000000000000000, 64.99999999999998579, -6.000000000000000000 ) ) ;
#22 = COORDINATED_UNIVERSAL_TIME_OFFSET ( 10, 0, .AHEAD. ) ;
#23 = CARTESIAN_POINT ( 'NONE',  ( -43.00000000000000000, 44.99999999999997868, 0.000000000000000000 ) ) ;
#24 = PERSON_AND_ORGANIZATION ( #177, #93 ) ;
#25 = CARTESIAN_POINT ( 'NONE',  ( 0.000000000000000000, 64.99999999999998579, 0.000000000000000000 ) ) ;
#26 = ORIENTED_EDGE ( 'NONE', *, *, #363, .T. ) ;
#27 = AXIS2_PLACEMENT_3D ( 'NONE', #23, #339, #81 ) ;
#28 = CC_DESIGN_APPROVAL ( #112, ( #332 ) ) ;
#29 = CARTESIAN_POINT ( 'NONE',  ( -86.00000000000000000, -1.040949779275250021E-14, -6.000000000000000000 ) ) ;
#30 = ORIENTED_EDGE ( 'NONE', *, *, #202, .F. ) ;
#31 = FACE_OUTER_BOUND ( 'NONE', #200, .T. ) ;
#32 = ORIENTED_EDGE ( 'NONE', *, *, #162, .T. ) ;
#33 = DIRECTION ( 'NONE',  ( 1.000000000000000000, 1.210406720087500283E-16, -0.000000000000000000 ) ) ;
#34 = CIRCLE ( 'NONE', #243, 20.00000000000000000 ) ;
#35 = CIRCLE ( 'NONE', #92, 7.500000000000000000 ) ;
#36 = CARTESIAN_POINT ( 'NONE',  ( -50.49999999999999289, 44.99999999999997868, 1.224646799147352468E-16 ) ) ;
#37 = ORIENTED_EDGE ( 'NONE', *, *, #149, .T. ) ;
#38 = EDGE_CURVE ( 'NONE', #362, #13, #158, .T. ) ;
#39 = DIRECTION ( 'NONE',  ( -0.000000000000000000, -0.000000000000000000, -1.000000000000000000 ) ) ;
#40 = CARTESIAN_POINT ( 'NONE',  ( -86.00000000000000000, 19.99999999999999289, 0.000000000000000000 ) ) ;
#41 = DATE_AND_TIME ( #212, #351 ) ;
#42 = CARTESIAN_POINT ( 'NONE',  ( 0.000000000000000000, 0.000000000000000000, -6.000000000000000000 ) ) ;
#43 = ADVANCED_FACE ( 'NONE', ( #100 ), #290, .F. ) ;
#44 = ORIENTED_EDGE ( 'NONE', *, *, #214, .F. ) ;
#45 = AXIS2_PLACEMENT_3D ( 'NONE', #285, #221, #250 ) ;
#46 = VECTOR ( 'NONE', #39, 1000.000000000000000 ) ;
#47 = VERTEX_POINT ( 'NONE', #113 ) ;
#48 = ORIENTED_EDGE ( 'NONE', *, *, #326, .T. ) ;
#49 = CARTESIAN_POINT ( 'NONE',  ( -35.50000000000000000, 44.99999999999997868, 0.000000000000000000 ) ) ;
#50 = PLANE ( 'NONE',  #70 ) ;
#51 = APPROVAL_DATE_TIME ( #325, #166 ) ;
#52 = DIRECTION ( 'NONE',  ( -0.000000000000000000, -0.000000000000000000, 1.000000000000000000 ) ) ;
#53 = SECURITY_CLASSIFICATION_LEVEL ( 'unclassified' ) ;
#54 = MECHANICAL_CONTEXT ( 'NONE', #133, 'mechanical' ) ;
#55 = CC_DESIGN_PERSON_AND_ORGANIZATION_ASSIGNMENT ( #288, #176, ( #267 ) ) ;
#56 = LINE ( 'NONE', #155, #371 ) ;
#57 = PLANE ( 'NONE',  #132 ) ;
#58 = VERTEX_POINT ( 'NONE', #18 ) ;
#59 = AXIS2_PLACEMENT_3D ( 'NONE', #218, #252, #340 ) ;
#60 = VECTOR ( 'NONE', #187, 1000.000000000000000 ) ;
#61 = DATE_TIME_ROLE ( 'creation_date' ) ;
#62 = DIRECTION ( 'NONE',  ( 0.000000000000000000, -0.000000000000000000, 1.000000000000000000 ) ) ;
#63 = CARTESIAN_POINT ( 'NONE',  ( 0.000000000000000000, 0.000000000000000000, -6.000000000000000000 ) ) ;
#64 = EDGE_LOOP ( 'NONE', ( #30, #302, #240, #186, #26, #44 ) ) ;
#65 = VERTEX_POINT ( 'NONE', #246 ) ;
#66 = AXIS2_PLACEMENT_3D ( 'NONE', #63, #228, #94 ) ;
#67 = DIRECTION ( 'NONE',  ( 1.000000000000000000, 0.000000000000000000, -0.000000000000000000 ) ) ;
#68 = VERTEX_POINT ( 'NONE', #286 ) ;
#69 = ADVANCED_FACE ( 'NONE', ( #77 ), #140, .F. ) ;
#70 = AXIS2_PLACEMENT_3D ( 'NONE', #284, #17, #137 ) ;
#71 = LOCAL_TIME ( 13, 47, 36.00000000000000000, #22 ) ;
#72 = FACE_BOUND ( 'NONE', #104, .T. ) ;
#73 = ORIENTED_EDGE ( 'NONE', *, *, #169, .F. ) ;
#74 = ORIENTED_EDGE ( 'NONE', *, *, #136, .F. ) ;
#75 = AXIS2_PLACEMENT_3D ( 'NONE', #108, #110, #317 ) ;
#76 = APPROVAL_PERSON_ORGANIZATION ( #256, #166, #365 ) ;
#77 = FACE_OUTER_BOUND ( 'NONE', #356, .T. ) ;
#78 = DIRECTION ( 'NONE',  ( 1.000000000000000000, 0.000000000000000000, 0.000000000000000000 ) ) ;
#79 = PERSON_AND_ORGANIZATION_ROLE ( 'design_supplier' ) ;
#80 = ADVANCED_FACE ( 'NONE', ( #368 ), #374, .T. ) ;
#81 = DIRECTION ( 'NONE',  ( 1.000000000000000000, 0.000000000000000000, 0.000000000000000000 ) ) ;
#82 = EDGE_CURVE ( 'NONE', #298, #349, #35, .T. ) ;
#83 = COORDINATED_UNIVERSAL_TIME_OFFSET ( 10, 0, .AHEAD. ) ;
#84 = AXIS2_PLACEMENT_3D ( 'NONE', #164, #281, #20 ) ;
#85 = LINE ( 'NONE', #328, #204 ) ;
#86 = COORDINATED_UNIVERSAL_TIME_OFFSET ( 10, 0, .AHEAD. ) ;
#87 = APPLICATION_CONTEXT ( 'configuration controlled 3d designs of mechanical parts and assemblies' ) ;
#88 = DIRECTION ( 'NONE',  ( 1.000000000000000000, 0.000000000000000000, 0.000000000000000000 ) ) ;
#89 = ORIENTED_EDGE ( 'NONE', *, *, #134, .F. ) ;
#90 = FACE_BOUND ( 'NONE', #333, .T. ) ;
#91 = ORIENTED_EDGE ( 'NONE', *, *, #216, .F. ) ;
#92 = AXIS2_PLACEMENT_3D ( 'NONE', #167, #292, #142 ) ;
#93 = ORGANIZATION ( 'UNSPECIFIED', 'UNSPECIFIED', '' ) ;
#94 = DIRECTION ( 'NONE',  ( 0.000000000000000000, 0.000000000000000000, -1.000000000000000000 ) ) ;
#95 = MANIFOLD_SOLID_BREP ( 'Fillet1', #266 ) ;
#96 = PLANE ( 'NONE',  #257 ) ;
#97 = ORIENTED_EDGE ( 'NONE', *, *, #38, .T. ) ;
#98 = LINE ( 'NONE', #208, #19 ) ;
#99 = AXIS2_PLACEMENT_3D ( 'NONE', #163, #189, #235 ) ;
#100 = FACE_OUTER_BOUND ( 'NONE', #307, .T. ) ;
#101 = VERTEX_POINT ( 'NONE', #21 ) ;
#102 = APPROVAL ( #377, 'UNSPECIFIED' ) ;
#103 = APPLICATION_PROTOCOL_DEFINITION ( 'international standard', 'config_control_design', 1994, #133 ) ;
#104 = EDGE_LOOP ( 'NONE', ( #37, #124 ) ) ;
#105 = PERSON_AND_ORGANIZATION ( #177, #93 ) ;
#106 = ORIENTED_EDGE ( 'NONE', *, *, #254, .F. ) ;
#107 = EDGE_CURVE ( 'NONE', #381, #68, #217, .T. ) ;
#108 = CARTESIAN_POINT ( 'NONE',  ( -43.00000000000000000, 44.99999999999997868, 0.000000000000000000 ) ) ;
#109 = CC_DESIGN_APPROVAL ( #166, ( #330 ) ) ;
#110 = DIRECTION ( 'NONE',  ( -0.000000000000000000, -0.000000000000000000, 1.000000000000000000 ) ) ;
#111 = CALENDAR_DATE ( 2026, 9, 1 ) ;
#112 = APPROVAL ( #143, 'UNSPECIFIED' ) ;
#113 = CARTESIAN_POINT ( 'NONE',  ( 0.000000000000000000, 0.000000000000000000, 0.000000000000000000 ) ) ;
#114 = DATE_AND_TIME ( #141, #71 ) ;
#115 = DIRECTION ( 'NONE',  ( -1.000000000000000000, 0.000000000000000000, 0.000000000000000000 ) ) ;
#116 = EDGE_LOOP ( 'NONE', ( #180, #127, #150, #347 ) ) ;
#117 = EDGE_CURVE ( 'NONE', #227, #349, #372, .T. ) ;
#118 = DIRECTION ( 'NONE',  ( -0.000000000000000000, -0.000000000000000000, 1.000000000000000000 ) ) ;
#119 = ORIENTED_EDGE ( 'NONE', *, *, #254, .T. ) ;
#120 = PLANE ( 'NONE',  #231 ) ;
#121 = ORIENTED_EDGE ( 'NONE', *, *, #117, .T. ) ;
#122 = VECTOR ( 'NONE', #314, 1000.000000000000000 ) ;
#123 = CARTESIAN_POINT ( 'NONE',  ( -35.50000000000000000, 44.99999999999997868, -6.000000000000000000 ) ) ;
#124 = ORIENTED_EDGE ( 'NONE', *, *, #134, .T. ) ;
#125 = CARTESIAN_POINT ( 'NONE',  ( -20.00000000000000000, 44.99999999999998579, -6.000000000000000000 ) ) ;
#126 = ADVANCED_FACE ( 'NONE', ( #375 ), #50, .T. ) ;
#127 = ORIENTED_EDGE ( 'NONE', *, *, #334, .F. ) ;
#128 = CARTESIAN_POINT ( 'NONE',  ( -86.00000000000000000, 19.99999999999999289, -6.000000000000000000 ) ) ;
#129 = PLANE ( 'NONE',  #249 ) ;
#130 = PRODUCT_DEFINITION_SHAPE ( 'NONE', 'NONE',  #330 ) ;
#131 = ORIENTED_EDGE ( 'NONE', *, *, #308, .T. ) ;
#132 = AXIS2_PLACEMENT_3D ( 'NONE', #144, #305, #183 ) ;
#133 = APPLICATION_CONTEXT ( 'configuration controlled 3d designs of mechanical parts and assemblies' ) ;
#134 = EDGE_CURVE ( 'NONE', #156, #227, #311, .T. ) ;
#135 = ORIENTED_EDGE ( 'NONE', *, *, #107, .T. ) ;
#136 = EDGE_CURVE ( 'NONE', #156, #298, #220, .T. ) ;
#137 = DIRECTION ( 'NONE',  ( 0.000000000000000000, 0.000000000000000000, 1.000000000000000000 ) ) ;
#138 = EDGE_CURVE ( 'NONE', #58, #381, #8, .T. ) ;
#139 = SECURITY_CLASSIFICATION ( '', '', #53 ) ;
#140 = CYLINDRICAL_SURFACE ( 'NONE', #75, 7.500000000000000000 ) ;
#141 = CALENDAR_DATE ( 2026, 9, 1 ) ;
#142 = DIRECTION ( 'NONE',  ( 1.000000000000000000, 0.000000000000000000, 0.000000000000000000 ) ) ;
#143 = APPROVAL_STATUS ( 'not_yet_approved' ) ;
#144 = CARTESIAN_POINT ( 'NONE',  ( 0.000000000000000000, 0.000000000000000000, -6.000000000000000000 ) ) ;
#145 = CIRCLE ( 'NONE', #99, 20.00000000000000355 ) ;
#146 = DIRECTION ( 'NONE',  ( -0.000000000000000000, -1.000000000000000000, -0.000000000000000000 ) ) ;
#147 = EDGE_LOOP ( 'NONE', ( #91, #165, #304, #327 ) ) ;
#148 = FACE_OUTER_BOUND ( 'NONE', #316, .T. ) ;
#149 = EDGE_CURVE ( 'NONE', #227, #156, #230, .T. ) ;
#150 = ORIENTED_EDGE ( 'NONE', *, *, #326, .F. ) ;
#151 = LINE ( 'NONE', #25, #171 ) ;
#152 = VERTEX_POINT ( 'NONE', #168 ) ;
#153 = CIRCLE ( 'NONE', #359, 20.00000000000000355 ) ;
#154 = CC_DESIGN_PERSON_AND_ORGANIZATION_ASSIGNMENT ( #253, #222, ( #330 ) ) ;
#155 = CARTESIAN_POINT ( 'NONE',  ( 0.000000000000000000, 0.000000000000000000, -6.000000000000000000 ) ) ;
#156 = VERTEX_POINT ( 'NONE', #265 ) ;
#157 = CARTESIAN_POINT ( 'NONE',  ( -35.50000000000000000, 44.99999999999997868, 1.224646799147352468E-16 ) ) ;
#158 = LINE ( 'NONE', #128, #357 ) ;
#159 = CARTESIAN_POINT ( 'NONE',  ( -86.00000000000000000, 19.99999999999999289, -6.000000000000000000 ) ) ;
#160 = ORIENTED_EDGE ( 'NONE', *, *, #237, .T. ) ;
#161 = CARTESIAN_POINT ( 'NONE',  ( -65.99999999999998579, -7.988684352577499945E-15, -6.000000000000000000 ) ) ;
#162 = EDGE_CURVE ( 'NONE', #4, #264, #151, .T. ) ;
#163 = CARTESIAN_POINT ( 'NONE',  ( -65.99999999999998579, 19.99999999999999289, 0.000000000000000000 ) ) ;
#164 = CARTESIAN_POINT ( 'NONE',  ( 0.000000000000000000, 0.000000000000000000, 0.000000000000000000 ) ) ;
#165 = ORIENTED_EDGE ( 'NONE', *, *, #334, .T. ) ;
#166 = APPROVAL ( #170, 'UNSPECIFIED' ) ;
#167 = CARTESIAN_POINT ( 'NONE',  ( -43.00000000000000000, 44.99999999999997868, 1.224646799147352468E-16 ) ) ;
#168 = CARTESIAN_POINT ( 'NONE',  ( 0.000000000000000000, 0.000000000000000000, -6.000000000000000000 ) ) ;
#169 = EDGE_CURVE ( 'NONE', #68, #4, #34, .T. ) ;
#170 = APPROVAL_STATUS ( 'not_yet_approved' ) ;
#171 = VECTOR ( 'NONE', #258, 1000.000000000000000 ) ;
#172 = CC_DESIGN_SECURITY_CLASSIFICATION ( #139, ( #332 ) ) ;
#173 = PERSON_AND_ORGANIZATION ( #177, #93 ) ;
#174 = ADVANCED_FACE ( 'NONE', ( #294 ), #57, .T. ) ;
#175 = CARTESIAN_POINT ( 'NONE',  ( -43.00000000000000000, 44.99999999999997868, 1.224646799147352468E-16 ) ) ;
#176 = PERSON_AND_ORGANIZATION_ROLE ( 'design_owner' ) ;
#177 = PERSON ( 'UNSPECIFIED', 'UNSPECIFIED', 'UNSPECIFIED', ('UNSPECIFIED'), ('UNSPECIFIED'), ('UNSPECIFIED') ) ;
#178 = DIRECTION ( 'NONE',  ( 0.000000000000000000, -0.000000000000000000, 1.000000000000000000 ) ) ;
#179 = VECTOR ( 'NONE', #146, 1000.000000000000000 ) ;
#180 = ORIENTED_EDGE ( 'NONE', *, *, #363, .F. ) ;
#181 = PERSON_AND_ORGANIZATION ( #177, #93 ) ;
#182 = DESIGN_CONTEXT ( 'detailed design', #87, 'design' ) ;
#183 = DIRECTION ( 'NONE',  ( 1.000000000000000000, 1.210406720087500283E-16, 0.000000000000000000 ) ) ;
#184 = ORIENTED_EDGE ( 'NONE', *, *, #136, .T. ) ;
#185 = LINE ( 'NONE', #329, #60 ) ;
#186 = ORIENTED_EDGE ( 'NONE', *, *, #345, .F. ) ;
#187 = DIRECTION ( 'NONE',  ( 0.000000000000000000, 0.000000000000000000, 1.000000000000000000 ) ) ;
#188 = ORIENTED_EDGE ( 'NONE', *, *, #117, .F. ) ;
#189 = DIRECTION ( 'NONE',  ( 0.000000000000000000, -0.000000000000000000, 1.000000000000000000 ) ) ;
#190 =( NAMED_UNIT ( * ) SI_UNIT ( $, .STERADIAN. ) SOLID_ANGLE_UNIT ( ) );
#191 = CARTESIAN_POINT ( 'NONE',  ( 0.000000000000000000, 44.99999999999998579, -6.000000000000000000 ) ) ;
#192 = LOCAL_TIME ( 13, 47, 36.00000000000000000, #260 ) ;
#193 = DIRECTION ( 'NONE',  ( -0.000000000000000000, -0.000000000000000000, 1.000000000000000000 ) ) ;
#194 = CARTESIAN_POINT ( 'NONE',  ( -43.00000000000000000, 44.99999999999997868, -6.000000000000000000 ) ) ;
#195 = DIRECTION ( 'NONE',  ( 0.000000000000000000, -0.000000000000000000, 1.000000000000000000 ) ) ;
#196 = APPLICATION_PROTOCOL_DEFINITION ( 'international standard', 'config_control_design', 1994, #87 ) ;
#197 = DIRECTION ( 'NONE',  ( 0.000000000000000000, 1.000000000000000000, 0.000000000000000000 ) ) ;
#198 = ADVANCED_FACE ( 'NONE', ( #148 ), #263, .T. ) ;
#199 = CARTESIAN_POINT ( 'NONE',  ( -86.00000000000000000, -1.040949779275250021E-14, -6.000000000000000000 ) ) ;
#200 = EDGE_LOOP ( 'NONE', ( #2, #135, #106, #205 ) ) ;
#201 = COORDINATED_UNIVERSAL_TIME_OFFSET ( 10, 0, .AHEAD. ) ;
#202 = EDGE_CURVE ( 'NONE', #58, #101, #207, .T. ) ;
#203 = FACE_OUTER_BOUND ( 'NONE', #275, .T. ) ;
#204 = VECTOR ( 'NONE', #33, 1000.000000000000000 ) ;
#205 = ORIENTED_EDGE ( 'NONE', *, *, #319, .F. ) ;
#206 = DIRECTION ( 'NONE',  ( 1.000000000000000000, 0.000000000000000000, -0.000000000000000000 ) ) ;
#207 = LINE ( 'NONE', #352, #344 ) ;
#208 = CARTESIAN_POINT ( 'NONE',  ( 0.000000000000000000, 0.000000000000000000, -6.000000000000000000 ) ) ;
#209 = ADVANCED_FACE ( 'NONE', ( #300 ), #120, .T. ) ;
#210 = ORIENTED_EDGE ( 'NONE', *, *, #202, .T. ) ;
#211 = APPROVAL_PERSON_ORGANIZATION ( #24, #102, #346 ) ;
#212 = CALENDAR_DATE ( 2026, 9, 1 ) ;
#213 = LINE ( 'NONE', #245, #350 ) ;
#214 = EDGE_CURVE ( 'NONE', #101, #362, #5, .T. ) ;
#215 = DIRECTION ( 'NONE',  ( 0.000000000000000000, 1.000000000000000000, 0.000000000000000000 ) ) ;
#216 = EDGE_CURVE ( 'NONE', #65, #47, #85, .T. ) ;
#217 = LINE ( 'NONE', #224, #370 ) ;
#218 = CARTESIAN_POINT ( 'NONE',  ( -20.00000000000000000, 44.99999999999998579, -6.000000000000000000 ) ) ;
#219 = PERSON_AND_ORGANIZATION_ROLE ( 'creator' ) ;
#220 = LINE ( 'NONE', #369, #248 ) ;
#221 = DIRECTION ( 'NONE',  ( 0.000000000000000000, 0.000000000000000000, 1.000000000000000000 ) ) ;
#222 = PERSON_AND_ORGANIZATION_ROLE ( 'creator' ) ;
#223 = VECTOR ( 'NONE', #197, 1000.000000000000000 ) ;
#224 = CARTESIAN_POINT ( 'NONE',  ( 0.000000000000000000, 44.99999999999998579, -6.000000000000000000 ) ) ;
#225 = CC_DESIGN_PERSON_AND_ORGANIZATION_ASSIGNMENT ( #173, #291, ( #139 ) ) ;
#226 = DIRECTION ( 'NONE',  ( 0.000000000000000000, 0.000000000000000000, 1.000000000000000000 ) ) ;
#227 = VERTEX_POINT ( 'NONE', #123 ) ;
#228 = DIRECTION ( 'NONE',  ( 1.000000000000000000, 0.000000000000000000, 0.000000000000000000 ) ) ;
#229 = CARTESIAN_POINT ( 'NONE',  ( 0.000000000000000000, 0.000000000000000000, 0.000000000000000000 ) ) ;
#230 = CIRCLE ( 'NONE', #287, 7.500000000000000000 ) ;
#231 = AXIS2_PLACEMENT_3D ( 'NONE', #29, #378, #226 ) ;
#232 = PLANE ( 'NONE',  #66 ) ;
#233 = LINE ( 'NONE', #1, #223 ) ;
#234 = EDGE_LOOP ( 'NONE', ( #312, #262, #210, #131 ) ) ;
#235 = DIRECTION ( 'NONE',  ( 1.000000000000000000, 0.000000000000000000, 0.000000000000000000 ) ) ;
#236 = DIRECTION ( 'NONE',  ( 0.000000000000000000, 0.000000000000000000, 1.000000000000000000 ) ) ;
#237 = EDGE_CURVE ( 'NONE', #349, #298, #322, .T. ) ;
#238 = CARTESIAN_POINT ( 'NONE',  ( 0.000000000000000000, 0.000000000000000000, -6.000000000000000000 ) ) ;
#239 = ORIENTED_EDGE ( 'NONE', *, *, #237, .F. ) ;
#240 = ORIENTED_EDGE ( 'NONE', *, *, #355, .F. ) ;
#241 = CARTESIAN_POINT ( 'NONE',  ( -65.99999999999998579, -7.988684352577499945E-15, -6.000000000000000000 ) ) ;
#242 = ORIENTED_EDGE ( 'NONE', *, *, #149, .F. ) ;
#243 = AXIS2_PLACEMENT_3D ( 'NONE', #3, #178, #324 ) ;
#244 = VECTOR ( 'NONE', #193, 1000.000000000000000 ) ;
#245 = CARTESIAN_POINT ( 'NONE',  ( -20.00000000000000000, 64.99999999999998579, -6.000000000000000000 ) ) ;
#246 = CARTESIAN_POINT ( 'NONE',  ( -65.99999999999998579, -7.988684352577499945E-15, 0.000000000000000000 ) ) ;
#247 = CARTESIAN_POINT ( 'NONE',  ( -43.00000000000000000, 44.99999999999997868, -6.000000000000000000 ) ) ;
#248 = VECTOR ( 'NONE', #52, 1000.000000000000000 ) ;
#249 = AXIS2_PLACEMENT_3D ( 'NONE', #238, #361, #67 ) ;
#250 = DIRECTION ( 'NONE',  ( 1.000000000000000000, 0.000000000000000000, 0.000000000000000000 ) ) ;
#251 = DATE_AND_TIME ( #295, #192 ) ;
#252 = DIRECTION ( 'NONE',  ( -0.000000000000000000, 0.000000000000000000, -1.000000000000000000 ) ) ;
#253 = PERSON_AND_ORGANIZATION ( #177, #93 ) ;
#254 = EDGE_CURVE ( 'NONE', #47, #68, #233, .T. ) ;
#255 = DIRECTION ( 'NONE',  ( -0.000000000000000000, 0.000000000000000000, 1.000000000000000000 ) ) ;
#256 = PERSON_AND_ORGANIZATION ( #177, #93 ) ;
#257 = AXIS2_PLACEMENT_3D ( 'NONE', #229, #62, #206 ) ;
#258 = DIRECTION ( 'NONE',  ( -1.000000000000000000, 0.000000000000000000, 0.000000000000000000 ) ) ;
#259 = ADVANCED_BREP_SHAPE_REPRESENTATION ( '4229-50-20-15_REV_', ( #95, #84 ), #278 ) ;
#260 = COORDINATED_UNIVERSAL_TIME_OFFSET ( 10, 0, .AHEAD. ) ;
#261 = DIRECTION ( 'NONE',  ( 1.000000000000000000, 0.000000000000000000, 0.000000000000000000 ) ) ;
#262 = ORIENTED_EDGE ( 'NONE', *, *, #11, .T. ) ;
#263 = CYLINDRICAL_SURFACE ( 'NONE', #331, 20.00000000000000000 ) ;
#264 = VERTEX_POINT ( 'NONE', #380 ) ;
#265 = CARTESIAN_POINT ( 'NONE',  ( -50.49999999999999289, 44.99999999999997868, -6.000000000000000000 ) ) ;
#266 = CLOSED_SHELL ( 'NONE', ( #69, #270, #174, #209, #126, #367, #301, #43, #198, #80 ) ) ;
#267 = PRODUCT ( '4229-50-20-15_REV_', '4229-50-20-15_REV_', '', ( #54 ) ) ;
#268 = CC_DESIGN_APPROVAL ( #102, ( #139 ) ) ;
#269 = ORIENTED_EDGE ( 'NONE', *, *, #283, .T. ) ;
#270 = ADVANCED_FACE ( 'NONE', ( #31 ), #232, .T. ) ;
#271 = SHAPE_DEFINITION_REPRESENTATION ( #130, #259 ) ;
#272 = DIRECTION ( 'NONE',  ( 0.000000000000000000, 0.000000000000000000, 1.000000000000000000 ) ) ;
#273 = ORIENTED_EDGE ( 'NONE', *, *, #308, .F. ) ;
#274 = CC_DESIGN_PERSON_AND_ORGANIZATION_ASSIGNMENT ( #341, #79, ( #332 ) ) ;
#275 = EDGE_LOOP ( 'NONE', ( #119, #282, #32, #269, #48, #10 ) ) ;
#276 = FACE_OUTER_BOUND ( 'NONE', #64, .T. ) ;
#277 = ORIENTED_EDGE ( 'NONE', *, *, #82, .T. ) ;
#278 =( GEOMETRIC_REPRESENTATION_CONTEXT ( 3 ) GLOBAL_UNCERTAINTY_ASSIGNED_CONTEXT ( ( #303 ) ) GLOBAL_UNIT_ASSIGNED_CONTEXT ( ( #315, #12, #190 ) ) REPRESENTATION_CONTEXT ( 'NONE', 'WORKASPACE' ) );
#279 = PRODUCT_RELATED_PRODUCT_CATEGORY ( 'detail', '', ( #267 ) ) ;
#280 = ORIENTED_EDGE ( 'NONE', *, *, #138, .F. ) ;
#281 = DIRECTION ( 'NONE',  ( 0.000000000000000000, 0.000000000000000000, 1.000000000000000000 ) ) ;
#282 = ORIENTED_EDGE ( 'NONE', *, *, #169, .T. ) ;
#283 = EDGE_CURVE ( 'NONE', #264, #13, #354, .T. ) ;
#284 = CARTESIAN_POINT ( 'NONE',  ( 0.000000000000000000, 64.99999999999998579, -6.000000000000000000 ) ) ;
#285 = CARTESIAN_POINT ( 'NONE',  ( -65.99999999999998579, 19.99999999999999289, -6.000000000000000000 ) ) ;
#286 = CARTESIAN_POINT ( 'NONE',  ( 0.000000000000000000, 44.99999999999998579, 0.000000000000000000 ) ) ;
#287 = AXIS2_PLACEMENT_3D ( 'NONE', #194, #342, #320 ) ;
#288 = PERSON_AND_ORGANIZATION ( #177, #93 ) ;
#289 = APPROVAL_PERSON_ORGANIZATION ( #181, #112, #343 ) ;
#290 = CYLINDRICAL_SURFACE ( 'NONE', #27, 7.500000000000000000 ) ;
#291 = PERSON_AND_ORGANIZATION_ROLE ( 'classification_officer' ) ;
#292 = DIRECTION ( 'NONE',  ( -0.000000000000000000, -0.000000000000000000, 1.000000000000000000 ) ) ;
#293 = DATE_TIME_ROLE ( 'classification_date' ) ;
#294 = FACE_OUTER_BOUND ( 'NONE', #147, .T. ) ;
#295 = CALENDAR_DATE ( 2026, 9, 1 ) ;
#296 = AXIS2_PLACEMENT_3D ( 'NONE', #247, #195, #78 ) ;
#297 = DIRECTION ( 'NONE',  ( -0.000000000000000000, 0.000000000000000000, 1.000000000000000000 ) ) ;
#298 = VERTEX_POINT ( 'NONE', #36 ) ;
#299 = APPROVAL_DATE_TIME ( #321, #112 ) ;
#300 = FACE_OUTER_BOUND ( 'NONE', #14, .T. ) ;
#301 = ADVANCED_FACE ( 'NONE', ( #90, #203 ), #96, .T. ) ;
#302 = ORIENTED_EDGE ( 'NONE', *, *, #138, .T. ) ;
#303 = UNCERTAINTY_MEASURE_WITH_UNIT (LENGTH_MEASURE( 1.000000000000000082E-05 ), #315, 'distance_accuracy_value', 'NONE');
#304 = ORIENTED_EDGE ( 'NONE', *, *, #345, .T. ) ;
#305 = DIRECTION ( 'NONE',  ( 1.210406720087500283E-16, -1.000000000000000000, 0.000000000000000000 ) ) ;
#306 = CC_DESIGN_DATE_AND_TIME_ASSIGNMENT ( #251, #61, ( #330 ) ) ;
#307 = EDGE_LOOP ( 'NONE', ( #74, #242, #121, #160 ) ) ;
#308 = EDGE_CURVE ( 'NONE', #101, #264, #185, .T. ) ;
#309 = LINE ( 'NONE', #42, #122 ) ;
#310 = CARTESIAN_POINT ( 'NONE',  ( -65.99999999999998579, 19.99999999999999289, -6.000000000000000000 ) ) ;
#311 = CIRCLE ( 'NONE', #296, 7.500000000000000000 ) ;
#312 = ORIENTED_EDGE ( 'NONE', *, *, #162, .F. ) ;
#313 = LOCAL_TIME ( 13, 47, 36.00000000000000000, #83 ) ;
#314 = DIRECTION ( 'NONE',  ( 1.000000000000000000, 1.210406720087500283E-16, -0.000000000000000000 ) ) ;
#315 =( LENGTH_UNIT ( ) NAMED_UNIT ( * ) SI_UNIT ( .MILLI., .METRE. ) );
#316 = EDGE_LOOP ( 'NONE', ( #280, #335, #73, #6 ) ) ;
#317 = DIRECTION ( 'NONE',  ( 1.000000000000000000, 0.000000000000000000, 0.000000000000000000 ) ) ;
#318 = VECTOR ( 'NONE', #348, 1000.000000000000000 ) ;
#319 = EDGE_CURVE ( 'NONE', #152, #47, #56, .T. ) ;
#320 = DIRECTION ( 'NONE',  ( 1.000000000000000000, 0.000000000000000000, 0.000000000000000000 ) ) ;
#321 = DATE_AND_TIME ( #373, #313 ) ;
#322 = CIRCLE ( 'NONE', #376, 7.500000000000000000 ) ;
#323 = CARTESIAN_POINT ( 'NONE',  ( -86.00000000000000000, -1.040949779275250021E-14, 0.000000000000000000 ) ) ;
#324 = DIRECTION ( 'NONE',  ( 1.000000000000000000, 0.000000000000000000, 0.000000000000000000 ) ) ;
#325 = DATE_AND_TIME ( #111, #15 ) ;
#326 = EDGE_CURVE ( 'NONE', #13, #65, #145, .T. ) ;
#327 = ORIENTED_EDGE ( 'NONE', *, *, #319, .T. ) ;
#328 = CARTESIAN_POINT ( 'NONE',  ( 0.000000000000000000, 0.000000000000000000, 0.000000000000000000 ) ) ;
#329 = CARTESIAN_POINT ( 'NONE',  ( -86.00000000000000000, 64.99999999999998579, -6.000000000000000000 ) ) ;
#330 = PRODUCT_DEFINITION ( 'UNKNOWN', '', #332, #182 ) ;
#331 = AXIS2_PLACEMENT_3D ( 'NONE', #125, #297, #88 ) ;
#332 = PRODUCT_DEFINITION_FORMATION_WITH_SPECIFIED_SOURCE ( 'ANY', '', #267, .NOT_KNOWN. ) ;
#333 = EDGE_LOOP ( 'NONE', ( #239, #16 ) ) ;
#334 = EDGE_CURVE ( 'NONE', #65, #364, #358, .T. ) ;
#335 = ORIENTED_EDGE ( 'NONE', *, *, #11, .F. ) ;
#336 = ORIENTED_EDGE ( 'NONE', *, *, #283, .F. ) ;
#337 = DIRECTION ( 'NONE',  ( 1.000000000000000000, 0.000000000000000000, 0.000000000000000000 ) ) ;
#338 = CC_DESIGN_DATE_AND_TIME_ASSIGNMENT ( #114, #293, ( #139 ) ) ;
#339 = DIRECTION ( 'NONE',  ( -0.000000000000000000, -0.000000000000000000, 1.000000000000000000 ) ) ;
#340 = DIRECTION ( 'NONE',  ( 1.000000000000000000, 0.000000000000000000, 0.000000000000000000 ) ) ;
#341 = PERSON_AND_ORGANIZATION ( #177, #93 ) ;
#342 = DIRECTION ( 'NONE',  ( 0.000000000000000000, -0.000000000000000000, 1.000000000000000000 ) ) ;
#343 = APPROVAL_ROLE ( '' ) ;
#344 = VECTOR ( 'NONE', #115, 1000.000000000000000 ) ;
#345 = EDGE_CURVE ( 'NONE', #364, #152, #309, .T. ) ;
#346 = APPROVAL_ROLE ( '' ) ;
#347 = ORIENTED_EDGE ( 'NONE', *, *, #38, .F. ) ;
#348 = DIRECTION ( 'NONE',  ( -0.000000000000000000, -1.000000000000000000, -0.000000000000000000 ) ) ;
#349 = VERTEX_POINT ( 'NONE', #157 ) ;
#350 = VECTOR ( 'NONE', #366, 1000.000000000000000 ) ;
#351 = LOCAL_TIME ( 13, 47, 36.00000000000000000, #86 ) ;
#352 = CARTESIAN_POINT ( 'NONE',  ( 0.000000000000000000, 64.99999999999998579, -6.000000000000000000 ) ) ;
#353 = ORIENTED_EDGE ( 'NONE', *, *, #214, .T. ) ;
#354 = LINE ( 'NONE', #323, #318 ) ;
#355 = EDGE_CURVE ( 'NONE', #152, #381, #98, .T. ) ;
#356 = EDGE_LOOP ( 'NONE', ( #89, #184, #277, #188 ) ) ;
#357 = VECTOR ( 'NONE', #236, 1000.000000000000000 ) ;
#358 = LINE ( 'NONE', #161, #46 ) ;
#359 = AXIS2_PLACEMENT_3D ( 'NONE', #310, #9, #337 ) ;
#360 = APPROVAL_DATE_TIME ( #41, #102 ) ;
#361 = DIRECTION ( 'NONE',  ( 0.000000000000000000, -0.000000000000000000, 1.000000000000000000 ) ) ;
#362 = VERTEX_POINT ( 'NONE', #159 ) ;
#363 = EDGE_CURVE ( 'NONE', #364, #362, #153, .T. ) ;
#364 = VERTEX_POINT ( 'NONE', #241 ) ;
#365 = APPROVAL_ROLE ( '' ) ;
#366 = DIRECTION ( 'NONE',  ( -0.000000000000000000, -0.000000000000000000, -1.000000000000000000 ) ) ;
#367 = ADVANCED_FACE ( 'NONE', ( #72, #276 ), #129, .F. ) ;
#368 = FACE_OUTER_BOUND ( 'NONE', #116, .T. ) ;
#369 = CARTESIAN_POINT ( 'NONE',  ( -50.49999999999999289, 44.99999999999997868, 0.000000000000000000 ) ) ;
#370 = VECTOR ( 'NONE', #255, 1000.000000000000000 ) ;
#371 = VECTOR ( 'NONE', #272, 1000.000000000000000 ) ;
#372 = LINE ( 'NONE', #49, #244 ) ;
#373 = CALENDAR_DATE ( 2026, 9, 1 ) ;
#374 = CYLINDRICAL_SURFACE ( 'NONE', #45, 20.00000000000000355 ) ;
#375 = FACE_OUTER_BOUND ( 'NONE', #234, .T. ) ;
#376 = AXIS2_PLACEMENT_3D ( 'NONE', #175, #118, #261 ) ;
#377 = APPROVAL_STATUS ( 'not_yet_approved' ) ;
#378 = DIRECTION ( 'NONE',  ( -1.000000000000000000, 0.000000000000000000, 0.000000000000000000 ) ) ;
#379 = CC_DESIGN_PERSON_AND_ORGANIZATION_ASSIGNMENT ( #105, #219, ( #332 ) ) ;
#380 = CARTESIAN_POINT ( 'NONE',  ( -86.00000000000000000, 64.99999999999998579, 0.000000000000000000 ) ) ;
#381 = VERTEX_POINT ( 'NONE', #191 ) ;
ENDSEC;
END-ISO-10303-21;
