ISO-10303-21;
HEADER;
FILE_DESCRIPTION (( 'STEP AP203' ),
    '1' );
FILE_NAME ('4229-50-20-20_REV_.step',
    '2026-01-09T02:48:01',
    ( '' ),
    ( '' ),
    'SwSTEP 2.0',
    'SolidWorks 2025',
    '' );
FILE_SCHEMA (( 'CONFIG_CONTROL_DESIGN' ));
ENDSEC;

DATA;
#1 = DIRECTION ( 'NONE',  ( 0.000000000000000000, -0.000000000000000000, -1.000000000000000000 ) ) ;
#2 = DIRECTION ( 'NONE',  ( 0.000000000000000000, 0.000000000000000000, 1.000000000000000000 ) ) ;
#3 = CLOSED_SHELL ( 'NONE', ( #381, #12, #87, #276, #128, #206, #74, #306, #220, #152 ) ) ;
#4 = DIRECTION ( 'NONE',  ( 1.000000000000000000, 1.380510937220652473E-16, 0.000000000000000000 ) ) ;
#5 = EDGE_CURVE ( 'NONE', #362, #203, #207, .T. ) ;
#6 = APPROVAL_PERSON_ORGANIZATION ( #370, #336, #343 ) ;
#7 = DIRECTION ( 'NONE',  ( 1.000000000000000000, -1.040834085586084257E-15, 0.000000000000000000 ) ) ;
#8 = CC_DESIGN_PERSON_AND_ORGANIZATION_ASSIGNMENT ( #367, #22, ( #108 ) ) ;
#9 = DIRECTION ( 'NONE',  ( -0.000000000000000000, -0.000000000000000000, 1.000000000000000000 ) ) ;
#10 = DIRECTION ( 'NONE',  ( -1.000000000000000000, 1.067522139062650302E-16, 0.000000000000000000 ) ) ;
#11 = VECTOR ( 'NONE', #252, 1000.000000000000000 ) ;
#12 = ADVANCED_FACE ( 'NONE', ( #151 ), #316, .T. ) ;
#13 = DIRECTION ( 'NONE',  ( 1.000000000000000000, 0.000000000000000000, 0.000000000000000000 ) ) ;
#14 = EDGE_LOOP ( 'NONE', ( #174, #347, #53, #314 ) ) ;
#15 =( NAMED_UNIT ( * ) SI_UNIT ( $, .STERADIAN. ) SOLID_ANGLE_UNIT ( ) );
#16 = ORIENTED_EDGE ( 'NONE', *, *, #95, .T. ) ;
#17 = CARTESIAN_POINT ( 'NONE',  ( -55.00000000000000000, -7.592810154713588652E-15, 0.000000000000000000 ) ) ;
#18 = LOCAL_TIME ( 13, 48, 1.000000000000000000, #199 ) ;
#19 = DATE_AND_TIME ( #282, #198 ) ;
#20 = PRODUCT_RELATED_PRODUCT_CATEGORY ( 'detail', '', ( #363 ) ) ;
#21 = ORIENTED_EDGE ( 'NONE', *, *, #150, .T. ) ;
#22 = PERSON_AND_ORGANIZATION_ROLE ( 'classification_officer' ) ;
#23 = VERTEX_POINT ( 'NONE', #149 ) ;
#24 = EDGE_CURVE ( 'NONE', #229, #280, #147, .T. ) ;
#25 = DATE_TIME_ROLE ( 'creation_date' ) ;
#26 = DIRECTION ( 'NONE',  ( 0.000000000000000000, 0.000000000000000000, -1.000000000000000000 ) ) ;
#27 = DIRECTION ( 'NONE',  ( 1.000000000000000000, 0.000000000000000000, 0.000000000000000000 ) ) ;
#28 = CARTESIAN_POINT ( 'NONE',  ( -54.99999999999999289, 44.99999999999999289, 0.000000000000000000 ) ) ;
#29 = ORIENTED_EDGE ( 'NONE', *, *, #249, .T. ) ;
#30 = FACE_OUTER_BOUND ( 'NONE', #92, .T. ) ;
#31 = ORIENTED_EDGE ( 'NONE', *, *, #24, .F. ) ;
#32 = CARTESIAN_POINT ( 'NONE',  ( -19.99999999999999645, 19.99999999999999289, -6.000000000000000000 ) ) ;
#33 = EDGE_CURVE ( 'NONE', #342, #109, #274, .T. ) ;
#34 = VECTOR ( 'NONE', #301, 1000.000000000000000 ) ;
#35 = VECTOR ( 'NONE', #70, 1000.000000000000000 ) ;
#36 = LINE ( 'NONE', #157, #303 ) ;
#37 = FACE_OUTER_BOUND ( 'NONE', #374, .T. ) ;
#38 = LINE ( 'NONE', #271, #130 ) ;
#39 = DIRECTION ( 'NONE',  ( -1.000000000000000000, -2.523234146875355998E-16, 0.000000000000000000 ) ) ;
#40 = AXIS2_PLACEMENT_3D ( 'NONE', #69, #60, #214 ) ;
#41 = LINE ( 'NONE', #355, #230 ) ;
#42 = DIRECTION ( 'NONE',  ( 0.000000000000000000, 0.000000000000000000, 1.000000000000000000 ) ) ;
#43 = FACE_OUTER_BOUND ( 'NONE', #183, .T. ) ;
#44 = APPROVAL ( #233, 'UNSPECIFIED' ) ;
#45 = APPLICATION_PROTOCOL_DEFINITION ( 'international standard', 'config_control_design', 1994, #63 ) ;
#46 = VECTOR ( 'NONE', #42, 1000.000000000000000 ) ;
#47 = ORIENTED_EDGE ( 'NONE', *, *, #166, .T. ) ;
#48 = LINE ( 'NONE', #273, #11 ) ;
#49 = EDGE_CURVE ( 'NONE', #280, #23, #41, .T. ) ;
#50 = COORDINATED_UNIVERSAL_TIME_OFFSET ( 10, 0, .AHEAD. ) ;
#51 = SECURITY_CLASSIFICATION_LEVEL ( 'unclassified' ) ;
#52 = AXIS2_PLACEMENT_3D ( 'NONE', #277, #308, #7 ) ;
#53 = ORIENTED_EDGE ( 'NONE', *, *, #186, .F. ) ;
#54 = DATE_AND_TIME ( #237, #180 ) ;
#55 = ORIENTED_EDGE ( 'NONE', *, *, #224, .F. ) ;
#56 = SHAPE_DEFINITION_REPRESENTATION ( #104, #209 ) ;
#57 = DIRECTION ( 'NONE',  ( -1.067522139062650425E-16, -1.000000000000000000, -0.000000000000000000 ) ) ;
#58 = VERTEX_POINT ( 'NONE', #28 ) ;
#59 = VECTOR ( 'NONE', #153, 1000.000000000000000 ) ;
#60 = DIRECTION ( 'NONE',  ( 0.000000000000000000, 0.000000000000000000, 1.000000000000000000 ) ) ;
#61 = ORIENTED_EDGE ( 'NONE', *, *, #189, .F. ) ;
#62 = DIRECTION ( 'NONE',  ( 1.000000000000000000, 1.380510937220652473E-16, -0.000000000000000000 ) ) ;
#63 = APPLICATION_CONTEXT ( 'configuration controlled 3d designs of mechanical parts and assemblies' ) ;
#64 = CC_DESIGN_PERSON_AND_ORGANIZATION_ASSIGNMENT ( #120, #339, ( #326 ) ) ;
#65 = DIRECTION ( 'NONE',  ( 0.000000000000000000, -0.000000000000000000, 1.000000000000000000 ) ) ;
#66 = DESIGN_CONTEXT ( 'detailed design', #163, 'design' ) ;
#67 = CIRCLE ( 'NONE', #135, 7.500000000000000000 ) ;
#68 = CIRCLE ( 'NONE', #52, 20.00000000000000000 ) ;
#69 = CARTESIAN_POINT ( 'NONE',  ( -34.99999999999999289, 44.99999999999999289, -6.000000000000000000 ) ) ;
#70 = DIRECTION ( 'NONE',  ( -1.000000000000000000, -2.523234146875355998E-16, 0.000000000000000000 ) ) ;
#71 = LINE ( 'NONE', #110, #46 ) ;
#72 = DIRECTION ( 'NONE',  ( -0.000000000000000000, -0.000000000000000000, 1.000000000000000000 ) ) ;
#73 = DIRECTION ( 'NONE',  ( 1.000000000000000000, 0.000000000000000000, 0.000000000000000000 ) ) ;
#74 = ADVANCED_FACE ( 'NONE', ( #375, #113 ), #88, .T. ) ;
#75 = ORIENTED_EDGE ( 'NONE', *, *, #334, .F. ) ;
#76 = AXIS2_PLACEMENT_3D ( 'NONE', #270, #218, #158 ) ;
#77 = EDGE_CURVE ( 'NONE', #58, #121, #211, .T. ) ;
#78 = ORIENTED_EDGE ( 'NONE', *, *, #368, .T. ) ;
#79 = PERSON_AND_ORGANIZATION ( #227, #202 ) ;
#80 = CC_DESIGN_DATE_AND_TIME_ASSIGNMENT ( #261, #25, ( #326 ) ) ;
#81 = CALENDAR_DATE ( 2026, 9, 1 ) ;
#82 = EDGE_CURVE ( 'NONE', #229, #111, #255, .T. ) ;
#83 = DIRECTION ( 'NONE',  ( -0.000000000000000000, -0.000000000000000000, 1.000000000000000000 ) ) ;
#84 = CC_DESIGN_APPROVAL ( #287, ( #338 ) ) ;
#85 = ORIENTED_EDGE ( 'NONE', *, *, #249, .F. ) ;
#86 = COORDINATED_UNIVERSAL_TIME_OFFSET ( 10, 0, .AHEAD. ) ;
#87 = ADVANCED_FACE ( 'NONE', ( #37 ), #322, .T. ) ;
#88 = PLANE ( 'NONE',  #325 ) ;
#89 = EDGE_LOOP ( 'NONE', ( #124, #31, #294, #21 ) ) ;
#90 = CALENDAR_DATE ( 2026, 9, 1 ) ;
#91 = DIRECTION ( 'NONE',  ( 0.000000000000000000, -0.000000000000000000, 1.000000000000000000 ) ) ;
#92 = EDGE_LOOP ( 'NONE', ( #137, #239, #378, #119 ) ) ;
#93 = DIRECTION ( 'NONE',  ( 1.000000000000000000, 0.000000000000000000, -0.000000000000000000 ) ) ;
#94 = ORIENTED_EDGE ( 'NONE', *, *, #5, .T. ) ;
#95 = EDGE_CURVE ( 'NONE', #181, #169, #38, .T. ) ;
#96 = AXIS2_PLACEMENT_3D ( 'NONE', #366, #72, #73 ) ;
#97 = LINE ( 'NONE', #296, #318 ) ;
#98 = ORIENTED_EDGE ( 'NONE', *, *, #242, .T. ) ;
#99 = CARTESIAN_POINT ( 'NONE',  ( -19.99999999999999645, 19.99999999999999289, 1.224646799147352468E-16 ) ) ;
#100 = DIRECTION ( 'NONE',  ( 1.380510937220652473E-16, -1.000000000000000000, 0.000000000000000000 ) ) ;
#101 = VECTOR ( 'NONE', #190, 1000.000000000000000 ) ;
#102 = LINE ( 'NONE', #129, #35 ) ;
#103 = CYLINDRICAL_SURFACE ( 'NONE', #160, 20.00000000000000000 ) ;
#104 = PRODUCT_DEFINITION_SHAPE ( 'NONE', 'NONE',  #326 ) ;
#105 = DIRECTION ( 'NONE',  ( 0.000000000000000000, -0.000000000000000000, 1.000000000000000000 ) ) ;
#106 = EDGE_CURVE ( 'NONE', #58, #362, #324, .T. ) ;
#107 = CYLINDRICAL_SURFACE ( 'NONE', #309, 7.500000000000000000 ) ;
#108 = SECURITY_CLASSIFICATION ( '', '', #51 ) ;
#109 = VERTEX_POINT ( 'NONE', #155 ) ;
#110 = CARTESIAN_POINT ( 'NONE',  ( 0.000000000000000000, 65.00000000000000000, -6.000000000000000000 ) ) ;
#111 = VERTEX_POINT ( 'NONE', #99 ) ;
#112 = CARTESIAN_POINT ( 'NONE',  ( -20.00000000000000000, 19.99999999999999645, 0.000000000000000000 ) ) ;
#113 = FACE_OUTER_BOUND ( 'NONE', #122, .T. ) ;
#114 = PERSON_AND_ORGANIZATION ( #227, #202 ) ;
#115 = ORIENTED_EDGE ( 'NONE', *, *, #82, .F. ) ;
#116 = AXIS2_PLACEMENT_3D ( 'NONE', #178, #290, #26 ) ;
#117 = AXIS2_PLACEMENT_3D ( 'NONE', #293, #65, #248 ) ;
#118 = APPROVAL_PERSON_ORGANIZATION ( #142, #44, #175 ) ;
#119 = ORIENTED_EDGE ( 'NONE', *, *, #33, .F. ) ;
#120 = PERSON_AND_ORGANIZATION ( #227, #202 ) ;
#121 = VERTEX_POINT ( 'NONE', #380 ) ;
#122 = EDGE_LOOP ( 'NONE', ( #164, #143, #78, #352, #257, #337 ) ) ;
#123 = CARTESIAN_POINT ( 'NONE',  ( -55.00000000000000000, -7.592810154713588652E-15, -6.000000000000000000 ) ) ;
#124 = ORIENTED_EDGE ( 'NONE', *, *, #49, .F. ) ;
#125 = CC_DESIGN_APPROVAL ( #44, ( #326 ) ) ;
#126 = FACE_OUTER_BOUND ( 'NONE', #14, .T. ) ;
#127 = CARTESIAN_POINT ( 'NONE',  ( -27.49999999999999645, 19.99999999999999289, -6.000000000000000000 ) ) ;
#128 = ADVANCED_FACE ( 'NONE', ( #126 ), #243, .T. ) ;
#129 = CARTESIAN_POINT ( 'NONE',  ( 0.000000000000000000, 65.00000000000000000, 0.000000000000000000 ) ) ;
#130 = VECTOR ( 'NONE', #327, 1000.000000000000000 ) ;
#131 = LOCAL_TIME ( 13, 48, 1.000000000000000000, #283 ) ;
#132 = FACE_OUTER_BOUND ( 'NONE', #238, .T. ) ;
#133 = CARTESIAN_POINT ( 'NONE',  ( -55.00000000000000000, -7.592810154713588652E-15, -6.000000000000000000 ) ) ;
#134 = LINE ( 'NONE', #364, #304 ) ;
#135 = AXIS2_PLACEMENT_3D ( 'NONE', #377, #265, #221 ) ;
#136 = CIRCLE ( 'NONE', #319, 20.00000000000000000 ) ;
#137 = ORIENTED_EDGE ( 'NONE', *, *, #166, .F. ) ;
#138 = DIRECTION ( 'NONE',  ( 1.000000000000000000, 0.000000000000000000, 0.000000000000000000 ) ) ;
#139 = LINE ( 'NONE', #167, #101 ) ;
#140 = DIRECTION ( 'NONE',  ( -1.067522139062650425E-16, -1.000000000000000000, -0.000000000000000000 ) ) ;
#141 = APPROVAL_PERSON_ORGANIZATION ( #79, #287, #177 ) ;
#142 = PERSON_AND_ORGANIZATION ( #227, #202 ) ;
#143 = ORIENTED_EDGE ( 'NONE', *, *, #373, .T. ) ;
#144 = PERSON_AND_ORGANIZATION_ROLE ( 'design_owner' ) ;
#145 = ORIENTED_EDGE ( 'NONE', *, *, #266, .F. ) ;
#146 = PERSON_AND_ORGANIZATION ( #227, #202 ) ;
#147 = CIRCLE ( 'NONE', #201, 7.500000000000000000 ) ;
#148 = AXIS2_PLACEMENT_3D ( 'NONE', #170, #162, #194 ) ;
#149 = CARTESIAN_POINT ( 'NONE',  ( -34.99999999999999289, 19.99999999999999289, 1.224646799147352468E-16 ) ) ;
#150 = EDGE_CURVE ( 'NONE', #111, #23, #67, .T. ) ;
#151 = FACE_OUTER_BOUND ( 'NONE', #376, .T. ) ;
#152 = ADVANCED_FACE ( 'NONE', ( #184 ), #216, .T. ) ;
#153 = DIRECTION ( 'NONE',  ( -0.000000000000000000, -0.000000000000000000, 1.000000000000000000 ) ) ;
#154 = ORIENTED_EDGE ( 'NONE', *, *, #242, .F. ) ;
#155 = CARTESIAN_POINT ( 'NONE',  ( -19.99999999999999645, -2.761021874441304355E-15, 0.000000000000000000 ) ) ;
#156 = CC_DESIGN_SECURITY_CLASSIFICATION ( #108, ( #338 ) ) ;
#157 = CARTESIAN_POINT ( 'NONE',  ( 0.000000000000000000, 19.99999999999999645, -6.000000000000000000 ) ) ;
#158 = DIRECTION ( 'NONE',  ( -1.000000000000000000, -2.523234146875355998E-16, 0.000000000000000000 ) ) ;
#159 = DIRECTION ( 'NONE',  ( -0.000000000000000000, -0.000000000000000000, -1.000000000000000000 ) ) ;
#160 = AXIS2_PLACEMENT_3D ( 'NONE', #240, #350, #185 ) ;
#161 = FACE_OUTER_BOUND ( 'NONE', #89, .T. ) ;
#162 = DIRECTION ( 'NONE',  ( -0.000000000000000000, -0.000000000000000000, 1.000000000000000000 ) ) ;
#163 = APPLICATION_CONTEXT ( 'configuration controlled 3d designs of mechanical parts and assemblies' ) ;
#164 = ORIENTED_EDGE ( 'NONE', *, *, #224, .T. ) ;
#165 =( NAMED_UNIT ( * ) PLANE_ANGLE_UNIT ( ) SI_UNIT ( $, .RADIAN. ) );
#166 = EDGE_CURVE ( 'NONE', #181, #342, #379, .T. ) ;
#167 = CARTESIAN_POINT ( 'NONE',  ( 0.000000000000000000, 0.000000000000000000, -6.000000000000000000 ) ) ;
#168 = CC_DESIGN_PERSON_AND_ORGANIZATION_ASSIGNMENT ( #146, #200, ( #338 ) ) ;
#169 = VERTEX_POINT ( 'NONE', #182 ) ;
#170 = CARTESIAN_POINT ( 'NONE',  ( -27.49999999999999645, 19.99999999999999289, 0.000000000000000000 ) ) ;
#171 = EDGE_LOOP ( 'NONE', ( #264, #369, #94, #176 ) ) ;
#172 = APPROVAL_DATE_TIME ( #315, #336 ) ;
#173 = EDGE_CURVE ( 'NONE', #281, #215, #298, .T. ) ;
#174 = ORIENTED_EDGE ( 'NONE', *, *, #340, .T. ) ;
#175 = APPROVAL_ROLE ( '' ) ;
#176 = ORIENTED_EDGE ( 'NONE', *, *, #189, .T. ) ;
#177 = APPROVAL_ROLE ( '' ) ;
#178 = CARTESIAN_POINT ( 'NONE',  ( 0.000000000000000000, 0.000000000000000000, -6.000000000000000000 ) ) ;
#179 = VECTOR ( 'NONE', #57, 1000.000000000000000 ) ;
#180 = LOCAL_TIME ( 13, 48, 1.000000000000000000, #86 ) ;
#181 = VERTEX_POINT ( 'NONE', #357 ) ;
#182 = CARTESIAN_POINT ( 'NONE',  ( 0.000000000000000000, 65.00000000000000000, -6.000000000000000000 ) ) ;
#183 = EDGE_LOOP ( 'NONE', ( #154, #210, #288, #115 ) ) ;
#184 = FACE_OUTER_BOUND ( 'NONE', #228, .T. ) ;
#185 = DIRECTION ( 'NONE',  ( 1.000000000000000000, 0.000000000000000000, 0.000000000000000000 ) ) ;
#186 = EDGE_CURVE ( 'NONE', #371, #215, #102, .T. ) ;
#187 = CARTESIAN_POINT ( 'NONE',  ( -20.00000000000000000, 19.99999999999999645, -6.000000000000000000 ) ) ;
#188 = DIRECTION ( 'NONE',  ( 0.000000000000000000, 0.000000000000000000, 1.000000000000000000 ) ) ;
#189 = EDGE_CURVE ( 'NONE', #203, #121, #354, .T. ) ;
#190 = DIRECTION ( 'NONE',  ( 1.000000000000000000, 1.380510937220652473E-16, -0.000000000000000000 ) ) ;
#191 = CIRCLE ( 'NONE', #223, 7.500000000000000000 ) ;
#192 = CIRCLE ( 'NONE', #96, 7.500000000000000000 ) ;
#193 = DIRECTION ( 'NONE',  ( 0.000000000000000000, -0.000000000000000000, 1.000000000000000000 ) ) ;
#194 = DIRECTION ( 'NONE',  ( 1.000000000000000000, 0.000000000000000000, 0.000000000000000000 ) ) ;
#195 = UNCERTAINTY_MEASURE_WITH_UNIT (LENGTH_MEASURE( 1.000000000000000082E-05 ), #275, 'distance_accuracy_value', 'NONE');
#196 = ORIENTED_EDGE ( 'NONE', *, *, #353, .T. ) ;
#197 = FACE_OUTER_BOUND ( 'NONE', #171, .T. ) ;
#198 = LOCAL_TIME ( 13, 48, 1.000000000000000000, #204 ) ;
#199 = COORDINATED_UNIVERSAL_TIME_OFFSET ( 10, 0, .AHEAD. ) ;
#200 = PERSON_AND_ORGANIZATION_ROLE ( 'design_supplier' ) ;
#201 = AXIS2_PLACEMENT_3D ( 'NONE', #262, #244, #297 ) ;
#202 = ORGANIZATION ( 'UNSPECIFIED', 'UNSPECIFIED', '' ) ;
#203 = VERTEX_POINT ( 'NONE', #300 ) ;
#204 = COORDINATED_UNIVERSAL_TIME_OFFSET ( 10, 0, .AHEAD. ) ;
#205 = CARTESIAN_POINT ( 'NONE',  ( 0.000000000000000000, 0.000000000000000000, 0.000000000000000000 ) ) ;
#206 = ADVANCED_FACE ( 'NONE', ( #272, #132 ), #323, .F. ) ;
#207 = LINE ( 'NONE', #292, #179 ) ;
#208 = PERSON_AND_ORGANIZATION_ROLE ( 'creator' ) ;
#209 = ADVANCED_BREP_SHAPE_REPRESENTATION ( '4229-50-20-20_REV_', ( #299, #291 ), #284 ) ;
#210 = ORIENTED_EDGE ( 'NONE', *, *, #49, .T. ) ;
#211 = LINE ( 'NONE', #17, #212 ) ;
#212 = VECTOR ( 'NONE', #140, 1000.000000000000000 ) ;
#213 = ORIENTED_EDGE ( 'NONE', *, *, #232, .T. ) ;
#214 = DIRECTION ( 'NONE',  ( 1.000000000000000000, 0.000000000000000000, 0.000000000000000000 ) ) ;
#215 = VERTEX_POINT ( 'NONE', #358 ) ;
#216 = CYLINDRICAL_SURFACE ( 'NONE', #40, 20.00000000000000000 ) ;
#217 = CC_DESIGN_PERSON_AND_ORGANIZATION_ASSIGNMENT ( #114, #144, ( #363 ) ) ;
#218 = DIRECTION ( 'NONE',  ( -2.523234146875355998E-16, 1.000000000000000000, 0.000000000000000000 ) ) ;
#219 = DIRECTION ( 'NONE',  ( 1.000000000000000000, 0.000000000000000000, 0.000000000000000000 ) ) ;
#220 = ADVANCED_FACE ( 'NONE', ( #30 ), #103, .T. ) ;
#221 = DIRECTION ( 'NONE',  ( 1.000000000000000000, 0.000000000000000000, 0.000000000000000000 ) ) ;
#222 = DIRECTION ( 'NONE',  ( 1.000000000000000000, 0.000000000000000000, 0.000000000000000000 ) ) ;
#223 = AXIS2_PLACEMENT_3D ( 'NONE', #127, #333, #138 ) ;
#224 = EDGE_CURVE ( 'NONE', #121, #109, #97, .T. ) ;
#225 = CARTESIAN_POINT ( 'NONE',  ( 0.000000000000000000, 65.00000000000000000, 0.000000000000000000 ) ) ;
#226 = ORIENTED_EDGE ( 'NONE', *, *, #33, .T. ) ;
#227 = PERSON ( 'UNSPECIFIED', 'UNSPECIFIED', 'UNSPECIFIED', ('UNSPECIFIED'), ('UNSPECIFIED'), ('UNSPECIFIED') ) ;
#228 = EDGE_LOOP ( 'NONE', ( #75, #335, #145, #260 ) ) ;
#229 = VERTEX_POINT ( 'NONE', #32 ) ;
#230 = VECTOR ( 'NONE', #83, 1000.000000000000000 ) ;
#231 = APPROVAL_STATUS ( 'not_yet_approved' ) ;
#232 = EDGE_CURVE ( 'NONE', #332, #181, #36, .T. ) ;
#233 = APPROVAL_STATUS ( 'not_yet_approved' ) ;
#234 = ORIENTED_EDGE ( 'NONE', *, *, #150, .F. ) ;
#235 = APPROVAL_STATUS ( 'not_yet_approved' ) ;
#236 = EDGE_LOOP ( 'NONE', ( #285, #98 ) ) ;
#237 = CALENDAR_DATE ( 2026, 9, 1 ) ;
#238 = EDGE_LOOP ( 'NONE', ( #267, #47, #85, #345, #320, #241 ) ) ;
#239 = ORIENTED_EDGE ( 'NONE', *, *, #232, .F. ) ;
#240 = CARTESIAN_POINT ( 'NONE',  ( -20.00000000000000000, 19.99999999999999645, -6.000000000000000000 ) ) ;
#241 = ORIENTED_EDGE ( 'NONE', *, *, #340, .F. ) ;
#242 = EDGE_CURVE ( 'NONE', #280, #229, #191, .T. ) ;
#243 = PLANE ( 'NONE',  #76 ) ;
#244 = DIRECTION ( 'NONE',  ( 0.000000000000000000, -0.000000000000000000, 1.000000000000000000 ) ) ;
#245 = CARTESIAN_POINT ( 'NONE',  ( -54.99999999999999289, 44.99999999999999289, -6.000000000000000000 ) ) ;
#246 = DIRECTION ( 'NONE',  ( -0.000000000000000000, 0.000000000000000000, -1.000000000000000000 ) ) ;
#247 = AXIS2_PLACEMENT_3D ( 'NONE', #356, #100, #4 ) ;
#248 = DIRECTION ( 'NONE',  ( 1.000000000000000000, 0.000000000000000000, -0.000000000000000000 ) ) ;
#249 = EDGE_CURVE ( 'NONE', #203, #342, #139, .T. ) ;
#250 = CYLINDRICAL_SURFACE ( 'NONE', #148, 7.500000000000000000 ) ;
#251 = CARTESIAN_POINT ( 'NONE',  ( -35.00000000000000000, 64.99999999999998579, -6.000000000000000000 ) ) ;
#252 = DIRECTION ( 'NONE',  ( 0.000000000000000000, 1.000000000000000000, 0.000000000000000000 ) ) ;
#253 = CALENDAR_DATE ( 2026, 9, 1 ) ;
#254 = AXIS2_PLACEMENT_3D ( 'NONE', #187, #246, #219 ) ;
#255 = LINE ( 'NONE', #268, #59 ) ;
#256 = CC_DESIGN_DATE_AND_TIME_ASSIGNMENT ( #54, #311, ( #108 ) ) ;
#257 = ORIENTED_EDGE ( 'NONE', *, *, #266, .T. ) ;
#258 = EDGE_CURVE ( 'NONE', #23, #111, #192, .T. ) ;
#259 = APPROVAL_DATE_TIME ( #346, #287 ) ;
#260 = ORIENTED_EDGE ( 'NONE', *, *, #173, .F. ) ;
#261 = DATE_AND_TIME ( #90, #131 ) ;
#262 = CARTESIAN_POINT ( 'NONE',  ( -27.49999999999999645, 19.99999999999999289, -6.000000000000000000 ) ) ;
#263 = APPROVAL_DATE_TIME ( #19, #44 ) ;
#264 = ORIENTED_EDGE ( 'NONE', *, *, #77, .F. ) ;
#265 = DIRECTION ( 'NONE',  ( -0.000000000000000000, -0.000000000000000000, 1.000000000000000000 ) ) ;
#266 = EDGE_CURVE ( 'NONE', #215, #58, #136, .T. ) ;
#267 = ORIENTED_EDGE ( 'NONE', *, *, #95, .F. ) ;
#268 = CARTESIAN_POINT ( 'NONE',  ( -19.99999999999999645, 19.99999999999999289, 0.000000000000000000 ) ) ;
#269 = AXIS2_PLACEMENT_3D ( 'NONE', #112, #105, #331 ) ;
#270 = CARTESIAN_POINT ( 'NONE',  ( 0.000000000000000000, 65.00000000000000000, -6.000000000000000000 ) ) ;
#271 = CARTESIAN_POINT ( 'NONE',  ( 0.000000000000000000, 0.000000000000000000, -6.000000000000000000 ) ) ;
#272 = FACE_BOUND ( 'NONE', #236, .T. ) ;
#273 = CARTESIAN_POINT ( 'NONE',  ( 0.000000000000000000, 0.000000000000000000, 0.000000000000000000 ) ) ;
#274 = LINE ( 'NONE', #328, #34 ) ;
#275 =( LENGTH_UNIT ( ) NAMED_UNIT ( * ) SI_UNIT ( .MILLI., .METRE. ) );
#276 = ADVANCED_FACE ( 'NONE', ( #197 ), #360, .T. ) ;
#277 = CARTESIAN_POINT ( 'NONE',  ( -34.99999999999999289, 44.99999999999999289, -6.000000000000000000 ) ) ;
#278 = VECTOR ( 'NONE', #188, 1000.000000000000000 ) ;
#279 = CARTESIAN_POINT ( 'NONE',  ( -19.99999999999999645, -2.761021874441304355E-15, -6.000000000000000000 ) ) ;
#280 = VERTEX_POINT ( 'NONE', #329 ) ;
#281 = VERTEX_POINT ( 'NONE', #251 ) ;
#282 = CALENDAR_DATE ( 2026, 9, 1 ) ;
#283 = COORDINATED_UNIVERSAL_TIME_OFFSET ( 10, 0, .AHEAD. ) ;
#284 =( GEOMETRIC_REPRESENTATION_CONTEXT ( 3 ) GLOBAL_UNCERTAINTY_ASSIGNED_CONTEXT ( ( #195 ) ) GLOBAL_UNIT_ASSIGNED_CONTEXT ( ( #275, #165, #15 ) ) REPRESENTATION_CONTEXT ( 'NONE', 'WORKASPACE' ) );
#285 = ORIENTED_EDGE ( 'NONE', *, *, #24, .T. ) ;
#286 = CARTESIAN_POINT ( 'NONE',  ( 0.000000000000000000, 0.000000000000000000, 0.000000000000000000 ) ) ;
#287 = APPROVAL ( #231, 'UNSPECIFIED' ) ;
#288 = ORIENTED_EDGE ( 'NONE', *, *, #258, .T. ) ;
#289 = PERSON_AND_ORGANIZATION ( #227, #202 ) ;
#290 = DIRECTION ( 'NONE',  ( 1.000000000000000000, 0.000000000000000000, 0.000000000000000000 ) ) ;
#291 = AXIS2_PLACEMENT_3D ( 'NONE', #286, #372, #27 ) ;
#292 = CARTESIAN_POINT ( 'NONE',  ( -55.00000000000000000, -7.592810154713588652E-15, -6.000000000000000000 ) ) ;
#293 = CARTESIAN_POINT ( 'NONE',  ( 0.000000000000000000, 0.000000000000000000, -6.000000000000000000 ) ) ;
#294 = ORIENTED_EDGE ( 'NONE', *, *, #82, .T. ) ;
#295 = CARTESIAN_POINT ( 'NONE',  ( -35.00000000000000000, 64.99999999999998579, -6.000000000000000000 ) ) ;
#296 = CARTESIAN_POINT ( 'NONE',  ( 0.000000000000000000, 0.000000000000000000, 0.000000000000000000 ) ) ;
#297 = DIRECTION ( 'NONE',  ( 1.000000000000000000, 0.000000000000000000, 0.000000000000000000 ) ) ;
#298 = LINE ( 'NONE', #295, #361 ) ;
#299 = MANIFOLD_SOLID_BREP ( 'Fillet1', #3 ) ;
#300 = CARTESIAN_POINT ( 'NONE',  ( -55.00000000000000000, -7.592810154713588652E-15, -6.000000000000000000 ) ) ;
#301 = DIRECTION ( 'NONE',  ( -0.000000000000000000, 0.000000000000000000, 1.000000000000000000 ) ) ;
#302 = CARTESIAN_POINT ( 'NONE',  ( -27.49999999999999645, 19.99999999999999289, 0.000000000000000000 ) ) ;
#303 = VECTOR ( 'NONE', #1, 1000.000000000000000 ) ;
#304 = VECTOR ( 'NONE', #39, 1000.000000000000000 ) ;
#305 = DIRECTION ( 'NONE',  ( -1.067522139062650302E-16, -1.000000000000000000, 0.000000000000000000 ) ) ;
#306 = ADVANCED_FACE ( 'NONE', ( #161 ), #107, .F. ) ;
#307 = ORIENTED_EDGE ( 'NONE', *, *, #258, .F. ) ;
#308 = DIRECTION ( 'NONE',  ( -0.000000000000000000, 0.000000000000000000, -1.000000000000000000 ) ) ;
#309 = AXIS2_PLACEMENT_3D ( 'NONE', #302, #9, #13 ) ;
#310 = CARTESIAN_POINT ( 'NONE',  ( 0.000000000000000000, 19.99999999999999645, 0.000000000000000000 ) ) ;
#311 = DATE_TIME_ROLE ( 'classification_date' ) ;
#312 = MECHANICAL_CONTEXT ( 'NONE', #63, 'mechanical' ) ;
#313 = LOCAL_TIME ( 13, 48, 1.000000000000000000, #50 ) ;
#314 = ORIENTED_EDGE ( 'NONE', *, *, #353, .F. ) ;
#315 = DATE_AND_TIME ( #253, #313 ) ;
#316 = PLANE ( 'NONE',  #116 ) ;
#317 = EDGE_LOOP ( 'NONE', ( #234, #307 ) ) ;
#318 = VECTOR ( 'NONE', #62, 1000.000000000000000 ) ;
#319 = AXIS2_PLACEMENT_3D ( 'NONE', #365, #193, #222 ) ;
#320 = ORIENTED_EDGE ( 'NONE', *, *, #334, .T. ) ;
#321 = CC_DESIGN_PERSON_AND_ORGANIZATION_ASSIGNMENT ( #289, #208, ( #338 ) ) ;
#322 = PLANE ( 'NONE',  #247 ) ;
#323 = PLANE ( 'NONE',  #117 ) ;
#324 = LINE ( 'NONE', #245, #349 ) ;
#325 = AXIS2_PLACEMENT_3D ( 'NONE', #205, #91, #93 ) ;
#326 = PRODUCT_DEFINITION ( 'UNKNOWN', '', #338, #66 ) ;
#327 = DIRECTION ( 'NONE',  ( 0.000000000000000000, 1.000000000000000000, 0.000000000000000000 ) ) ;
#328 = CARTESIAN_POINT ( 'NONE',  ( -19.99999999999999645, -2.761021874441304355E-15, -6.000000000000000000 ) ) ;
#329 = CARTESIAN_POINT ( 'NONE',  ( -34.99999999999999289, 19.99999999999999289, -6.000000000000000000 ) ) ;
#330 = CC_DESIGN_APPROVAL ( #336, ( #108 ) ) ;
#331 = DIRECTION ( 'NONE',  ( 1.000000000000000000, 0.000000000000000000, 0.000000000000000000 ) ) ;
#332 = VERTEX_POINT ( 'NONE', #310 ) ;
#333 = DIRECTION ( 'NONE',  ( 0.000000000000000000, -0.000000000000000000, 1.000000000000000000 ) ) ;
#334 = EDGE_CURVE ( 'NONE', #362, #281, #68, .T. ) ;
#335 = ORIENTED_EDGE ( 'NONE', *, *, #106, .F. ) ;
#336 = APPROVAL ( #235, 'UNSPECIFIED' ) ;
#337 = ORIENTED_EDGE ( 'NONE', *, *, #77, .T. ) ;
#338 = PRODUCT_DEFINITION_FORMATION_WITH_SPECIFIED_SOURCE ( 'ANY', '', #363, .NOT_KNOWN. ) ;
#339 = PERSON_AND_ORGANIZATION_ROLE ( 'creator' ) ;
#340 = EDGE_CURVE ( 'NONE', #169, #281, #134, .T. ) ;
#341 = APPLICATION_PROTOCOL_DEFINITION ( 'international standard', 'config_control_design', 1994, #163 ) ;
#342 = VERTEX_POINT ( 'NONE', #279 ) ;
#343 = APPROVAL_ROLE ( '' ) ;
#344 = AXIS2_PLACEMENT_3D ( 'NONE', #133, #10, #305 ) ;
#345 = ORIENTED_EDGE ( 'NONE', *, *, #5, .F. ) ;
#346 = DATE_AND_TIME ( #81, #18 ) ;
#347 = ORIENTED_EDGE ( 'NONE', *, *, #173, .T. ) ;
#348 = ORIENTED_EDGE ( 'NONE', *, *, #368, .F. ) ;
#349 = VECTOR ( 'NONE', #159, 1000.000000000000000 ) ;
#350 = DIRECTION ( 'NONE',  ( -0.000000000000000000, 0.000000000000000000, 1.000000000000000000 ) ) ;
#351 = CIRCLE ( 'NONE', #269, 20.00000000000000000 ) ;
#352 = ORIENTED_EDGE ( 'NONE', *, *, #186, .T. ) ;
#353 = EDGE_CURVE ( 'NONE', #169, #371, #71, .T. ) ;
#354 = LINE ( 'NONE', #123, #278 ) ;
#355 = CARTESIAN_POINT ( 'NONE',  ( -34.99999999999999289, 19.99999999999999289, 0.000000000000000000 ) ) ;
#356 = CARTESIAN_POINT ( 'NONE',  ( 0.000000000000000000, 0.000000000000000000, -6.000000000000000000 ) ) ;
#357 = CARTESIAN_POINT ( 'NONE',  ( 0.000000000000000000, 19.99999999999999645, -6.000000000000000000 ) ) ;
#358 = CARTESIAN_POINT ( 'NONE',  ( -35.00000000000000000, 64.99999999999998579, 0.000000000000000000 ) ) ;
#359 = CARTESIAN_POINT ( 'NONE',  ( -54.99999999999999289, 44.99999999999999289, -6.000000000000000000 ) ) ;
#360 = PLANE ( 'NONE',  #344 ) ;
#361 = VECTOR ( 'NONE', #2, 1000.000000000000000 ) ;
#362 = VERTEX_POINT ( 'NONE', #359 ) ;
#363 = PRODUCT ( '4229-50-20-20_REV_', '4229-50-20-20_REV_', '', ( #312 ) ) ;
#364 = CARTESIAN_POINT ( 'NONE',  ( 0.000000000000000000, 65.00000000000000000, -6.000000000000000000 ) ) ;
#365 = CARTESIAN_POINT ( 'NONE',  ( -34.99999999999999289, 44.99999999999999289, 0.000000000000000000 ) ) ;
#366 = CARTESIAN_POINT ( 'NONE',  ( -27.49999999999999645, 19.99999999999999289, 1.224646799147352468E-16 ) ) ;
#367 = PERSON_AND_ORGANIZATION ( #227, #202 ) ;
#368 = EDGE_CURVE ( 'NONE', #332, #371, #48, .T. ) ;
#369 = ORIENTED_EDGE ( 'NONE', *, *, #106, .T. ) ;
#370 = PERSON_AND_ORGANIZATION ( #227, #202 ) ;
#371 = VERTEX_POINT ( 'NONE', #225 ) ;
#372 = DIRECTION ( 'NONE',  ( 0.000000000000000000, 0.000000000000000000, 1.000000000000000000 ) ) ;
#373 = EDGE_CURVE ( 'NONE', #109, #332, #351, .T. ) ;
#374 = EDGE_LOOP ( 'NONE', ( #29, #226, #55, #61 ) ) ;
#375 = FACE_BOUND ( 'NONE', #317, .T. ) ;
#376 = EDGE_LOOP ( 'NONE', ( #348, #213, #16, #196 ) ) ;
#377 = CARTESIAN_POINT ( 'NONE',  ( -27.49999999999999645, 19.99999999999999289, 1.224646799147352468E-16 ) ) ;
#378 = ORIENTED_EDGE ( 'NONE', *, *, #373, .F. ) ;
#379 = CIRCLE ( 'NONE', #254, 20.00000000000000000 ) ;
#380 = CARTESIAN_POINT ( 'NONE',  ( -55.00000000000000000, -7.592810154713588652E-15, 0.000000000000000000 ) ) ;
#381 = ADVANCED_FACE ( 'NONE', ( #43 ), #250, .F. ) ;
ENDSEC;
END-ISO-10303-21;
