ISO-10303-21;
HEADER;
FILE_DESCRIPTION (( 'STEP AP203' ),
    '1' );
FILE_NAME ('4229-50-20-25_REV_.step',
    '2026-01-09T02:47:11',
    ( '' ),
    ( '' ),
    'SwSTEP 2.0',
    'SolidWorks 2025',
    '' );
FILE_SCHEMA (( 'CONFIG_CONTROL_DESIGN' ));
ENDSEC;

DATA;
#1 = DIRECTION ( 'NONE',  ( 0.000000000000000000, 0.000000000000000000, 1.000000000000000000 ) ) ;
#2 = EDGE_CURVE ( 'NONE', #41, #82, #94, .T. ) ;
#3 = ORIENTED_EDGE ( 'NONE', *, *, #99, .T. ) ;
#4 = ORIENTED_EDGE ( 'NONE', *, *, #305, .T. ) ;
#5 = EDGE_CURVE ( 'NONE', #235, #303, #290, .T. ) ;
#6 = DATE_AND_TIME ( #176, #146 ) ;
#7 = COORDINATED_UNIVERSAL_TIME_OFFSET ( 10, 0, .AHEAD. ) ;
#8 = CYLINDRICAL_SURFACE ( 'NONE', #182, 7.499999999999996447 ) ;
#9 =( LENGTH_UNIT ( ) NAMED_UNIT ( * ) SI_UNIT ( .MILLI., .METRE. ) );
#10 = DIRECTION ( 'NONE',  ( 0.000000000000000000, 0.000000000000000000, 1.000000000000000000 ) ) ;
#11 = DIRECTION ( 'NONE',  ( 1.000000000000000000, 0.000000000000000000, 0.000000000000000000 ) ) ;
#12 = VECTOR ( 'NONE', #285, 1000.000000000000000 ) ;
#13 = LOCAL_TIME ( 13, 47, 11.00000000000000000, #240 ) ;
#14 = DIRECTION ( 'NONE',  ( 1.000000000000000000, 1.201540255767214463E-16, 0.000000000000000000 ) ) ;
#15 = DATE_AND_TIME ( #208, #251 ) ;
#16 = ORIENTED_EDGE ( 'NONE', *, *, #234, .F. ) ;
#17 = CARTESIAN_POINT ( 'NONE',  ( -26.50000000000000711, 19.99999999999999289, 1.224646799147352468E-16 ) ) ;
#18 = ORIENTED_EDGE ( 'NONE', *, *, #234, .T. ) ;
#19 = CARTESIAN_POINT ( 'NONE',  ( -53.00000000000000000, -6.368163355566236381E-15, -6.000000000000000000 ) ) ;
#20 = CARTESIAN_POINT ( 'NONE',  ( -53.00000000000000000, -6.368163355566236381E-15, 0.000000000000000000 ) ) ;
#21 = LOCAL_TIME ( 13, 47, 11.00000000000000000, #7 ) ;
#22 = APPROVAL ( #147, 'UNSPECIFIED' ) ;
#23 = ORIENTED_EDGE ( 'NONE', *, *, #284, .T. ) ;
#24 = ORIENTED_EDGE ( 'NONE', *, *, #311, .F. ) ;
#25 = EDGE_LOOP ( 'NONE', ( #166, #224, #140, #47 ) ) ;
#26 = CLOSED_SHELL ( 'NONE', ( #209, #132, #141, #297, #139, #74, #109, #137 ) ) ;
#27 = COORDINATED_UNIVERSAL_TIME_OFFSET ( 10, 0, .AHEAD. ) ;
#28 = PLANE ( 'NONE',  #104 ) ;
#29 =( NAMED_UNIT ( * ) SI_UNIT ( $, .STERADIAN. ) SOLID_ANGLE_UNIT ( ) );
#30 = CARTESIAN_POINT ( 'NONE',  ( -26.50000000000000711, 19.99999999999999289, 0.000000000000000000 ) ) ;
#31 = COORDINATED_UNIVERSAL_TIME_OFFSET ( 10, 0, .AHEAD. ) ;
#32 = PRODUCT_DEFINITION ( 'UNKNOWN', '', #185, #163 ) ;
#33 = DIRECTION ( 'NONE',  ( 0.000000000000000000, 0.000000000000000000, 1.000000000000000000 ) ) ;
#34 = DIRECTION ( 'NONE',  ( 0.000000000000000000, 0.000000000000000000, 1.000000000000000000 ) ) ;
#35 = FACE_OUTER_BOUND ( 'NONE', #205, .T. ) ;
#36 = ORIENTED_EDGE ( 'NONE', *, *, #213, .T. ) ;
#37 = AXIS2_PLACEMENT_3D ( 'NONE', #171, #268, #150 ) ;
#38 = CIRCLE ( 'NONE', #299, 7.499999999999996447 ) ;
#39 = LINE ( 'NONE', #131, #160 ) ;
#40 = CARTESIAN_POINT ( 'NONE',  ( -53.00000000000000000, 39.99999999999998579, -6.000000000000000000 ) ) ;
#41 = VERTEX_POINT ( 'NONE', #19 ) ;
#42 = DIRECTION ( 'NONE',  ( -3.469446951953613696E-16, 1.000000000000000000, 0.000000000000000000 ) ) ;
#43 = EDGE_CURVE ( 'NONE', #215, #192, #262, .T. ) ;
#44 = ORIENTED_EDGE ( 'NONE', *, *, #219, .T. ) ;
#45 = FACE_BOUND ( 'NONE', #257, .T. ) ;
#46 = CARTESIAN_POINT ( 'NONE',  ( -53.00000000000000000, -6.368163355566236381E-15, -6.000000000000000000 ) ) ;
#47 = ORIENTED_EDGE ( 'NONE', *, *, #5, .T. ) ;
#48 = DIRECTION ( 'NONE',  ( 1.000000000000000000, 0.000000000000000000, 0.000000000000000000 ) ) ;
#49 = LINE ( 'NONE', #125, #151 ) ;
#50 = PERSON_AND_ORGANIZATION ( #78, #67 ) ;
#51 = CARTESIAN_POINT ( 'NONE',  ( -26.50000000000000711, 19.99999999999999289, -6.000000000000000000 ) ) ;
#52 = DATE_TIME_ROLE ( 'classification_date' ) ;
#53 = VECTOR ( 'NONE', #164, 1000.000000000000000 ) ;
#54 = DIRECTION ( 'NONE',  ( 1.000000000000000000, 0.000000000000000000, 0.000000000000000000 ) ) ;
#55 = AXIS2_PLACEMENT_3D ( 'NONE', #159, #153, #179 ) ;
#56 = PRODUCT ( '4229-50-20-25_REV_', '4229-50-20-25_REV_', '', ( #167 ) ) ;
#57 = CALENDAR_DATE ( 2026, 9, 1 ) ;
#58 = CARTESIAN_POINT ( 'NONE',  ( -53.00000000000000000, -6.368163355566236381E-15, 0.000000000000000000 ) ) ;
#59 = EDGE_LOOP ( 'NONE', ( #16, #84, #80, #138 ) ) ;
#60 = DIRECTION ( 'NONE',  ( -1.000000000000000000, 0.000000000000000000, 0.000000000000000000 ) ) ;
#61 = CC_DESIGN_PERSON_AND_ORGANIZATION_ASSIGNMENT ( #50, #294, ( #185 ) ) ;
#62 = VERTEX_POINT ( 'NONE', #184 ) ;
#63 = DIRECTION ( 'NONE',  ( -3.469446951953613696E-16, 1.000000000000000000, 0.000000000000000000 ) ) ;
#64 = ORIENTED_EDGE ( 'NONE', *, *, #237, .F. ) ;
#65 = CARTESIAN_POINT ( 'NONE',  ( -1.387778780781445676E-14, 40.00000000000000711, -6.000000000000000000 ) ) ;
#66 = CC_DESIGN_PERSON_AND_ORGANIZATION_ASSIGNMENT ( #170, #267, ( #185 ) ) ;
#67 = ORGANIZATION ( 'UNSPECIFIED', 'UNSPECIFIED', '' ) ;
#68 = EDGE_LOOP ( 'NONE', ( #261, #203, #91, #3 ) ) ;
#69 = CARTESIAN_POINT ( 'NONE',  ( 0.000000000000000000, 0.000000000000000000, -6.000000000000000000 ) ) ;
#70 = CARTESIAN_POINT ( 'NONE',  ( 0.000000000000000000, 0.000000000000000000, -6.000000000000000000 ) ) ;
#71 = DIRECTION ( 'NONE',  ( 0.000000000000000000, 0.000000000000000000, 1.000000000000000000 ) ) ;
#72 = CALENDAR_DATE ( 2026, 9, 1 ) ;
#73 = APPROVAL_DATE_TIME ( #293, #117 ) ;
#74 = ADVANCED_FACE ( 'NONE', ( #286, #90 ), #186, .F. ) ;
#75 = PERSON_AND_ORGANIZATION ( #78, #67 ) ;
#76 = PERSON_AND_ORGANIZATION ( #78, #67 ) ;
#77 = PLANE ( 'NONE',  #100 ) ;
#78 = PERSON ( 'UNSPECIFIED', 'UNSPECIFIED', 'UNSPECIFIED', ('UNSPECIFIED'), ('UNSPECIFIED'), ('UNSPECIFIED') ) ;
#79 = CARTESIAN_POINT ( 'NONE',  ( -19.00000000000001066, 19.99999999999999289, -6.000000000000000000 ) ) ;
#80 = ORIENTED_EDGE ( 'NONE', *, *, #43, .T. ) ;
#81 = CARTESIAN_POINT ( 'NONE',  ( -53.00000000000000000, -6.368163355566236381E-15, -6.000000000000000000 ) ) ;
#82 = VERTEX_POINT ( 'NONE', #20 ) ;
#83 = CYLINDRICAL_SURFACE ( 'NONE', #191, 7.499999999999996447 ) ;
#84 = ORIENTED_EDGE ( 'NONE', *, *, #113, .F. ) ;
#85 = DIRECTION ( 'NONE',  ( 1.000000000000000000, 1.201540255767214463E-16, -0.000000000000000000 ) ) ;
#86 = CC_DESIGN_PERSON_AND_ORGANIZATION_ASSIGNMENT ( #152, #298, ( #56 ) ) ;
#87 = ORIENTED_EDGE ( 'NONE', *, *, #305, .F. ) ;
#88 = VECTOR ( 'NONE', #307, 1000.000000000000000 ) ;
#89 = APPROVAL_PERSON_ORGANIZATION ( #247, #117, #193 ) ;
#90 = FACE_OUTER_BOUND ( 'NONE', #162, .T. ) ;
#91 = ORIENTED_EDGE ( 'NONE', *, *, #106, .T. ) ;
#92 = ORIENTED_EDGE ( 'NONE', *, *, #242, .T. ) ;
#93 = VECTOR ( 'NONE', #250, 1000.000000000000000 ) ;
#94 = LINE ( 'NONE', #46, #12 ) ;
#95 = VECTOR ( 'NONE', #63, 1000.000000000000000 ) ;
#96 = PERSON_AND_ORGANIZATION ( #78, #67 ) ;
#97 = CARTESIAN_POINT ( 'NONE',  ( 0.000000000000000000, 0.000000000000000000, -6.000000000000000000 ) ) ;
#98 = DATE_TIME_ROLE ( 'creation_date' ) ;
#99 = EDGE_CURVE ( 'NONE', #158, #62, #115, .T. ) ;
#100 = AXIS2_PLACEMENT_3D ( 'NONE', #272, #107, #14 ) ;
#101 = DATE_AND_TIME ( #172, #21 ) ;
#102 = DIRECTION ( 'NONE',  ( -1.000000000000000000, -3.927675794664469870E-16, 0.000000000000000000 ) ) ;
#103 = LINE ( 'NONE', #58, #289 ) ;
#104 = AXIS2_PLACEMENT_3D ( 'NONE', #122, #196, #296 ) ;
#105 = DIRECTION ( 'NONE',  ( 0.000000000000000000, 0.000000000000000000, 1.000000000000000000 ) ) ;
#106 = EDGE_CURVE ( 'NONE', #41, #158, #188, .T. ) ;
#107 = DIRECTION ( 'NONE',  ( 1.201540255767214463E-16, -1.000000000000000000, 0.000000000000000000 ) ) ;
#108 = VERTEX_POINT ( 'NONE', #259 ) ;
#109 = ADVANCED_FACE ( 'NONE', ( #45, #263 ), #169, .T. ) ;
#110 = DIRECTION ( 'NONE',  ( 1.000000000000000000, 0.000000000000000000, 0.000000000000000000 ) ) ;
#111 = AXIS2_PLACEMENT_3D ( 'NONE', #51, #10, #48 ) ;
#112 = ORIENTED_EDGE ( 'NONE', *, *, #5, .F. ) ;
#113 = EDGE_CURVE ( 'NONE', #215, #181, #260, .T. ) ;
#114 = VECTOR ( 'NONE', #177, 1000.000000000000000 ) ;
#115 = LINE ( 'NONE', #214, #292 ) ;
#116 = ORIENTED_EDGE ( 'NONE', *, *, #113, .T. ) ;
#117 = APPROVAL ( #195, 'UNSPECIFIED' ) ;
#118 = ORIENTED_EDGE ( 'NONE', *, *, #284, .F. ) ;
#119 = UNCERTAINTY_MEASURE_WITH_UNIT (LENGTH_MEASURE( 1.000000000000000082E-05 ), #9, 'distance_accuracy_value', 'NONE');
#120 = CIRCLE ( 'NONE', #271, 7.500000000000000000 ) ;
#121 = FACE_OUTER_BOUND ( 'NONE', #25, .T. ) ;
#122 = CARTESIAN_POINT ( 'NONE',  ( -1.387778780781445676E-14, 40.00000000000000711, -6.000000000000000000 ) ) ;
#123 = CC_DESIGN_DATE_AND_TIME_ASSIGNMENT ( #101, #52, ( #168 ) ) ;
#124 = PERSON_AND_ORGANIZATION_ROLE ( 'classification_officer' ) ;
#125 = CARTESIAN_POINT ( 'NONE',  ( -1.387778780781445676E-14, 40.00000000000000711, -6.000000000000000000 ) ) ;
#126 = CC_DESIGN_SECURITY_CLASSIFICATION ( #168, ( #185 ) ) ;
#127 = CARTESIAN_POINT ( 'NONE',  ( -53.00000000000000000, -6.368163355566236381E-15, -6.000000000000000000 ) ) ;
#128 = CARTESIAN_POINT ( 'NONE',  ( 0.000000000000000000, 0.000000000000000000, 0.000000000000000000 ) ) ;
#129 = ORIENTED_EDGE ( 'NONE', *, *, #311, .T. ) ;
#130 = CC_DESIGN_APPROVAL ( #117, ( #185 ) ) ;
#131 = CARTESIAN_POINT ( 'NONE',  ( -1.387778780781445676E-14, 40.00000000000000711, 0.000000000000000000 ) ) ;
#132 = ADVANCED_FACE ( 'NONE', ( #121 ), #244, .T. ) ;
#133 = EDGE_CURVE ( 'NONE', #235, #165, #49, .T. ) ;
#134 = DIRECTION ( 'NONE',  ( -0.000000000000000000, -1.000000000000000000, -0.000000000000000000 ) ) ;
#135 = CARTESIAN_POINT ( 'NONE',  ( -26.50000000000000711, 19.99999999999999289, -6.000000000000000000 ) ) ;
#136 = PRODUCT_RELATED_PRODUCT_CATEGORY ( 'detail', '', ( #56 ) ) ;
#137 = ADVANCED_FACE ( 'NONE', ( #174 ), #8, .F. ) ;
#138 = ORIENTED_EDGE ( 'NONE', *, *, #237, .T. ) ;
#139 = ADVANCED_FACE ( 'NONE', ( #241 ), #28, .T. ) ;
#140 = ORIENTED_EDGE ( 'NONE', *, *, #217, .T. ) ;
#141 = ADVANCED_FACE ( 'NONE', ( #295 ), #77, .T. ) ;
#142 = EDGE_CURVE ( 'NONE', #108, #82, #103, .T. ) ;
#143 = ORIENTED_EDGE ( 'NONE', *, *, #43, .F. ) ;
#144 = ADVANCED_BREP_SHAPE_REPRESENTATION ( '4229-50-20-25_REV_', ( #238, #175 ), #283 ) ;
#145 = CARTESIAN_POINT ( 'NONE',  ( -19.00000000000001066, 19.99999999999999289, 0.000000000000000000 ) ) ;
#146 = LOCAL_TIME ( 13, 47, 11.00000000000000000, #27 ) ;
#147 = APPROVAL_STATUS ( 'not_yet_approved' ) ;
#148 = SECURITY_CLASSIFICATION_LEVEL ( 'unclassified' ) ;
#149 = APPROVAL_STATUS ( 'not_yet_approved' ) ;
#150 = DIRECTION ( 'NONE',  ( 1.000000000000000000, 0.000000000000000000, -0.000000000000000000 ) ) ;
#151 = VECTOR ( 'NONE', #102, 1000.000000000000000 ) ;
#152 = PERSON_AND_ORGANIZATION ( #78, #67 ) ;
#153 = DIRECTION ( 'NONE',  ( -0.000000000000000000, -0.000000000000000000, 1.000000000000000000 ) ) ;
#154 = ORIENTED_EDGE ( 'NONE', *, *, #187, .F. ) ;
#155 = DIRECTION ( 'NONE',  ( -0.000000000000000000, -0.000000000000000000, 1.000000000000000000 ) ) ;
#156 = CC_DESIGN_APPROVAL ( #22, ( #32 ) ) ;
#157 = LINE ( 'NONE', #306, #310 ) ;
#158 = VERTEX_POINT ( 'NONE', #248 ) ;
#159 = CARTESIAN_POINT ( 'NONE',  ( -26.50000000000000711, 19.99999999999999289, 1.224646799147352468E-16 ) ) ;
#160 = VECTOR ( 'NONE', #226, 1000.000000000000000 ) ;
#161 = ORIENTED_EDGE ( 'NONE', *, *, #142, .T. ) ;
#162 = EDGE_LOOP ( 'NONE', ( #216, #309, #87, #236 ) ) ;
#163 = DESIGN_CONTEXT ( 'detailed design', #189, 'design' ) ;
#164 = DIRECTION ( 'NONE',  ( 1.000000000000000000, 1.201540255767214463E-16, -0.000000000000000000 ) ) ;
#165 = VERTEX_POINT ( 'NONE', #40 ) ;
#166 = ORIENTED_EDGE ( 'NONE', *, *, #242, .F. ) ;
#167 = MECHANICAL_CONTEXT ( 'NONE', #198, 'mechanical' ) ;
#168 = SECURITY_CLASSIFICATION ( '', '', #148 ) ;
#169 = PLANE ( 'NONE',  #37 ) ;
#170 = PERSON_AND_ORGANIZATION ( #78, #67 ) ;
#171 = CARTESIAN_POINT ( 'NONE',  ( 0.000000000000000000, 0.000000000000000000, 0.000000000000000000 ) ) ;
#172 = CALENDAR_DATE ( 2026, 9, 1 ) ;
#173 = CARTESIAN_POINT ( 'NONE',  ( 0.000000000000000000, 0.000000000000000000, 0.000000000000000000 ) ) ;
#174 = FACE_OUTER_BOUND ( 'NONE', #59, .T. ) ;
#175 = AXIS2_PLACEMENT_3D ( 'NONE', #173, #33, #54 ) ;
#176 = CALENDAR_DATE ( 2026, 9, 1 ) ;
#177 = DIRECTION ( 'NONE',  ( -0.000000000000000000, -0.000000000000000000, 1.000000000000000000 ) ) ;
#178 = EDGE_LOOP ( 'NONE', ( #92, #129, #161, #44 ) ) ;
#179 = DIRECTION ( 'NONE',  ( 1.000000000000000000, 0.000000000000000000, 0.000000000000000000 ) ) ;
#180 = DIRECTION ( 'NONE',  ( -0.000000000000000000, -0.000000000000000000, 1.000000000000000000 ) ) ;
#181 = VERTEX_POINT ( 'NONE', #201 ) ;
#182 = AXIS2_PLACEMENT_3D ( 'NONE', #30, #199, #197 ) ;
#183 = CARTESIAN_POINT ( 'NONE',  ( -34.00000000000000000, 19.99999999999999289, 0.000000000000000000 ) ) ;
#184 = CARTESIAN_POINT ( 'NONE',  ( 0.000000000000000000, 0.000000000000000000, 0.000000000000000000 ) ) ;
#185 = PRODUCT_DEFINITION_FORMATION_WITH_SPECIFIED_SOURCE ( 'ANY', '', #56, .NOT_KNOWN. ) ;
#186 = PLANE ( 'NONE',  #228 ) ;
#187 = EDGE_CURVE ( 'NONE', #165, #108, #206, .T. ) ;
#188 = LINE ( 'NONE', #70, #53 ) ;
#189 = APPLICATION_CONTEXT ( 'configuration controlled 3d designs of mechanical parts and assemblies' ) ;
#190 = EDGE_LOOP ( 'NONE', ( #24, #112, #230, #279 ) ) ;
#191 = AXIS2_PLACEMENT_3D ( 'NONE', #281, #180, #11 ) ;
#192 = VERTEX_POINT ( 'NONE', #300 ) ;
#193 = APPROVAL_ROLE ( '' ) ;
#194 = DIRECTION ( 'NONE',  ( -3.469446951953613696E-16, 1.000000000000000000, 0.000000000000000000 ) ) ;
#195 = APPROVAL_STATUS ( 'not_yet_approved' ) ;
#196 = DIRECTION ( 'NONE',  ( -3.927675794664469870E-16, 1.000000000000000000, 0.000000000000000000 ) ) ;
#197 = DIRECTION ( 'NONE',  ( 1.000000000000000000, 0.000000000000000000, 0.000000000000000000 ) ) ;
#198 = APPLICATION_CONTEXT ( 'configuration controlled 3d designs of mechanical parts and assemblies' ) ;
#199 = DIRECTION ( 'NONE',  ( -0.000000000000000000, -0.000000000000000000, 1.000000000000000000 ) ) ;
#200 = APPROVAL_DATE_TIME ( #6, #22 ) ;
#201 = CARTESIAN_POINT ( 'NONE',  ( -34.00000000000000000, 19.99999999999999289, -6.000000000000000000 ) ) ;
#202 = CARTESIAN_POINT ( 'NONE',  ( -1.387778780781445676E-14, 40.00000000000000711, 0.000000000000000000 ) ) ;
#203 = ORIENTED_EDGE ( 'NONE', *, *, #2, .F. ) ;
#204 = CARTESIAN_POINT ( 'NONE',  ( -53.00000000000000000, 39.99999999999998579, -6.000000000000000000 ) ) ;
#205 = EDGE_LOOP ( 'NONE', ( #118, #18, #36, #143 ) ) ;
#206 = LINE ( 'NONE', #204, #255 ) ;
#207 = ORIENTED_EDGE ( 'NONE', *, *, #2, .T. ) ;
#208 = CALENDAR_DATE ( 2026, 9, 1 ) ;
#209 = ADVANCED_FACE ( 'NONE', ( #35 ), #83, .F. ) ;
#210 = CARTESIAN_POINT ( 'NONE',  ( -1.387778780781445676E-14, 40.00000000000000711, -6.000000000000000000 ) ) ;
#211 = EDGE_LOOP ( 'NONE', ( #252, #154, #4, #207 ) ) ;
#212 = APPROVAL_PERSON_ORGANIZATION ( #75, #269, #245 ) ;
#213 = EDGE_CURVE ( 'NONE', #233, #192, #120, .T. ) ;
#214 = CARTESIAN_POINT ( 'NONE',  ( 0.000000000000000000, 0.000000000000000000, -6.000000000000000000 ) ) ;
#215 = VERTEX_POINT ( 'NONE', #79 ) ;
#216 = ORIENTED_EDGE ( 'NONE', *, *, #217, .F. ) ;
#217 = EDGE_CURVE ( 'NONE', #158, #235, #253, .T. ) ;
#218 = APPLICATION_PROTOCOL_DEFINITION ( 'international standard', 'config_control_design', 1994, #189 ) ;
#219 = EDGE_CURVE ( 'NONE', #82, #62, #157, .T. ) ;
#220 = APPLICATION_PROTOCOL_DEFINITION ( 'international standard', 'config_control_design', 1994, #198 ) ;
#221 = FACE_OUTER_BOUND ( 'NONE', #211, .T. ) ;
#222 = DIRECTION ( 'NONE',  ( 1.000000000000000000, 0.000000000000000000, 0.000000000000000000 ) ) ;
#223 = AXIS2_PLACEMENT_3D ( 'NONE', #127, #60, #105 ) ;
#224 = ORIENTED_EDGE ( 'NONE', *, *, #99, .F. ) ;
#225 = PRODUCT_DEFINITION_SHAPE ( 'NONE', 'NONE',  #32 ) ;
#226 = DIRECTION ( 'NONE',  ( -1.000000000000000000, -3.927675794664469870E-16, 0.000000000000000000 ) ) ;
#227 = CARTESIAN_POINT ( 'NONE',  ( -34.00000000000000000, 19.99999999999999289, 1.224646799147352468E-16 ) ) ;
#228 = AXIS2_PLACEMENT_3D ( 'NONE', #69, #258, #231 ) ;
#229 = VECTOR ( 'NONE', #42, 1000.000000000000000 ) ;
#230 = ORIENTED_EDGE ( 'NONE', *, *, #133, .T. ) ;
#231 = DIRECTION ( 'NONE',  ( 1.000000000000000000, 0.000000000000000000, -0.000000000000000000 ) ) ;
#232 = AXIS2_PLACEMENT_3D ( 'NONE', #97, #266, #194 ) ;
#233 = VERTEX_POINT ( 'NONE', #227 ) ;
#234 = EDGE_CURVE ( 'NONE', #181, #233, #274, .T. ) ;
#235 = VERTEX_POINT ( 'NONE', #65 ) ;
#236 = ORIENTED_EDGE ( 'NONE', *, *, #133, .F. ) ;
#237 = EDGE_CURVE ( 'NONE', #192, #233, #278, .T. ) ;
#238 = MANIFOLD_SOLID_BREP ( 'M12 Clearance Hole1', #26 ) ;
#239 = APPROVAL_PERSON_ORGANIZATION ( #76, #22, #246 ) ;
#240 = COORDINATED_UNIVERSAL_TIME_OFFSET ( 10, 0, .AHEAD. ) ;
#241 = FACE_OUTER_BOUND ( 'NONE', #190, .T. ) ;
#242 = EDGE_CURVE ( 'NONE', #62, #303, #254, .T. ) ;
#243 = PERSON_AND_ORGANIZATION ( #78, #67 ) ;
#244 = PLANE ( 'NONE',  #232 ) ;
#245 = APPROVAL_ROLE ( '' ) ;
#246 = APPROVAL_ROLE ( '' ) ;
#247 = PERSON_AND_ORGANIZATION ( #78, #67 ) ;
#248 = CARTESIAN_POINT ( 'NONE',  ( 0.000000000000000000, 0.000000000000000000, -6.000000000000000000 ) ) ;
#249 = VECTOR ( 'NONE', #71, 1000.000000000000000 ) ;
#250 = DIRECTION ( 'NONE',  ( -0.000000000000000000, -1.000000000000000000, -0.000000000000000000 ) ) ;
#251 = LOCAL_TIME ( 13, 47, 11.00000000000000000, #31 ) ;
#252 = ORIENTED_EDGE ( 'NONE', *, *, #142, .F. ) ;
#253 = LINE ( 'NONE', #277, #95 ) ;
#254 = LINE ( 'NONE', #128, #229 ) ;
#255 = VECTOR ( 'NONE', #304, 1000.000000000000000 ) ;
#256 = CC_DESIGN_APPROVAL ( #269, ( #168 ) ) ;
#257 = EDGE_LOOP ( 'NONE', ( #64, #287 ) ) ;
#258 = DIRECTION ( 'NONE',  ( 0.000000000000000000, 0.000000000000000000, 1.000000000000000000 ) ) ;
#259 = CARTESIAN_POINT ( 'NONE',  ( -53.00000000000000000, 39.99999999999998579, 0.000000000000000000 ) ) ;
#260 = CIRCLE ( 'NONE', #111, 7.499999999999996447 ) ;
#261 = ORIENTED_EDGE ( 'NONE', *, *, #219, .F. ) ;
#262 = LINE ( 'NONE', #145, #88 ) ;
#263 = FACE_OUTER_BOUND ( 'NONE', #178, .T. ) ;
#264 = DATE_AND_TIME ( #57, #13 ) ;
#265 = LOCAL_TIME ( 13, 47, 11.00000000000000000, #291 ) ;
#266 = DIRECTION ( 'NONE',  ( 1.000000000000000000, 3.469446951953613696E-16, -0.000000000000000000 ) ) ;
#267 = PERSON_AND_ORGANIZATION_ROLE ( 'creator' ) ;
#268 = DIRECTION ( 'NONE',  ( 0.000000000000000000, 0.000000000000000000, 1.000000000000000000 ) ) ;
#269 = APPROVAL ( #149, 'UNSPECIFIED' ) ;
#270 =( NAMED_UNIT ( * ) PLANE_ANGLE_UNIT ( ) SI_UNIT ( $, .RADIAN. ) );
#271 = AXIS2_PLACEMENT_3D ( 'NONE', #17, #155, #110 ) ;
#272 = CARTESIAN_POINT ( 'NONE',  ( 0.000000000000000000, 0.000000000000000000, -6.000000000000000000 ) ) ;
#273 = PERSON_AND_ORGANIZATION_ROLE ( 'creator' ) ;
#274 = LINE ( 'NONE', #183, #114 ) ;
#275 = SHAPE_DEFINITION_REPRESENTATION ( #225, #144 ) ;
#276 = PLANE ( 'NONE',  #223 ) ;
#277 = CARTESIAN_POINT ( 'NONE',  ( 0.000000000000000000, 0.000000000000000000, -6.000000000000000000 ) ) ;
#278 = CIRCLE ( 'NONE', #55, 7.500000000000000000 ) ;
#279 = ORIENTED_EDGE ( 'NONE', *, *, #187, .T. ) ;
#280 = CC_DESIGN_PERSON_AND_ORGANIZATION_ASSIGNMENT ( #96, #273, ( #32 ) ) ;
#281 = CARTESIAN_POINT ( 'NONE',  ( -26.50000000000000711, 19.99999999999999289, 0.000000000000000000 ) ) ;
#282 = EDGE_LOOP ( 'NONE', ( #116, #23 ) ) ;
#283 =( GEOMETRIC_REPRESENTATION_CONTEXT ( 3 ) GLOBAL_UNCERTAINTY_ASSIGNED_CONTEXT ( ( #119 ) ) GLOBAL_UNIT_ASSIGNED_CONTEXT ( ( #9, #270, #29 ) ) REPRESENTATION_CONTEXT ( 'NONE', 'WORKASPACE' ) );
#284 = EDGE_CURVE ( 'NONE', #181, #215, #38, .T. ) ;
#285 = DIRECTION ( 'NONE',  ( 0.000000000000000000, 0.000000000000000000, 1.000000000000000000 ) ) ;
#286 = FACE_BOUND ( 'NONE', #282, .T. ) ;
#287 = ORIENTED_EDGE ( 'NONE', *, *, #213, .F. ) ;
#288 = CC_DESIGN_DATE_AND_TIME_ASSIGNMENT ( #264, #98, ( #32 ) ) ;
#289 = VECTOR ( 'NONE', #134, 1000.000000000000000 ) ;
#290 = LINE ( 'NONE', #210, #249 ) ;
#291 = COORDINATED_UNIVERSAL_TIME_OFFSET ( 10, 0, .AHEAD. ) ;
#292 = VECTOR ( 'NONE', #1, 1000.000000000000000 ) ;
#293 = DATE_AND_TIME ( #72, #265 ) ;
#294 = PERSON_AND_ORGANIZATION_ROLE ( 'design_supplier' ) ;
#295 = FACE_OUTER_BOUND ( 'NONE', #68, .T. ) ;
#296 = DIRECTION ( 'NONE',  ( -1.000000000000000000, -3.927675794664469870E-16, 0.000000000000000000 ) ) ;
#297 = ADVANCED_FACE ( 'NONE', ( #221 ), #276, .T. ) ;
#298 = PERSON_AND_ORGANIZATION_ROLE ( 'design_owner' ) ;
#299 = AXIS2_PLACEMENT_3D ( 'NONE', #135, #34, #222 ) ;
#300 = CARTESIAN_POINT ( 'NONE',  ( -19.00000000000000711, 19.99999999999999289, 1.224646799147352468E-16 ) ) ;
#301 = APPROVAL_DATE_TIME ( #15, #269 ) ;
#302 = LINE ( 'NONE', #81, #93 ) ;
#303 = VERTEX_POINT ( 'NONE', #202 ) ;
#304 = DIRECTION ( 'NONE',  ( 0.000000000000000000, 0.000000000000000000, 1.000000000000000000 ) ) ;
#305 = EDGE_CURVE ( 'NONE', #165, #41, #302, .T. ) ;
#306 = CARTESIAN_POINT ( 'NONE',  ( 0.000000000000000000, 0.000000000000000000, 0.000000000000000000 ) ) ;
#307 = DIRECTION ( 'NONE',  ( -0.000000000000000000, -0.000000000000000000, 1.000000000000000000 ) ) ;
#308 = CC_DESIGN_PERSON_AND_ORGANIZATION_ASSIGNMENT ( #243, #124, ( #168 ) ) ;
#309 = ORIENTED_EDGE ( 'NONE', *, *, #106, .F. ) ;
#310 = VECTOR ( 'NONE', #85, 1000.000000000000000 ) ;
#311 = EDGE_CURVE ( 'NONE', #303, #108, #39, .T. ) ;
ENDSEC;
END-ISO-10303-21;
