ISO-10303-21;
HEADER;
FILE_DESCRIPTION (( 'STEP AP203' ),
    '1' );
FILE_NAME ('4229-50-20-30_REV_.step',
    '2026-01-09T02:47:48',
    ( '' ),
    ( '' ),
    'SwSTEP 2.0',
    'SolidWorks 2025',
    '' );
FILE_SCHEMA (( 'CONFIG_CONTROL_DESIGN' ));
ENDSEC;

DATA;
#1 = FACE_OUTER_BOUND ( 'NONE', #117, .T. ) ;
#2 = VERTEX_POINT ( 'NONE', #121 ) ;
#3 = LINE ( 'NONE', #39, #113 ) ;
#4 = AXIS2_PLACEMENT_3D ( 'NONE', #17, #261, #98 ) ;
#5 = EDGE_CURVE ( 'NONE', #296, #263, #347, .T. ) ;
#6 = FACE_OUTER_BOUND ( 'NONE', #223, .T. ) ;
#7 = DIRECTION ( 'NONE',  ( -0.000000000000000000, 0.000000000000000000, -1.000000000000000000 ) ) ;
#8 = ORIENTED_EDGE ( 'NONE', *, *, #53, .T. ) ;
#9 = CARTESIAN_POINT ( 'NONE',  ( -57.50000000000000711, 5.999999999999970690, 20.00000000000000000 ) ) ;
#10 = EDGE_CURVE ( 'NONE', #124, #197, #209, .T. ) ;
#11 = AXIS2_PLACEMENT_3D ( 'NONE', #182, #380, #411 ) ;
#12 = AXIS2_PLACEMENT_3D ( 'NONE', #414, #118, #250 ) ;
#13 = CARTESIAN_POINT ( 'NONE',  ( -63.50000000000001421, 5.999999999999970690, 20.00000000000000000 ) ) ;
#14 = DIRECTION ( 'NONE',  ( -0.000000000000000000, -0.000000000000000000, -1.000000000000000000 ) ) ;
#15 = VERTEX_POINT ( 'NONE', #378 ) ;
#16 = PERSON_AND_ORGANIZATION_ROLE ( 'classification_officer' ) ;
#17 = CARTESIAN_POINT ( 'NONE',  ( -57.50000000000000711, 5.999999999999970690, 20.00000000000000000 ) ) ;
#18 = ORIENTED_EDGE ( 'NONE', *, *, #348, .F. ) ;
#19 = CARTESIAN_POINT ( 'NONE',  ( -57.50000000000000711, 167.4999999999999716, -20.00000000000000000 ) ) ;
#20 = VERTEX_POINT ( 'NONE', #218 ) ;
#21 = ORIENTED_EDGE ( 'NONE', *, *, #188, .F. ) ;
#22 = CARTESIAN_POINT ( 'NONE',  ( -57.50000000000000711, 167.4999999999999716, 20.00000000000000000 ) ) ;
#23 = EDGE_LOOP ( 'NONE', ( #192, #37, #48, #86 ) ) ;
#24 = FACE_OUTER_BOUND ( 'NONE', #245, .T. ) ;
#25 = VECTOR ( 'NONE', #430, 1000.000000000000000 ) ;
#26 = ORIENTED_EDGE ( 'NONE', *, *, #242, .F. ) ;
#27 = CC_DESIGN_SECURITY_CLASSIFICATION ( #258, ( #339 ) ) ;
#28 = EDGE_LOOP ( 'NONE', ( #310, #21, #345, #377 ) ) ;
#29 = DIRECTION ( 'NONE',  ( -0.000000000000000000, -0.000000000000000000, -1.000000000000000000 ) ) ;
#30 = VERTEX_POINT ( 'NONE', #416 ) ;
#31 = PERSON_AND_ORGANIZATION ( #302, #307 ) ;
#32 = LINE ( 'NONE', #136, #126 ) ;
#33 = CARTESIAN_POINT ( 'NONE',  ( 57.50000000000000711, 167.4999999999999716, 20.00000000000000000 ) ) ;
#34 = VECTOR ( 'NONE', #303, 1000.000000000000000 ) ;
#35 = SHAPE_DEFINITION_REPRESENTATION ( #233, #44 ) ;
#36 = DIRECTION ( 'NONE',  ( -0.000000000000000000, 0.000000000000000000, -1.000000000000000000 ) ) ;
#37 = ORIENTED_EDGE ( 'NONE', *, *, #47, .F. ) ;
#38 = LINE ( 'NONE', #167, #34 ) ;
#39 = CARTESIAN_POINT ( 'NONE',  ( 63.50000000000001421, 5.999999999999977796, 20.00000000000000000 ) ) ;
#40 = CC_DESIGN_APPROVAL ( #164, ( #258 ) ) ;
#41 = APPLICATION_PROTOCOL_DEFINITION ( 'international standard', 'config_control_design', 1994, #81 ) ;
#42 = ORIENTED_EDGE ( 'NONE', *, *, #420, .T. ) ;
#43 = ORIENTED_EDGE ( 'NONE', *, *, #78, .T. ) ;
#44 = ADVANCED_BREP_SHAPE_REPRESENTATION ( '4229-50-20-30_REV_', ( #187, #12 ), #195 ) ;
#45 = ADVANCED_FACE ( 'NONE', ( #285 ), #352, .T. ) ;
#46 = ORIENTED_EDGE ( 'NONE', *, *, #74, .F. ) ;
#47 = EDGE_CURVE ( 'NONE', #124, #296, #79, .T. ) ;
#48 = ORIENTED_EDGE ( 'NONE', *, *, #10, .T. ) ;
#49 = AXIS2_PLACEMENT_3D ( 'NONE', #389, #100, #257 ) ;
#50 = LOCAL_TIME ( 13, 47, 48.00000000000000000, #163 ) ;
#51 = VERTEX_POINT ( 'NONE', #247 ) ;
#52 = FACE_OUTER_BOUND ( 'NONE', #23, .T. ) ;
#53 = EDGE_CURVE ( 'NONE', #2, #115, #314, .T. ) ;
#54 = CALENDAR_DATE ( 2026, 9, 1 ) ;
#55 = DIRECTION ( 'NONE',  ( -0.000000000000000000, 0.000000000000000000, -1.000000000000000000 ) ) ;
#56 = EDGE_CURVE ( 'NONE', #20, #110, #251, .T. ) ;
#57 = DIRECTION ( 'NONE',  ( 0.000000000000000000, -1.000000000000000000, 0.000000000000000000 ) ) ;
#58 = ADVANCED_FACE ( 'NONE', ( #52 ), #409, .T. ) ;
#59 = CARTESIAN_POINT ( 'NONE',  ( 63.50000000000001421, 5.999999999999977796, 20.00000000000000000 ) ) ;
#60 = DIRECTION ( 'NONE',  ( 0.000000000000000000, 0.000000000000000000, 1.000000000000000000 ) ) ;
#61 = CC_DESIGN_PERSON_AND_ORGANIZATION_ASSIGNMENT ( #399, #425, ( #339 ) ) ;
#62 = ORIENTED_EDGE ( 'NONE', *, *, #202, .F. ) ;
#63 = APPROVAL_DATE_TIME ( #102, #410 ) ;
#64 = FACE_OUTER_BOUND ( 'NONE', #28, .T. ) ;
#65 = AXIS2_PLACEMENT_3D ( 'NONE', #375, #369, #300 ) ;
#66 = PERSON_AND_ORGANIZATION ( #302, #307 ) ;
#67 = PERSON_AND_ORGANIZATION_ROLE ( 'creator' ) ;
#68 = EDGE_CURVE ( 'NONE', #296, #171, #84, .T. ) ;
#69 = DIRECTION ( 'NONE',  ( 1.000000000000000000, 0.000000000000000000, -0.000000000000000000 ) ) ;
#70 = AXIS2_PLACEMENT_3D ( 'NONE', #388, #60, #363 ) ;
#71 = AXIS2_PLACEMENT_3D ( 'NONE', #103, #69, #36 ) ;
#72 = CARTESIAN_POINT ( 'NONE',  ( 63.50000000000001421, 167.4999999999999716, 20.00000000000000000 ) ) ;
#73 = ORIENTED_EDGE ( 'NONE', *, *, #56, .T. ) ;
#74 = EDGE_CURVE ( 'NONE', #231, #284, #82, .T. ) ;
#75 = ORIENTED_EDGE ( 'NONE', *, *, #318, .F. ) ;
#76 = CARTESIAN_POINT ( 'NONE',  ( -63.50000000000001421, 167.4999999999999716, -20.00000000000000000 ) ) ;
#77 = ORIENTED_EDGE ( 'NONE', *, *, #68, .T. ) ;
#78 = EDGE_CURVE ( 'NONE', #30, #171, #144, .T. ) ;
#79 = LINE ( 'NONE', #253, #403 ) ;
#80 = DIRECTION ( 'NONE',  ( 0.000000000000000000, 1.000000000000000000, 0.000000000000000000 ) ) ;
#81 = APPLICATION_CONTEXT ( 'configuration controlled 3d designs of mechanical parts and assemblies' ) ;
#82 = LINE ( 'NONE', #13, #215 ) ;
#83 = AXIS2_PLACEMENT_3D ( 'NONE', #196, #422, #297 ) ;
#84 = LINE ( 'NONE', #148, #220 ) ;
#85 = DATE_AND_TIME ( #152, #365 ) ;
#86 = ORIENTED_EDGE ( 'NONE', *, *, #149, .T. ) ;
#87 = LINE ( 'NONE', #324, #140 ) ;
#88 = EDGE_CURVE ( 'NONE', #15, #110, #354, .T. ) ;
#89 = ORIENTED_EDGE ( 'NONE', *, *, #420, .F. ) ;
#90 = VECTOR ( 'NONE', #80, 1000.000000000000000 ) ;
#91 = CC_DESIGN_APPROVAL ( #410, ( #260 ) ) ;
#92 = CARTESIAN_POINT ( 'NONE',  ( -63.50000000000001421, 5.999999999999970690, 20.00000000000000000 ) ) ;
#93 = EDGE_LOOP ( 'NONE', ( #43, #62, #342, #226 ) ) ;
#94 = EDGE_LOOP ( 'NONE', ( #298, #154, #346, #421 ) ) ;
#95 = CARTESIAN_POINT ( 'NONE',  ( 63.50000000000001421, 167.4999999999999716, 20.00000000000000000 ) ) ;
#96 = EDGE_LOOP ( 'NONE', ( #394, #256, #18, #401 ) ) ;
#97 = EDGE_LOOP ( 'NONE', ( #157, #265, #142, #243 ) ) ;
#98 = DIRECTION ( 'NONE',  ( 0.000000000000000000, 0.000000000000000000, 1.000000000000000000 ) ) ;
#99 = ORIENTED_EDGE ( 'NONE', *, *, #318, .T. ) ;
#100 = DIRECTION ( 'NONE',  ( -0.000000000000000000, -0.000000000000000000, -1.000000000000000000 ) ) ;
#101 = ORIENTED_EDGE ( 'NONE', *, *, #418, .F. ) ;
#102 = DATE_AND_TIME ( #54, #50 ) ;
#103 = CARTESIAN_POINT ( 'NONE',  ( 57.50000000000000711, 167.4999999999999716, 20.00000000000000000 ) ) ;
#104 = DATE_TIME_ROLE ( 'classification_date' ) ;
#105 = DIRECTION ( 'NONE',  ( 1.000000000000000000, 1.156482317317870344E-15, 0.000000000000000000 ) ) ;
#106 = DIRECTION ( 'NONE',  ( -0.000000000000000000, 0.000000000000000000, -1.000000000000000000 ) ) ;
#107 = AXIS2_PLACEMENT_3D ( 'NONE', #92, #255, #160 ) ;
#108 = CC_DESIGN_APPROVAL ( #361, ( #339 ) ) ;
#109 = DIRECTION ( 'NONE',  ( -0.000000000000000000, 1.000000000000000000, 0.000000000000000000 ) ) ;
#110 = VERTEX_POINT ( 'NONE', #415 ) ;
#111 = DIRECTION ( 'NONE',  ( 0.000000000000000000, 0.000000000000000000, 1.000000000000000000 ) ) ;
#112 = ADVANCED_FACE ( 'NONE', ( #217 ), #186, .T. ) ;
#113 = VECTOR ( 'NONE', #433, 1000.000000000000000 ) ;
#114 = DESIGN_CONTEXT ( 'detailed design', #147, 'design' ) ;
#115 = VERTEX_POINT ( 'NONE', #127 ) ;
#116 = CC_DESIGN_PERSON_AND_ORGANIZATION_ASSIGNMENT ( #66, #368, ( #339 ) ) ;
#117 = EDGE_LOOP ( 'NONE', ( #204, #77, #325, #161 ) ) ;
#118 = DIRECTION ( 'NONE',  ( 0.000000000000000000, 0.000000000000000000, 1.000000000000000000 ) ) ;
#119 = CARTESIAN_POINT ( 'NONE',  ( 0.000000000000000000, 167.4999999999999716, -20.00000000000000000 ) ) ;
#120 = LOCAL_TIME ( 13, 47, 48.00000000000000000, #199 ) ;
#121 = CARTESIAN_POINT ( 'NONE',  ( -57.50000000000000711, 5.999999999999970690, 20.00000000000000000 ) ) ;
#122 = FACE_OUTER_BOUND ( 'NONE', #327, .T. ) ;
#123 = CARTESIAN_POINT ( 'NONE',  ( -63.50000000000001421, 5.999999999999970690, 20.00000000000000000 ) ) ;
#124 = VERTEX_POINT ( 'NONE', #259 ) ;
#125 = VECTOR ( 'NONE', #393, 1000.000000000000000 ) ;
#126 = VECTOR ( 'NONE', #109, 1000.000000000000000 ) ;
#127 = CARTESIAN_POINT ( 'NONE',  ( -57.50000000000000711, 167.4999999999999716, 20.00000000000000000 ) ) ;
#128 = CARTESIAN_POINT ( 'NONE',  ( 57.50000000000000711, 167.4999999999999716, 20.00000000000000000 ) ) ;
#129 = PERSON_AND_ORGANIZATION ( #302, #307 ) ;
#130 = ORIENTED_EDGE ( 'NONE', *, *, #185, .T. ) ;
#131 = EDGE_CURVE ( 'NONE', #2, #30, #156, .T. ) ;
#132 = LINE ( 'NONE', #128, #194 ) ;
#133 = PRODUCT ( '4229-50-20-30_REV_', '4229-50-20-30_REV_', '', ( #283 ) ) ;
#134 = APPROVAL_ROLE ( '' ) ;
#135 = CARTESIAN_POINT ( 'NONE',  ( 57.50000000000000711, 167.4999999999999716, -20.00000000000000000 ) ) ;
#136 = CARTESIAN_POINT ( 'NONE',  ( -63.50000000000001421, 5.999999999999970690, -20.00000000000000000 ) ) ;
#137 = DIRECTION ( 'NONE',  ( -1.000000000000000000, 0.000000000000000000, 0.000000000000000000 ) ) ;
#138 = ORIENTED_EDGE ( 'NONE', *, *, #235, .T. ) ;
#139 = FACE_OUTER_BOUND ( 'NONE', #331, .T. ) ;
#140 = VECTOR ( 'NONE', #294, 1000.000000000000000 ) ;
#141 = PLANE ( 'NONE',  #71 ) ;
#142 = ORIENTED_EDGE ( 'NONE', *, *, #406, .T. ) ;
#143 = ADVANCED_FACE ( 'NONE', ( #122 ), #225, .T. ) ;
#144 = LINE ( 'NONE', #214, #280 ) ;
#145 = CARTESIAN_POINT ( 'NONE',  ( 0.000000000000000000, 167.4999999999999716, 20.00000000000000000 ) ) ;
#146 = APPROVAL_PERSON_ORGANIZATION ( #129, #361, #193 ) ;
#147 = APPLICATION_CONTEXT ( 'configuration controlled 3d designs of mechanical parts and assemblies' ) ;
#148 = CARTESIAN_POINT ( 'NONE',  ( -63.50000000000001421, 167.4999999999999716, -20.00000000000000000 ) ) ;
#149 = EDGE_CURVE ( 'NONE', #197, #263, #191, .T. ) ;
#150 = DIRECTION ( 'NONE',  ( -1.000000000000000000, -1.156482317317870344E-15, 0.000000000000000000 ) ) ;
#151 = DIRECTION ( 'NONE',  ( -0.000000000000000000, -0.000000000000000000, -1.000000000000000000 ) ) ;
#152 = CALENDAR_DATE ( 2026, 9, 1 ) ;
#153 = LINE ( 'NONE', #427, #313 ) ;
#154 = ORIENTED_EDGE ( 'NONE', *, *, #246, .F. ) ;
#155 = PLANE ( 'NONE',  #107 ) ;
#156 = LINE ( 'NONE', #288, #25 ) ;
#157 = ORIENTED_EDGE ( 'NONE', *, *, #272, .F. ) ;
#158 = VECTOR ( 'NONE', #323, 1000.000000000000000 ) ;
#159 = VECTOR ( 'NONE', #336, 1000.000000000000000 ) ;
#160 = DIRECTION ( 'NONE',  ( 0.000000000000000000, 0.000000000000000000, 1.000000000000000000 ) ) ;
#161 = ORIENTED_EDGE ( 'NONE', *, *, #169, .T. ) ;
#162 = PLANE ( 'NONE',  #221 ) ;
#163 = COORDINATED_UNIVERSAL_TIME_OFFSET ( 10, 0, .AHEAD. ) ;
#164 = APPROVAL ( #370, 'UNSPECIFIED' ) ;
#165 = LINE ( 'NONE', #366, #424 ) ;
#166 = AXIS2_PLACEMENT_3D ( 'NONE', #145, #14, #175 ) ;
#167 = CARTESIAN_POINT ( 'NONE',  ( 63.50000000000001421, 167.4999999999999716, -20.00000000000000000 ) ) ;
#168 = VECTOR ( 'NONE', #340, 1000.000000000000000 ) ;
#169 = EDGE_CURVE ( 'NONE', #30, #284, #153, .T. ) ;
#170 = LINE ( 'NONE', #207, #240 ) ;
#171 = VERTEX_POINT ( 'NONE', #19 ) ;
#172 = CARTESIAN_POINT ( 'NONE',  ( -63.50000000000001421, 5.999999999999970690, -20.00000000000000000 ) ) ;
#173 = ORIENTED_EDGE ( 'NONE', *, *, #418, .T. ) ;
#174 = AXIS2_PLACEMENT_3D ( 'NONE', #241, #213, #7 ) ;
#175 = DIRECTION ( 'NONE',  ( -1.000000000000000000, 0.000000000000000000, 0.000000000000000000 ) ) ;
#176 = PERSON_AND_ORGANIZATION ( #302, #307 ) ;
#177 = DIRECTION ( 'NONE',  ( 1.000000000000000000, 0.000000000000000000, 0.000000000000000000 ) ) ;
#178 = ORIENTED_EDGE ( 'NONE', *, *, #74, .T. ) ;
#179 = EDGE_CURVE ( 'NONE', #231, #124, #184, .T. ) ;
#180 =( NAMED_UNIT ( * ) PLANE_ANGLE_UNIT ( ) SI_UNIT ( $, .RADIAN. ) );
#181 = CARTESIAN_POINT ( 'NONE',  ( 63.50000000000001421, 167.4999999999999716, 20.00000000000000000 ) ) ;
#182 = CARTESIAN_POINT ( 'NONE',  ( 0.000000000000000000, 167.4999999999999716, 20.00000000000000000 ) ) ;
#183 = APPROVAL_ROLE ( '' ) ;
#184 = LINE ( 'NONE', #123, #125 ) ;
#185 = EDGE_CURVE ( 'NONE', #115, #341, #372, .T. ) ;
#186 = PLANE ( 'NONE',  #83 ) ;
#187 = MANIFOLD_SOLID_BREP ( 'Base-Flange1', #291 ) ;
#188 = EDGE_CURVE ( 'NONE', #171, #51, #238, .T. ) ;
#189 = LINE ( 'NONE', #359, #274 ) ;
#190 = ORIENTED_EDGE ( 'NONE', *, *, #47, .T. ) ;
#191 = LINE ( 'NONE', #222, #158 ) ;
#192 = ORIENTED_EDGE ( 'NONE', *, *, #5, .F. ) ;
#193 = APPROVAL_ROLE ( '' ) ;
#194 = VECTOR ( 'NONE', #289, 1000.000000000000000 ) ;
#195 =( GEOMETRIC_REPRESENTATION_CONTEXT ( 3 ) GLOBAL_UNCERTAINTY_ASSIGNED_CONTEXT ( ( #408 ) ) GLOBAL_UNIT_ASSIGNED_CONTEXT ( ( #351, #180, #248 ) ) REPRESENTATION_CONTEXT ( 'NONE', 'WORKASPACE' ) );
#196 = CARTESIAN_POINT ( 'NONE',  ( -57.50000000000000711, 5.999999999999970690, 20.00000000000000000 ) ) ;
#197 = VERTEX_POINT ( 'NONE', #95 ) ;
#198 = ADVANCED_FACE ( 'NONE', ( #24 ), #155, .T. ) ;
#199 = COORDINATED_UNIVERSAL_TIME_OFFSET ( 10, 0, .AHEAD. ) ;
#200 = DIRECTION ( 'NONE',  ( 0.000000000000000000, -1.000000000000000000, 0.000000000000000000 ) ) ;
#201 = CARTESIAN_POINT ( 'NONE',  ( 0.000000000000000000, 167.4999999999999716, 20.00000000000000000 ) ) ;
#202 = EDGE_CURVE ( 'NONE', #115, #171, #362, .T. ) ;
#203 = DIRECTION ( 'NONE',  ( -0.000000000000000000, -0.000000000000000000, -1.000000000000000000 ) ) ;
#204 = ORIENTED_EDGE ( 'NONE', *, *, #381, .T. ) ;
#205 = AXIS2_PLACEMENT_3D ( 'NONE', #268, #397, #105 ) ;
#206 = ORIENTED_EDGE ( 'NONE', *, *, #235, .F. ) ;
#207 = CARTESIAN_POINT ( 'NONE',  ( 63.50000000000001421, 167.4999999999999716, 20.00000000000000000 ) ) ;
#208 = PLANE ( 'NONE',  #360 ) ;
#209 = CIRCLE ( 'NONE', #11, 63.50000000000001421 ) ;
#210 = PERSON_AND_ORGANIZATION_ROLE ( 'design_owner' ) ;
#211 = DIRECTION ( 'NONE',  ( 1.000000000000000000, 0.000000000000000000, -0.000000000000000000 ) ) ;
#212 = DIRECTION ( 'NONE',  ( -0.000000000000000000, -0.000000000000000000, -1.000000000000000000 ) ) ;
#213 = DIRECTION ( 'NONE',  ( 1.000000000000000000, 0.000000000000000000, -0.000000000000000000 ) ) ;
#214 = CARTESIAN_POINT ( 'NONE',  ( -57.50000000000000711, 5.999999999999970690, -20.00000000000000000 ) ) ;
#215 = VECTOR ( 'NONE', #309, 1000.000000000000000 ) ;
#216 = APPROVAL_PERSON_ORGANIZATION ( #332, #164, #134 ) ;
#217 = FACE_OUTER_BOUND ( 'NONE', #387, .T. ) ;
#218 = CARTESIAN_POINT ( 'NONE',  ( 57.50000000000000711, 5.999999999999970690, 20.00000000000000000 ) ) ;
#219 = DIRECTION ( 'NONE',  ( -1.000000000000000000, 0.000000000000000000, 0.000000000000000000 ) ) ;
#220 = VECTOR ( 'NONE', #249, 1000.000000000000000 ) ;
#221 = AXIS2_PLACEMENT_3D ( 'NONE', #264, #55, #419 ) ;
#222 = CARTESIAN_POINT ( 'NONE',  ( 63.50000000000001421, 167.4999999999999716, 20.00000000000000000 ) ) ;
#223 = EDGE_LOOP ( 'NONE', ( #356, #206, #101, #42 ) ) ;
#224 = VERTEX_POINT ( 'NONE', #59 ) ;
#225 = PLANE ( 'NONE',  #70 ) ;
#226 = ORIENTED_EDGE ( 'NONE', *, *, #131, .T. ) ;
#227 = CARTESIAN_POINT ( 'NONE',  ( -63.50000000000001421, 5.999999999999970690, 20.00000000000000000 ) ) ;
#228 = CC_DESIGN_DATE_AND_TIME_ASSIGNMENT ( #299, #104, ( #258 ) ) ;
#229 = DATE_AND_TIME ( #266, #373 ) ;
#230 = PLANE ( 'NONE',  #276 ) ;
#231 = VERTEX_POINT ( 'NONE', #227 ) ;
#232 = CALENDAR_DATE ( 2026, 9, 1 ) ;
#233 = PRODUCT_DEFINITION_SHAPE ( 'NONE', 'NONE',  #260 ) ;
#234 = LINE ( 'NONE', #236, #293 ) ;
#235 = EDGE_CURVE ( 'NONE', #224, #20, #189, .T. ) ;
#236 = CARTESIAN_POINT ( 'NONE',  ( 57.50000000000000711, 167.4999999999999716, 20.00000000000000000 ) ) ;
#237 = CC_DESIGN_PERSON_AND_ORGANIZATION_ASSIGNMENT ( #31, #67, ( #260 ) ) ;
#238 = CIRCLE ( 'NONE', #49, 57.50000000000000711 ) ;
#239 = PLANE ( 'NONE',  #65 ) ;
#240 = VECTOR ( 'NONE', #343, 1000.000000000000000 ) ;
#241 = CARTESIAN_POINT ( 'NONE',  ( 63.50000000000001421, 167.4999999999999716, 20.00000000000000000 ) ) ;
#242 = EDGE_CURVE ( 'NONE', #115, #124, #87, .T. ) ;
#243 = ORIENTED_EDGE ( 'NONE', *, *, #88, .T. ) ;
#244 = CC_DESIGN_PERSON_AND_ORGANIZATION_ASSIGNMENT ( #392, #16, ( #258 ) ) ;
#245 = EDGE_LOOP ( 'NONE', ( #379, #46, #271, #190 ) ) ;
#246 = EDGE_CURVE ( 'NONE', #341, #51, #132, .T. ) ;
#247 = CARTESIAN_POINT ( 'NONE',  ( 57.50000000000000711, 167.4999999999999716, -20.00000000000000000 ) ) ;
#248 =( NAMED_UNIT ( * ) SI_UNIT ( $, .STERADIAN. ) SOLID_ANGLE_UNIT ( ) );
#249 = DIRECTION ( 'NONE',  ( 1.000000000000000000, 0.000000000000000000, 0.000000000000000000 ) ) ;
#250 = DIRECTION ( 'NONE',  ( 1.000000000000000000, 0.000000000000000000, 0.000000000000000000 ) ) ;
#251 = LINE ( 'NONE', #384, #301 ) ;
#252 = APPROVAL_DATE_TIME ( #229, #164 ) ;
#253 = CARTESIAN_POINT ( 'NONE',  ( -63.50000000000001421, 167.4999999999999716, 20.00000000000000000 ) ) ;
#254 = ADVANCED_FACE ( 'NONE', ( #391 ), #385, .F. ) ;
#255 = DIRECTION ( 'NONE',  ( -1.000000000000000000, -0.000000000000000000, 0.000000000000000000 ) ) ;
#256 = ORIENTED_EDGE ( 'NONE', *, *, #56, .F. ) ;
#257 = DIRECTION ( 'NONE',  ( -1.000000000000000000, 0.000000000000000000, 0.000000000000000000 ) ) ;
#258 = SECURITY_CLASSIFICATION ( '', '', #428 ) ;
#259 = CARTESIAN_POINT ( 'NONE',  ( -63.50000000000001421, 167.4999999999999716, 20.00000000000000000 ) ) ;
#260 = PRODUCT_DEFINITION ( 'UNKNOWN', '', #339, #114 ) ;
#261 = DIRECTION ( 'NONE',  ( -1.000000000000000000, 0.000000000000000000, 0.000000000000000000 ) ) ;
#262 = COORDINATED_UNIVERSAL_TIME_OFFSET ( 10, 0, .AHEAD. ) ;
#263 = VERTEX_POINT ( 'NONE', #364 ) ;
#264 = CARTESIAN_POINT ( 'NONE',  ( 57.50000000000000711, 167.4999999999999716, -20.00000000000000000 ) ) ;
#265 = ORIENTED_EDGE ( 'NONE', *, *, #398, .T. ) ;
#266 = CALENDAR_DATE ( 2026, 9, 1 ) ;
#267 = AXIS2_PLACEMENT_3D ( 'NONE', #181, #111, #211 ) ;
#268 = CARTESIAN_POINT ( 'NONE',  ( 63.50000000000001421, 5.999999999999977796, 20.00000000000000000 ) ) ;
#269 = ADVANCED_FACE ( 'NONE', ( #64 ), #162, .T. ) ;
#270 = DIRECTION ( 'NONE',  ( -1.000000000000000000, 0.000000000000000000, 0.000000000000000000 ) ) ;
#271 = ORIENTED_EDGE ( 'NONE', *, *, #179, .T. ) ;
#272 = EDGE_CURVE ( 'NONE', #51, #110, #287, .T. ) ;
#273 = FACE_OUTER_BOUND ( 'NONE', #308, .T. ) ;
#274 = VECTOR ( 'NONE', #357, 1000.000000000000000 ) ;
#275 = PLANE ( 'NONE',  #174 ) ;
#276 = AXIS2_PLACEMENT_3D ( 'NONE', #333, #106, #270 ) ;
#277 = ADVANCED_FACE ( 'NONE', ( #305 ), #141, .F. ) ;
#278 = CARTESIAN_POINT ( 'NONE',  ( 0.000000000000000000, 167.4999999999999716, 20.00000000000000000 ) ) ;
#279 = ORIENTED_EDGE ( 'NONE', *, *, #406, .F. ) ;
#280 = VECTOR ( 'NONE', #281, 1000.000000000000000 ) ;
#281 = DIRECTION ( 'NONE',  ( 0.000000000000000000, 1.000000000000000000, 0.000000000000000000 ) ) ;
#282 = ORIENTED_EDGE ( 'NONE', *, *, #242, .T. ) ;
#283 = MECHANICAL_CONTEXT ( 'NONE', #81, 'mechanical' ) ;
#284 = VERTEX_POINT ( 'NONE', #172 ) ;
#285 = FACE_OUTER_BOUND ( 'NONE', #429, .T. ) ;
#286 = CC_DESIGN_DATE_AND_TIME_ASSIGNMENT ( #295, #337, ( #260 ) ) ;
#287 = LINE ( 'NONE', #417, #383 ) ;
#288 = CARTESIAN_POINT ( 'NONE',  ( -57.50000000000000711, 5.999999999999970690, 20.00000000000000000 ) ) ;
#289 = DIRECTION ( 'NONE',  ( -0.000000000000000000, -0.000000000000000000, -1.000000000000000000 ) ) ;
#290 = CC_DESIGN_PERSON_AND_ORGANIZATION_ASSIGNMENT ( #407, #210, ( #133 ) ) ;
#291 = CLOSED_SHELL ( 'NONE', ( #143, #45, #269, #374, #277, #412, #426, #58, #198, #112, #254, #322, #316, #386 ) ) ;
#292 = COORDINATED_UNIVERSAL_TIME_OFFSET ( 10, 0, .AHEAD. ) ;
#293 = VECTOR ( 'NONE', #200, 1000.000000000000000 ) ;
#294 = DIRECTION ( 'NONE',  ( -1.000000000000000000, 0.000000000000000000, 0.000000000000000000 ) ) ;
#295 = DATE_AND_TIME ( #431, #120 ) ;
#296 = VERTEX_POINT ( 'NONE', #76 ) ;
#297 = DIRECTION ( 'NONE',  ( 0.000000000000000000, -0.000000000000000000, -1.000000000000000000 ) ) ;
#298 = ORIENTED_EDGE ( 'NONE', *, *, #188, .T. ) ;
#299 = DATE_AND_TIME ( #232, #329 ) ;
#300 = DIRECTION ( 'NONE',  ( 1.000000000000000000, 0.000000000000000000, -0.000000000000000000 ) ) ;
#301 = VECTOR ( 'NONE', #212, 1000.000000000000000 ) ;
#302 = PERSON ( 'UNSPECIFIED', 'UNSPECIFIED', 'UNSPECIFIED', ('UNSPECIFIED'), ('UNSPECIFIED'), ('UNSPECIFIED') ) ;
#303 = DIRECTION ( 'NONE',  ( -0.000000000000000000, -1.000000000000000000, 0.000000000000000000 ) ) ;
#304 = DIRECTION ( 'NONE',  ( 1.000000000000000000, 0.000000000000000000, -0.000000000000000000 ) ) ;
#305 = FACE_OUTER_BOUND ( 'NONE', #96, .T. ) ;
#306 = FACE_OUTER_BOUND ( 'NONE', #94, .T. ) ;
#307 = ORGANIZATION ( 'UNSPECIFIED', 'UNSPECIFIED', '' ) ;
#308 = EDGE_LOOP ( 'NONE', ( #350, #75, #138, #73 ) ) ;
#309 = DIRECTION ( 'NONE',  ( -0.000000000000000000, -0.000000000000000000, -1.000000000000000000 ) ) ;
#310 = ORIENTED_EDGE ( 'NONE', *, *, #398, .F. ) ;
#311 = APPROVAL_STATUS ( 'not_yet_approved' ) ;
#312 = ORIENTED_EDGE ( 'NONE', *, *, #179, .F. ) ;
#313 = VECTOR ( 'NONE', #219, 1000.000000000000000 ) ;
#314 = LINE ( 'NONE', #9, #90 ) ;
#315 = CARTESIAN_POINT ( 'NONE',  ( 63.50000000000001421, 5.999999999999977796, -20.00000000000000000 ) ) ;
#316 = ADVANCED_FACE ( 'NONE', ( #6 ), #208, .T. ) ;
#317 = ORIENTED_EDGE ( 'NONE', *, *, #367, .F. ) ;
#318 = EDGE_CURVE ( 'NONE', #224, #15, #3, .T. ) ;
#319 = APPROVAL_STATUS ( 'not_yet_approved' ) ;
#320 = ORIENTED_EDGE ( 'NONE', *, *, #10, .F. ) ;
#321 = CARTESIAN_POINT ( 'NONE',  ( 0.000000000000000000, 167.4999999999999716, 20.00000000000000000 ) ) ;
#322 = ADVANCED_FACE ( 'NONE', ( #306 ), #404, .F. ) ;
#323 = DIRECTION ( 'NONE',  ( -0.000000000000000000, -0.000000000000000000, -1.000000000000000000 ) ) ;
#324 = CARTESIAN_POINT ( 'NONE',  ( -57.50000000000000711, 167.4999999999999716, 20.00000000000000000 ) ) ;
#325 = ORIENTED_EDGE ( 'NONE', *, *, #78, .F. ) ;
#326 = DIRECTION ( 'NONE',  ( -0.000000000000000000, -0.000000000000000000, -1.000000000000000000 ) ) ;
#327 = EDGE_LOOP ( 'NONE', ( #26, #130, #89, #320 ) ) ;
#328 = COORDINATED_UNIVERSAL_TIME_OFFSET ( 10, 0, .AHEAD. ) ;
#329 = LOCAL_TIME ( 13, 47, 48.00000000000000000, #328 ) ;
#330 = DIRECTION ( 'NONE',  ( -1.000000000000000000, 0.000000000000000000, 0.000000000000000000 ) ) ;
#331 = EDGE_LOOP ( 'NONE', ( #279, #390, #173, #99 ) ) ;
#332 = PERSON_AND_ORGANIZATION ( #302, #307 ) ;
#333 = CARTESIAN_POINT ( 'NONE',  ( -63.50000000000001421, 167.4999999999999716, -20.00000000000000000 ) ) ;
#334 = APPROVAL_DATE_TIME ( #85, #361 ) ;
#335 = PRODUCT_RELATED_PRODUCT_CATEGORY ( 'detail', '', ( #133 ) ) ;
#336 = DIRECTION ( 'NONE',  ( 1.000000000000000000, 0.000000000000000000, 0.000000000000000000 ) ) ;
#337 = DATE_TIME_ROLE ( 'creation_date' ) ;
#338 = VECTOR ( 'NONE', #150, 1000.000000000000000 ) ;
#339 = PRODUCT_DEFINITION_FORMATION_WITH_SPECIFIED_SOURCE ( 'ANY', '', #133, .NOT_KNOWN. ) ;
#340 = DIRECTION ( 'NONE',  ( -0.000000000000000000, -1.000000000000000000, 0.000000000000000000 ) ) ;
#341 = VERTEX_POINT ( 'NONE', #33 ) ;
#342 = ORIENTED_EDGE ( 'NONE', *, *, #53, .F. ) ;
#343 = DIRECTION ( 'NONE',  ( -1.000000000000000000, 0.000000000000000000, 0.000000000000000000 ) ) ;
#344 = DIRECTION ( 'NONE',  ( 0.000000000000000000, 0.000000000000000000, 1.000000000000000000 ) ) ;
#345 = ORIENTED_EDGE ( 'NONE', *, *, #68, .F. ) ;
#346 = ORIENTED_EDGE ( 'NONE', *, *, #185, .F. ) ;
#347 = CIRCLE ( 'NONE', #395, 63.50000000000001421 ) ;
#348 = EDGE_CURVE ( 'NONE', #341, #20, #234, .T. ) ;
#349 = APPLICATION_PROTOCOL_DEFINITION ( 'international standard', 'config_control_design', 1994, #147 ) ;
#350 = ORIENTED_EDGE ( 'NONE', *, *, #88, .F. ) ;
#351 =( LENGTH_UNIT ( ) NAMED_UNIT ( * ) SI_UNIT ( .MILLI., .METRE. ) );
#352 = PLANE ( 'NONE',  #267 ) ;
#353 = VECTOR ( 'NONE', #29, 1000.000000000000000 ) ;
#354 = LINE ( 'NONE', #315, #338 ) ;
#355 = APPROVAL_PERSON_ORGANIZATION ( #176, #410, #183 ) ;
#356 = ORIENTED_EDGE ( 'NONE', *, *, #348, .T. ) ;
#357 = DIRECTION ( 'NONE',  ( -1.000000000000000000, -1.156482317317870344E-15, 0.000000000000000000 ) ) ;
#358 = ORIENTED_EDGE ( 'NONE', *, *, #131, .F. ) ;
#359 = CARTESIAN_POINT ( 'NONE',  ( 63.50000000000001421, 5.999999999999977796, 20.00000000000000000 ) ) ;
#360 = AXIS2_PLACEMENT_3D ( 'NONE', #201, #344, #304 ) ;
#361 = APPROVAL ( #319, 'UNSPECIFIED' ) ;
#362 = LINE ( 'NONE', #22, #353 ) ;
#363 = DIRECTION ( 'NONE',  ( 1.000000000000000000, 0.000000000000000000, -0.000000000000000000 ) ) ;
#364 = CARTESIAN_POINT ( 'NONE',  ( 63.50000000000001421, 167.4999999999999716, -20.00000000000000000 ) ) ;
#365 = LOCAL_TIME ( 13, 47, 48.00000000000000000, #262 ) ;
#366 = CARTESIAN_POINT ( 'NONE',  ( -57.50000000000000711, 5.999999999999970690, 20.00000000000000000 ) ) ;
#367 = EDGE_CURVE ( 'NONE', #2, #231, #165, .T. ) ;
#368 = PERSON_AND_ORGANIZATION_ROLE ( 'design_supplier' ) ;
#369 = DIRECTION ( 'NONE',  ( 0.000000000000000000, 0.000000000000000000, 1.000000000000000000 ) ) ;
#370 = APPROVAL_STATUS ( 'not_yet_approved' ) ;
#371 = LINE ( 'NONE', #72, #168 ) ;
#372 = CIRCLE ( 'NONE', #423, 57.50000000000000711 ) ;
#373 = LOCAL_TIME ( 13, 47, 48.00000000000000000, #292 ) ;
#374 = ADVANCED_FACE ( 'NONE', ( #402 ), #230, .T. ) ;
#375 = CARTESIAN_POINT ( 'NONE',  ( 0.000000000000000000, 167.4999999999999716, -20.00000000000000000 ) ) ;
#376 = ORIENTED_EDGE ( 'NONE', *, *, #169, .F. ) ;
#377 = ORIENTED_EDGE ( 'NONE', *, *, #5, .T. ) ;
#378 = CARTESIAN_POINT ( 'NONE',  ( 63.50000000000001421, 5.999999999999977796, -20.00000000000000000 ) ) ;
#379 = ORIENTED_EDGE ( 'NONE', *, *, #381, .F. ) ;
#380 = DIRECTION ( 'NONE',  ( -0.000000000000000000, -0.000000000000000000, -1.000000000000000000 ) ) ;
#381 = EDGE_CURVE ( 'NONE', #284, #296, #32, .T. ) ;
#382 = ORIENTED_EDGE ( 'NONE', *, *, #367, .T. ) ;
#383 = VECTOR ( 'NONE', #57, 1000.000000000000000 ) ;
#384 = CARTESIAN_POINT ( 'NONE',  ( 57.50000000000000711, 5.999999999999970690, 20.00000000000000000 ) ) ;
#385 = PLANE ( 'NONE',  #4 ) ;
#386 = ADVANCED_FACE ( 'NONE', ( #1 ), #239, .F. ) ;
#387 = EDGE_LOOP ( 'NONE', ( #376, #358, #382, #178 ) ) ;
#388 = CARTESIAN_POINT ( 'NONE',  ( -57.50000000000000711, 167.4999999999999716, 20.00000000000000000 ) ) ;
#389 = CARTESIAN_POINT ( 'NONE',  ( 0.000000000000000000, 167.4999999999999716, -20.00000000000000000 ) ) ;
#390 = ORIENTED_EDGE ( 'NONE', *, *, #149, .F. ) ;
#391 = FACE_OUTER_BOUND ( 'NONE', #93, .T. ) ;
#392 = PERSON_AND_ORGANIZATION ( #302, #307 ) ;
#393 = DIRECTION ( 'NONE',  ( -0.000000000000000000, 1.000000000000000000, 0.000000000000000000 ) ) ;
#394 = ORIENTED_EDGE ( 'NONE', *, *, #272, .T. ) ;
#395 = AXIS2_PLACEMENT_3D ( 'NONE', #119, #151, #177 ) ;
#396 = AXIS2_PLACEMENT_3D ( 'NONE', #278, #203, #137 ) ;
#397 = DIRECTION ( 'NONE',  ( 1.156482317317870344E-15, -1.000000000000000000, 0.000000000000000000 ) ) ;
#398 = EDGE_CURVE ( 'NONE', #51, #263, #432, .T. ) ;
#399 = PERSON_AND_ORGANIZATION ( #302, #307 ) ;
#400 = PLANE ( 'NONE',  #205 ) ;
#401 = ORIENTED_EDGE ( 'NONE', *, *, #246, .T. ) ;
#402 = FACE_OUTER_BOUND ( 'NONE', #97, .T. ) ;
#403 = VECTOR ( 'NONE', #413, 1000.000000000000000 ) ;
#404 = CYLINDRICAL_SURFACE ( 'NONE', #396, 57.50000000000000711 ) ;
#405 = DIRECTION ( 'NONE',  ( -1.000000000000000000, 0.000000000000000000, 0.000000000000000000 ) ) ;
#406 = EDGE_CURVE ( 'NONE', #263, #15, #38, .T. ) ;
#407 = PERSON_AND_ORGANIZATION ( #302, #307 ) ;
#408 = UNCERTAINTY_MEASURE_WITH_UNIT (LENGTH_MEASURE( 1.000000000000000082E-05 ), #351, 'distance_accuracy_value', 'NONE');
#409 = CYLINDRICAL_SURFACE ( 'NONE', #166, 63.50000000000001421 ) ;
#410 = APPROVAL ( #311, 'UNSPECIFIED' ) ;
#411 = DIRECTION ( 'NONE',  ( 1.000000000000000000, 0.000000000000000000, 0.000000000000000000 ) ) ;
#412 = ADVANCED_FACE ( 'NONE', ( #273 ), #400, .T. ) ;
#413 = DIRECTION ( 'NONE',  ( -0.000000000000000000, -0.000000000000000000, -1.000000000000000000 ) ) ;
#414 = CARTESIAN_POINT ( 'NONE',  ( 0.000000000000000000, 0.000000000000000000, 0.000000000000000000 ) ) ;
#415 = CARTESIAN_POINT ( 'NONE',  ( 57.50000000000000711, 5.999999999999970690, -20.00000000000000000 ) ) ;
#416 = CARTESIAN_POINT ( 'NONE',  ( -57.50000000000000711, 5.999999999999970690, -20.00000000000000000 ) ) ;
#417 = CARTESIAN_POINT ( 'NONE',  ( 57.50000000000000711, 167.4999999999999716, -20.00000000000000000 ) ) ;
#418 = EDGE_CURVE ( 'NONE', #197, #224, #371, .T. ) ;
#419 = DIRECTION ( 'NONE',  ( -1.000000000000000000, 0.000000000000000000, 0.000000000000000000 ) ) ;
#420 = EDGE_CURVE ( 'NONE', #197, #341, #170, .T. ) ;
#421 = ORIENTED_EDGE ( 'NONE', *, *, #202, .T. ) ;
#422 = DIRECTION ( 'NONE',  ( 0.000000000000000000, -1.000000000000000000, 0.000000000000000000 ) ) ;
#423 = AXIS2_PLACEMENT_3D ( 'NONE', #321, #326, #330 ) ;
#424 = VECTOR ( 'NONE', #405, 1000.000000000000000 ) ;
#425 = PERSON_AND_ORGANIZATION_ROLE ( 'creator' ) ;
#426 = ADVANCED_FACE ( 'NONE', ( #139 ), #275, .T. ) ;
#427 = CARTESIAN_POINT ( 'NONE',  ( -57.50000000000000711, 5.999999999999970690, -20.00000000000000000 ) ) ;
#428 = SECURITY_CLASSIFICATION_LEVEL ( 'unclassified' ) ;
#429 = EDGE_LOOP ( 'NONE', ( #8, #282, #312, #317 ) ) ;
#430 = DIRECTION ( 'NONE',  ( -0.000000000000000000, -0.000000000000000000, -1.000000000000000000 ) ) ;
#431 = CALENDAR_DATE ( 2026, 9, 1 ) ;
#432 = LINE ( 'NONE', #135, #159 ) ;
#433 = DIRECTION ( 'NONE',  ( -0.000000000000000000, -0.000000000000000000, -1.000000000000000000 ) ) ;
ENDSEC;
END-ISO-10303-21;
