ISO-10303-21;
HEADER;
FILE_DESCRIPTION (( 'STEP AP203' ),
    '1' );
FILE_NAME ('4229-50-20-35_REV_.step',
    '2026-01-09T02:47:23',
    ( '' ),
    ( '' ),
    'SwSTEP 2.0',
    'SolidWorks 2025',
    '' );
FILE_SCHEMA (( 'CONFIG_CONTROL_DESIGN' ));
ENDSEC;

DATA;
#1 = DIRECTION ( 'NONE',  ( 1.000000000000000000, 0.000000000000000000, -0.000000000000000000 ) ) ;
#2 = AXIS2_PLACEMENT_3D ( 'NONE', #168, #368, #430 ) ;
#3 = AXIS2_PLACEMENT_3D ( 'NONE', #208, #279, #1 ) ;
#4 = FACE_OUTER_BOUND ( 'NONE', #121, .T. ) ;
#5 = CARTESIAN_POINT ( 'NONE',  ( 0.000000000000000000, 150.5000000000000284, 20.00000000000000000 ) ) ;
#6 = ORIENTED_EDGE ( 'NONE', *, *, #275, .F. ) ;
#7 = LINE ( 'NONE', #138, #265 ) ;
#8 = CARTESIAN_POINT ( 'NONE',  ( -44.50000000000000000, 5.999999999999985789, 20.00000000000000000 ) ) ;
#9 = VERTEX_POINT ( 'NONE', #128 ) ;
#10 = ADVANCED_FACE ( 'NONE', ( #259 ), #343, .T. ) ;
#11 = ADVANCED_FACE ( 'NONE', ( #242 ), #170, .T. ) ;
#12 = DIRECTION ( 'NONE',  ( -0.000000000000000000, -0.000000000000000000, -1.000000000000000000 ) ) ;
#13 = CARTESIAN_POINT ( 'NONE',  ( 50.49999999999999289, 150.5000000000000284, 20.00000000000000000 ) ) ;
#14 = LINE ( 'NONE', #152, #155 ) ;
#15 = PERSON_AND_ORGANIZATION ( #312, #316 ) ;
#16 = DIRECTION ( 'NONE',  ( -1.000000000000000000, 1.301042606982605715E-15, 0.000000000000000000 ) ) ;
#17 = EDGE_LOOP ( 'NONE', ( #167, #328, #278, #423 ) ) ;
#18 = PERSON_AND_ORGANIZATION_ROLE ( 'creator' ) ;
#19 = CARTESIAN_POINT ( 'NONE',  ( -50.49999999999999289, 150.5000000000000284, -20.00000000000000000 ) ) ;
#20 = CIRCLE ( 'NONE', #277, 50.49999999999999289 ) ;
#21 = CC_DESIGN_APPROVAL ( #413, ( #267 ) ) ;
#22 = ORIENTED_EDGE ( 'NONE', *, *, #210, .F. ) ;
#23 = PERSON_AND_ORGANIZATION ( #312, #316 ) ;
#24 = DIRECTION ( 'NONE',  ( -0.000000000000000000, -0.000000000000000000, -1.000000000000000000 ) ) ;
#25 = ORIENTED_EDGE ( 'NONE', *, *, #261, .T. ) ;
#26 = COORDINATED_UNIVERSAL_TIME_OFFSET ( 10, 0, .AHEAD. ) ;
#27 = ORIENTED_EDGE ( 'NONE', *, *, #189, .F. ) ;
#28 = DATE_AND_TIME ( #184, #366 ) ;
#29 = EDGE_CURVE ( 'NONE', #321, #254, #40, .T. ) ;
#30 = VERTEX_POINT ( 'NONE', #370 ) ;
#31 = AXIS2_PLACEMENT_3D ( 'NONE', #5, #266, #142 ) ;
#32 = ORIENTED_EDGE ( 'NONE', *, *, #372, .T. ) ;
#33 = ADVANCED_FACE ( 'NONE', ( #209 ), #42, .T. ) ;
#34 = DIRECTION ( 'NONE',  ( 0.000000000000000000, 0.000000000000000000, 1.000000000000000000 ) ) ;
#35 = CARTESIAN_POINT ( 'NONE',  ( -44.50000000000000000, 5.999999999999985789, 20.00000000000000000 ) ) ;
#36 = PRODUCT_DEFINITION_SHAPE ( 'NONE', 'NONE',  #389 ) ;
#37 = PLANE ( 'NONE',  #296 ) ;
#38 = FACE_OUTER_BOUND ( 'NONE', #62, .T. ) ;
#39 = VECTOR ( 'NONE', #272, 1000.000000000000000 ) ;
#40 = LINE ( 'NONE', #404, #116 ) ;
#41 = CARTESIAN_POINT ( 'NONE',  ( 50.49999999999999289, 150.5000000000000284, 20.00000000000000000 ) ) ;
#42 = PLANE ( 'NONE',  #217 ) ;
#43 = PRODUCT_RELATED_PRODUCT_CATEGORY ( 'detail', '', ( #114 ) ) ;
#44 = EDGE_LOOP ( 'NONE', ( #263, #27, #330, #313 ) ) ;
#45 = FACE_OUTER_BOUND ( 'NONE', #17, .T. ) ;
#46 = LINE ( 'NONE', #181, #108 ) ;
#47 = LINE ( 'NONE', #124, #386 ) ;
#48 = AXIS2_PLACEMENT_3D ( 'NONE', #345, #237, #341 ) ;
#49 = CARTESIAN_POINT ( 'NONE',  ( 44.50000000000000000, 150.5000000000000284, 20.00000000000000000 ) ) ;
#50 = ORIENTED_EDGE ( 'NONE', *, *, #275, .T. ) ;
#51 = DATE_AND_TIME ( #362, #302 ) ;
#52 = CARTESIAN_POINT ( 'NONE',  ( -44.50000000000000000, 150.5000000000000284, -20.00000000000000000 ) ) ;
#53 = EDGE_LOOP ( 'NONE', ( #273, #398, #429, #25 ) ) ;
#54 = APPROVAL_ROLE ( '' ) ;
#55 = LINE ( 'NONE', #385, #65 ) ;
#56 = CIRCLE ( 'NONE', #63, 50.49999999999999289 ) ;
#57 = VERTEX_POINT ( 'NONE', #300 ) ;
#58 = PERSON_AND_ORGANIZATION ( #312, #316 ) ;
#59 = CC_DESIGN_DATE_AND_TIME_ASSIGNMENT ( #51, #187, ( #374 ) ) ;
#60 = ORIENTED_EDGE ( 'NONE', *, *, #135, .T. ) ;
#61 = PERSON_AND_ORGANIZATION_ROLE ( 'classification_officer' ) ;
#62 = EDGE_LOOP ( 'NONE', ( #364, #418, #425, #309 ) ) ;
#63 = AXIS2_PLACEMENT_3D ( 'NONE', #379, #172, #146 ) ;
#64 = ORIENTED_EDGE ( 'NONE', *, *, #73, .F. ) ;
#65 = VECTOR ( 'NONE', #246, 1000.000000000000000 ) ;
#66 = DESIGN_CONTEXT ( 'detailed design', #367, 'design' ) ;
#67 = EDGE_CURVE ( 'NONE', #179, #198, #191, .T. ) ;
#68 = DIRECTION ( 'NONE',  ( -1.000000000000000000, 0.000000000000000000, 0.000000000000000000 ) ) ;
#69 = DIRECTION ( 'NONE',  ( -1.000000000000000000, 0.000000000000000000, 0.000000000000000000 ) ) ;
#70 = ADVANCED_FACE ( 'NONE', ( #409 ), #139, .T. ) ;
#71 = VECTOR ( 'NONE', #89, 1000.000000000000000 ) ;
#72 = LINE ( 'NONE', #13, #256 ) ;
#73 = EDGE_CURVE ( 'NONE', #9, #395, #407, .T. ) ;
#74 = DIRECTION ( 'NONE',  ( -0.000000000000000000, 0.000000000000000000, -1.000000000000000000 ) ) ;
#75 = DIRECTION ( 'NONE',  ( -1.000000000000000000, 0.000000000000000000, 0.000000000000000000 ) ) ;
#76 = VECTOR ( 'NONE', #375, 1000.000000000000000 ) ;
#77 = APPROVAL_PERSON_ORGANIZATION ( #162, #123, #424 ) ;
#78 = DIRECTION ( 'NONE',  ( 0.000000000000000000, -0.000000000000000000, -1.000000000000000000 ) ) ;
#79 = ADVANCED_FACE ( 'NONE', ( #176 ), #433, .T. ) ;
#80 = DIRECTION ( 'NONE',  ( -1.000000000000000000, 0.000000000000000000, 0.000000000000000000 ) ) ;
#81 = DIRECTION ( 'NONE',  ( -0.000000000000000000, -1.000000000000000000, 0.000000000000000000 ) ) ;
#82 = CARTESIAN_POINT ( 'NONE',  ( -44.50000000000000000, 5.999999999999985789, 20.00000000000000000 ) ) ;
#83 = ADVANCED_FACE ( 'NONE', ( #269 ), #106, .F. ) ;
#84 = DATE_AND_TIME ( #219, #402 ) ;
#85 = FACE_OUTER_BOUND ( 'NONE', #420, .T. ) ;
#86 = VECTOR ( 'NONE', #384, 1000.000000000000000 ) ;
#87 = ORIENTED_EDGE ( 'NONE', *, *, #130, .T. ) ;
#88 = CARTESIAN_POINT ( 'NONE',  ( 0.000000000000000000, 0.000000000000000000, 0.000000000000000000 ) ) ;
#89 = DIRECTION ( 'NONE',  ( -0.000000000000000000, -0.000000000000000000, -1.000000000000000000 ) ) ;
#90 = MECHANICAL_CONTEXT ( 'NONE', #350, 'mechanical' ) ;
#91 = LINE ( 'NONE', #222, #197 ) ;
#92 = VERTEX_POINT ( 'NONE', #280 ) ;
#93 = ADVANCED_FACE ( 'NONE', ( #104 ), #236, .T. ) ;
#94 = ORIENTED_EDGE ( 'NONE', *, *, #359, .F. ) ;
#95 = APPROVAL_DATE_TIME ( #286, #123 ) ;
#96 = ORIENTED_EDGE ( 'NONE', *, *, #294, .F. ) ;
#97 = EDGE_LOOP ( 'NONE', ( #347, #132, #94, #60 ) ) ;
#98 = VECTOR ( 'NONE', #390, 1000.000000000000000 ) ;
#99 = ORIENTED_EDGE ( 'NONE', *, *, #231, .F. ) ;
#100 = LINE ( 'NONE', #336, #39 ) ;
#101 = ADVANCED_FACE ( 'NONE', ( #45 ), #276, .T. ) ;
#102 = CC_DESIGN_APPROVAL ( #411, ( #389 ) ) ;
#103 = FACE_OUTER_BOUND ( 'NONE', #297, .T. ) ;
#104 = FACE_OUTER_BOUND ( 'NONE', #44, .T. ) ;
#105 = LINE ( 'NONE', #241, #249 ) ;
#106 = PLANE ( 'NONE',  #432 ) ;
#107 = PLANE ( 'NONE',  #225 ) ;
#108 = VECTOR ( 'NONE', #75, 1000.000000000000000 ) ;
#109 = LINE ( 'NONE', #180, #325 ) ;
#110 = ORIENTED_EDGE ( 'NONE', *, *, #339, .T. ) ;
#111 = DIRECTION ( 'NONE',  ( -1.301042606982605715E-15, -1.000000000000000000, 0.000000000000000000 ) ) ;
#112 = DIRECTION ( 'NONE',  ( -0.000000000000000000, -0.000000000000000000, -1.000000000000000000 ) ) ;
#113 = CARTESIAN_POINT ( 'NONE',  ( 50.49999999999999289, 150.5000000000000284, 20.00000000000000000 ) ) ;
#114 = PRODUCT ( '4229-50-20-35_REV_', '4229-50-20-35_REV_', '', ( #90 ) ) ;
#115 = APPLICATION_PROTOCOL_DEFINITION ( 'international standard', 'config_control_design', 1994, #350 ) ;
#116 = VECTOR ( 'NONE', #12, 1000.000000000000000 ) ;
#117 = APPROVAL_PERSON_ORGANIZATION ( #329, #413, #54 ) ;
#118 = LINE ( 'NONE', #82, #426 ) ;
#119 = COORDINATED_UNIVERSAL_TIME_OFFSET ( 10, 0, .AHEAD. ) ;
#120 = DIRECTION ( 'NONE',  ( 1.000000000000000000, 0.000000000000000000, 0.000000000000000000 ) ) ;
#121 = EDGE_LOOP ( 'NONE', ( #125, #22, #227, #240 ) ) ;
#122 = APPROVAL_STATUS ( 'not_yet_approved' ) ;
#123 = APPROVAL ( #216, 'UNSPECIFIED' ) ;
#124 = CARTESIAN_POINT ( 'NONE',  ( 50.49999999999999289, 5.999999999999977796, -20.00000000000000000 ) ) ;
#125 = ORIENTED_EDGE ( 'NONE', *, *, #67, .T. ) ;
#126 = COORDINATED_UNIVERSAL_TIME_OFFSET ( 10, 0, .AHEAD. ) ;
#127 = APPROVAL_PERSON_ORGANIZATION ( #58, #411, #357 ) ;
#128 = CARTESIAN_POINT ( 'NONE',  ( 50.49999999999999289, 150.5000000000000284, -20.00000000000000000 ) ) ;
#129 = DIRECTION ( 'NONE',  ( 0.000000000000000000, 0.000000000000000000, 1.000000000000000000 ) ) ;
#130 = EDGE_CURVE ( 'NONE', #177, #30, #174, .T. ) ;
#131 = ORIENTED_EDGE ( 'NONE', *, *, #29, .F. ) ;
#132 = ORIENTED_EDGE ( 'NONE', *, *, #415, .T. ) ;
#133 = VECTOR ( 'NONE', #327, 1000.000000000000000 ) ;
#134 = DIRECTION ( 'NONE',  ( 0.000000000000000000, -1.000000000000000000, 0.000000000000000000 ) ) ;
#135 = EDGE_CURVE ( 'NONE', #332, #186, #100, .T. ) ;
#136 = ADVANCED_FACE ( 'NONE', ( #200 ), #315, .T. ) ;
#137 = AXIS2_PLACEMENT_3D ( 'NONE', #401, #207, #346 ) ;
#138 = CARTESIAN_POINT ( 'NONE',  ( -44.50000000000000000, 5.999999999999985789, -20.00000000000000000 ) ) ;
#139 = PLANE ( 'NONE',  #165 ) ;
#140 = EDGE_CURVE ( 'NONE', #198, #9, #109, .T. ) ;
#141 = DIRECTION ( 'NONE',  ( 0.000000000000000000, 1.000000000000000000, 0.000000000000000000 ) ) ;
#142 = DIRECTION ( 'NONE',  ( -1.000000000000000000, 0.000000000000000000, 0.000000000000000000 ) ) ;
#143 = CARTESIAN_POINT ( 'NONE',  ( -44.50000000000000000, 5.999999999999985789, -20.00000000000000000 ) ) ;
#144 = DIRECTION ( 'NONE',  ( 1.000000000000000000, -1.301042606982605715E-15, 0.000000000000000000 ) ) ;
#145 = VERTEX_POINT ( 'NONE', #220 ) ;
#146 = DIRECTION ( 'NONE',  ( 1.000000000000000000, 0.000000000000000000, 0.000000000000000000 ) ) ;
#147 = AXIS2_PLACEMENT_3D ( 'NONE', #88, #129, #151 ) ;
#148 = EDGE_CURVE ( 'NONE', #145, #92, #291, .T. ) ;
#149 = CARTESIAN_POINT ( 'NONE',  ( 50.49999999999999289, 150.5000000000000284, 20.00000000000000000 ) ) ;
#150 = LINE ( 'NONE', #253, #338 ) ;
#151 = DIRECTION ( 'NONE',  ( 1.000000000000000000, 0.000000000000000000, 0.000000000000000000 ) ) ;
#152 = CARTESIAN_POINT ( 'NONE',  ( 50.49999999999999289, 5.999999999999977796, 20.00000000000000000 ) ) ;
#153 = EDGE_LOOP ( 'NONE', ( #196, #299, #161, #363 ) ) ;
#154 = CALENDAR_DATE ( 2026, 9, 1 ) ;
#155 = VECTOR ( 'NONE', #160, 1000.000000000000000 ) ;
#156 = DIRECTION ( 'NONE',  ( -1.000000000000000000, 1.301042606982605715E-15, 0.000000000000000000 ) ) ;
#157 = EDGE_LOOP ( 'NONE', ( #195, #131, #50, #110 ) ) ;
#158 = PERSON_AND_ORGANIZATION_ROLE ( 'creator' ) ;
#159 = EDGE_CURVE ( 'NONE', #198, #230, #183, .T. ) ;
#160 = DIRECTION ( 'NONE',  ( -0.000000000000000000, -0.000000000000000000, -1.000000000000000000 ) ) ;
#161 = ORIENTED_EDGE ( 'NONE', *, *, #73, .T. ) ;
#162 = PERSON_AND_ORGANIZATION ( #312, #316 ) ;
#163 = VERTEX_POINT ( 'NONE', #113 ) ;
#164 = PERSON_AND_ORGANIZATION_ROLE ( 'design_supplier' ) ;
#165 = AXIS2_PLACEMENT_3D ( 'NONE', #149, #376, #233 ) ;
#166 = ORIENTED_EDGE ( 'NONE', *, *, #202, .T. ) ;
#167 = ORIENTED_EDGE ( 'NONE', *, *, #140, .F. ) ;
#168 = CARTESIAN_POINT ( 'NONE',  ( -44.50000000000000000, 150.5000000000000284, 20.00000000000000000 ) ) ;
#169 = VECTOR ( 'NONE', #380, 1000.000000000000000 ) ;
#170 = CYLINDRICAL_SURFACE ( 'NONE', #137, 50.49999999999999289 ) ;
#171 = EDGE_CURVE ( 'NONE', #395, #230, #47, .T. ) ;
#172 = DIRECTION ( 'NONE',  ( -0.000000000000000000, -0.000000000000000000, -1.000000000000000000 ) ) ;
#173 = EDGE_CURVE ( 'NONE', #30, #92, #419, .T. ) ;
#174 = CIRCLE ( 'NONE', #31, 44.50000000000000000 ) ;
#175 = DIRECTION ( 'NONE',  ( 1.000000000000000000, 0.000000000000000000, -0.000000000000000000 ) ) ;
#176 = FACE_OUTER_BOUND ( 'NONE', #153, .T. ) ;
#177 = VERTEX_POINT ( 'NONE', #287 ) ;
#178 = CARTESIAN_POINT ( 'NONE',  ( 0.000000000000000000, 150.5000000000000284, -20.00000000000000000 ) ) ;
#179 = VERTEX_POINT ( 'NONE', #52 ) ;
#180 = CARTESIAN_POINT ( 'NONE',  ( 44.50000000000000000, 150.5000000000000284, -20.00000000000000000 ) ) ;
#181 = CARTESIAN_POINT ( 'NONE',  ( -44.50000000000000000, 150.5000000000000284, 20.00000000000000000 ) ) ;
#182 = AXIS2_PLACEMENT_3D ( 'NONE', #178, #311, #69 ) ;
#183 = LINE ( 'NONE', #248, #301 ) ;
#184 = CALENDAR_DATE ( 2026, 9, 1 ) ;
#185 = DIRECTION ( 'NONE',  ( 1.000000000000000000, 0.000000000000000000, -0.000000000000000000 ) ) ;
#186 = VERTEX_POINT ( 'NONE', #352 ) ;
#187 = DATE_TIME_ROLE ( 'classification_date' ) ;
#188 = CARTESIAN_POINT ( 'NONE',  ( 0.000000000000000000, 150.5000000000000284, -20.00000000000000000 ) ) ;
#189 = EDGE_CURVE ( 'NONE', #145, #395, #14, .T. ) ;
#190 = ORIENTED_EDGE ( 'NONE', *, *, #243, .T. ) ;
#191 = CIRCLE ( 'NONE', #182, 44.50000000000000000 ) ;
#192 = DIRECTION ( 'NONE',  ( -0.000000000000000000, 1.000000000000000000, 0.000000000000000000 ) ) ;
#193 = ORIENTED_EDGE ( 'NONE', *, *, #431, .F. ) ;
#194 = DATE_TIME_ROLE ( 'creation_date' ) ;
#195 = ORIENTED_EDGE ( 'NONE', *, *, #199, .F. ) ;
#196 = ORIENTED_EDGE ( 'NONE', *, *, #159, .F. ) ;
#197 = VECTOR ( 'NONE', #192, 1000.000000000000000 ) ;
#198 = VERTEX_POINT ( 'NONE', #283 ) ;
#199 = EDGE_CURVE ( 'NONE', #254, #9, #20, .T. ) ;
#200 = FACE_OUTER_BOUND ( 'NONE', #335, .T. ) ;
#201 = DIRECTION ( 'NONE',  ( -1.000000000000000000, 0.000000000000000000, 0.000000000000000000 ) ) ;
#202 = EDGE_CURVE ( 'NONE', #57, #252, #118, .T. ) ;
#203 = CC_DESIGN_APPROVAL ( #123, ( #374 ) ) ;
#204 = EDGE_CURVE ( 'NONE', #177, #179, #150, .T. ) ;
#205 = CARTESIAN_POINT ( 'NONE',  ( 50.49999999999999289, 150.5000000000000284, 20.00000000000000000 ) ) ;
#206 = PLANE ( 'NONE',  #3 ) ;
#207 = DIRECTION ( 'NONE',  ( -0.000000000000000000, -0.000000000000000000, -1.000000000000000000 ) ) ;
#208 = CARTESIAN_POINT ( 'NONE',  ( 0.000000000000000000, 150.5000000000000284, -20.00000000000000000 ) ) ;
#209 = FACE_OUTER_BOUND ( 'NONE', #365, .T. ) ;
#210 = EDGE_CURVE ( 'NONE', #30, #198, #422, .T. ) ;
#211 =( NAMED_UNIT ( * ) PLANE_ANGLE_UNIT ( ) SI_UNIT ( $, .RADIAN. ) );
#212 = DIRECTION ( 'NONE',  ( 0.000000000000000000, 0.000000000000000000, 1.000000000000000000 ) ) ;
#213 = CC_DESIGN_PERSON_AND_ORGANIZATION_ASSIGNMENT ( #23, #18, ( #389 ) ) ;
#214 = CARTESIAN_POINT ( 'NONE',  ( 44.50000000000000000, 5.999999999999985789, 20.00000000000000000 ) ) ;
#215 = DIRECTION ( 'NONE',  ( -0.000000000000000000, 0.000000000000000000, -1.000000000000000000 ) ) ;
#216 = APPROVAL_STATUS ( 'not_yet_approved' ) ;
#217 = AXIS2_PLACEMENT_3D ( 'NONE', #35, #134, #78 ) ;
#218 = CARTESIAN_POINT ( 'NONE',  ( 50.49999999999999289, 5.999999999999977796, 20.00000000000000000 ) ) ;
#219 = CALENDAR_DATE ( 2026, 9, 1 ) ;
#220 = CARTESIAN_POINT ( 'NONE',  ( 50.49999999999999289, 5.999999999999977796, 20.00000000000000000 ) ) ;
#221 = PERSON_AND_ORGANIZATION ( #312, #316 ) ;
#222 = CARTESIAN_POINT ( 'NONE',  ( -50.49999999999999289, 5.999999999999985789, -20.00000000000000000 ) ) ;
#223 = ORIENTED_EDGE ( 'NONE', *, *, #189, .T. ) ;
#224 = CALENDAR_DATE ( 2026, 9, 1 ) ;
#225 = AXIS2_PLACEMENT_3D ( 'NONE', #245, #317, #405 ) ;
#226 = ORIENTED_EDGE ( 'NONE', *, *, #289, .T. ) ;
#227 = ORIENTED_EDGE ( 'NONE', *, *, #130, .F. ) ;
#228 = ORIENTED_EDGE ( 'NONE', *, *, #148, .F. ) ;
#229 = AXIS2_PLACEMENT_3D ( 'NONE', #412, #111, #144 ) ;
#230 = VERTEX_POINT ( 'NONE', #414 ) ;
#231 = EDGE_CURVE ( 'NONE', #252, #186, #323, .T. ) ;
#232 = CC_DESIGN_PERSON_AND_ORGANIZATION_ASSIGNMENT ( #15, #61, ( #374 ) ) ;
#233 = DIRECTION ( 'NONE',  ( -0.000000000000000000, 0.000000000000000000, -1.000000000000000000 ) ) ;
#234 = AXIS2_PLACEMENT_3D ( 'NONE', #349, #307, #68 ) ;
#235 = CARTESIAN_POINT ( 'NONE',  ( 50.49999999999999289, 5.999999999999977796, -20.00000000000000000 ) ) ;
#236 = PLANE ( 'NONE',  #229 ) ;
#237 = DIRECTION ( 'NONE',  ( -0.000000000000000000, -0.000000000000000000, -1.000000000000000000 ) ) ;
#238 = CARTESIAN_POINT ( 'NONE',  ( 0.000000000000000000, 150.5000000000000284, 20.00000000000000000 ) ) ;
#239 = VECTOR ( 'NONE', #358, 1000.000000000000000 ) ;
#240 = ORIENTED_EDGE ( 'NONE', *, *, #204, .T. ) ;
#241 = CARTESIAN_POINT ( 'NONE',  ( -50.49999999999999289, 150.5000000000000284, -20.00000000000000000 ) ) ;
#242 = FACE_OUTER_BOUND ( 'NONE', #157, .T. ) ;
#243 = EDGE_CURVE ( 'NONE', #252, #321, #55, .T. ) ;
#244 = EDGE_LOOP ( 'NONE', ( #64, #408, #226, #223 ) ) ;
#245 = CARTESIAN_POINT ( 'NONE',  ( -50.49999999999999289, 5.999999999999985789, 20.00000000000000000 ) ) ;
#246 = DIRECTION ( 'NONE',  ( -0.000000000000000000, 1.000000000000000000, 0.000000000000000000 ) ) ;
#247 = LINE ( 'NONE', #214, #86 ) ;
#248 = CARTESIAN_POINT ( 'NONE',  ( 44.50000000000000000, 150.5000000000000284, -20.00000000000000000 ) ) ;
#249 = VECTOR ( 'NONE', #274, 1000.000000000000000 ) ;
#250 = DIRECTION ( 'NONE',  ( -0.000000000000000000, -0.000000000000000000, -1.000000000000000000 ) ) ;
#251 = LINE ( 'NONE', #320, #98 ) ;
#252 = VERTEX_POINT ( 'NONE', #383 ) ;
#253 = CARTESIAN_POINT ( 'NONE',  ( -44.50000000000000000, 150.5000000000000284, 20.00000000000000000 ) ) ;
#254 = VERTEX_POINT ( 'NONE', #19 ) ;
#255 = PERSON_AND_ORGANIZATION_ROLE ( 'design_owner' ) ;
#256 = VECTOR ( 'NONE', #81, 1000.000000000000000 ) ;
#257 = LOCAL_TIME ( 13, 47, 23.00000000000000000, #119 ) ;
#258 = ADVANCED_FACE ( 'NONE', ( #85 ), #354, .F. ) ;
#259 = FACE_OUTER_BOUND ( 'NONE', #397, .T. ) ;
#260 = PERSON_AND_ORGANIZATION ( #312, #316 ) ;
#261 = EDGE_CURVE ( 'NONE', #57, #332, #251, .T. ) ;
#262 = ORIENTED_EDGE ( 'NONE', *, *, #372, .F. ) ;
#263 = ORIENTED_EDGE ( 'NONE', *, *, #171, .F. ) ;
#264 = CC_DESIGN_DATE_AND_TIME_ASSIGNMENT ( #84, #194, ( #389 ) ) ;
#265 = VECTOR ( 'NONE', #141, 1000.000000000000000 ) ;
#266 = DIRECTION ( 'NONE',  ( -0.000000000000000000, -0.000000000000000000, -1.000000000000000000 ) ) ;
#267 = PRODUCT_DEFINITION_FORMATION_WITH_SPECIFIED_SOURCE ( 'ANY', '', #114, .NOT_KNOWN. ) ;
#268 = LINE ( 'NONE', #351, #334 ) ;
#269 = FACE_OUTER_BOUND ( 'NONE', #53, .T. ) ;
#270 = EDGE_CURVE ( 'NONE', #186, #254, #91, .T. ) ;
#271 = FACE_OUTER_BOUND ( 'NONE', #97, .T. ) ;
#272 = DIRECTION ( 'NONE',  ( -1.000000000000000000, 0.000000000000000000, 0.000000000000000000 ) ) ;
#273 = ORIENTED_EDGE ( 'NONE', *, *, #359, .T. ) ;
#274 = DIRECTION ( 'NONE',  ( 1.000000000000000000, 0.000000000000000000, 0.000000000000000000 ) ) ;
#275 = EDGE_CURVE ( 'NONE', #321, #163, #56, .T. ) ;
#276 = PLANE ( 'NONE',  #234 ) ;
#277 = AXIS2_PLACEMENT_3D ( 'NONE', #188, #24, #120 ) ;
#278 = ORIENTED_EDGE ( 'NONE', *, *, #415, .F. ) ;
#279 = DIRECTION ( 'NONE',  ( 0.000000000000000000, 0.000000000000000000, 1.000000000000000000 ) ) ;
#280 = CARTESIAN_POINT ( 'NONE',  ( 44.50000000000000000, 5.999999999999985789, 20.00000000000000000 ) ) ;
#281 = DIRECTION ( 'NONE',  ( -1.000000000000000000, 0.000000000000000000, 0.000000000000000000 ) ) ;
#282 = SHAPE_DEFINITION_REPRESENTATION ( #36, #331 ) ;
#283 = CARTESIAN_POINT ( 'NONE',  ( 44.50000000000000000, 150.5000000000000284, -20.00000000000000000 ) ) ;
#284 = ORIENTED_EDGE ( 'NONE', *, *, #29, .T. ) ;
#285 = VECTOR ( 'NONE', #156, 1000.000000000000000 ) ;
#286 = DATE_AND_TIME ( #154, #257 ) ;
#287 = CARTESIAN_POINT ( 'NONE',  ( -44.50000000000000000, 150.5000000000000284, 20.00000000000000000 ) ) ;
#288 = ORIENTED_EDGE ( 'NONE', *, *, #173, .T. ) ;
#289 = EDGE_CURVE ( 'NONE', #163, #145, #72, .T. ) ;
#290 = PERSON_AND_ORGANIZATION ( #312, #316 ) ;
#291 = LINE ( 'NONE', #218, #285 ) ;
#292 = ORIENTED_EDGE ( 'NONE', *, *, #270, .F. ) ;
#293 = ADVANCED_FACE ( 'NONE', ( #4 ), #340, .F. ) ;
#294 = EDGE_CURVE ( 'NONE', #92, #230, #247, .T. ) ;
#295 = ORIENTED_EDGE ( 'NONE', *, *, #135, .F. ) ;
#296 = AXIS2_PLACEMENT_3D ( 'NONE', #41, #377, #175 ) ;
#297 = EDGE_LOOP ( 'NONE', ( #292, #99, #190, #284 ) ) ;
#298 = CC_DESIGN_PERSON_AND_ORGANIZATION_ASSIGNMENT ( #221, #255, ( #114 ) ) ;
#299 = ORIENTED_EDGE ( 'NONE', *, *, #140, .T. ) ;
#300 = CARTESIAN_POINT ( 'NONE',  ( -44.50000000000000000, 5.999999999999985789, 20.00000000000000000 ) ) ;
#301 = VECTOR ( 'NONE', #356, 1000.000000000000000 ) ;
#302 = LOCAL_TIME ( 13, 47, 23.00000000000000000, #355 ) ;
#303 = CARTESIAN_POINT ( 'NONE',  ( 50.49999999999999289, 150.5000000000000284, -20.00000000000000000 ) ) ;
#304 = LINE ( 'NONE', #205, #344 ) ;
#305 =( GEOMETRIC_REPRESENTATION_CONTEXT ( 3 ) GLOBAL_UNCERTAINTY_ASSIGNED_CONTEXT ( ( #406 ) ) GLOBAL_UNIT_ASSIGNED_CONTEXT ( ( #310, #211, #314 ) ) REPRESENTATION_CONTEXT ( 'NONE', 'WORKASPACE' ) );
#306 = LINE ( 'NONE', #382, #76 ) ;
#307 = DIRECTION ( 'NONE',  ( -0.000000000000000000, 0.000000000000000000, -1.000000000000000000 ) ) ;
#308 = CC_DESIGN_PERSON_AND_ORGANIZATION_ASSIGNMENT ( #260, #158, ( #267 ) ) ;
#309 = ORIENTED_EDGE ( 'NONE', *, *, #202, .F. ) ;
#310 =( LENGTH_UNIT ( ) NAMED_UNIT ( * ) SI_UNIT ( .MILLI., .METRE. ) );
#311 = DIRECTION ( 'NONE',  ( -0.000000000000000000, -0.000000000000000000, -1.000000000000000000 ) ) ;
#312 = PERSON ( 'UNSPECIFIED', 'UNSPECIFIED', 'UNSPECIFIED', ('UNSPECIFIED'), ('UNSPECIFIED'), ('UNSPECIFIED') ) ;
#313 = ORIENTED_EDGE ( 'NONE', *, *, #294, .T. ) ;
#314 =( NAMED_UNIT ( * ) SI_UNIT ( $, .STERADIAN. ) SOLID_ANGLE_UNIT ( ) );
#315 = PLANE ( 'NONE',  #361 ) ;
#316 = ORGANIZATION ( 'UNSPECIFIED', 'UNSPECIFIED', '' ) ;
#317 = DIRECTION ( 'NONE',  ( -1.000000000000000000, -0.000000000000000000, 0.000000000000000000 ) ) ;
#318 = DIRECTION ( 'NONE',  ( 1.000000000000000000, 0.000000000000000000, 0.000000000000000000 ) ) ;
#319 = APPROVAL_DATE_TIME ( #322, #411 ) ;
#320 = CARTESIAN_POINT ( 'NONE',  ( -44.50000000000000000, 5.999999999999985789, 20.00000000000000000 ) ) ;
#321 = VERTEX_POINT ( 'NONE', #348 ) ;
#322 = DATE_AND_TIME ( #224, #373 ) ;
#323 = LINE ( 'NONE', #394, #71 ) ;
#324 = ORIENTED_EDGE ( 'NONE', *, *, #210, .T. ) ;
#325 = VECTOR ( 'NONE', #318, 1000.000000000000000 ) ;
#326 = APPROVAL_DATE_TIME ( #28, #413 ) ;
#327 = DIRECTION ( 'NONE',  ( 0.000000000000000000, -1.000000000000000000, 0.000000000000000000 ) ) ;
#328 = ORIENTED_EDGE ( 'NONE', *, *, #67, .F. ) ;
#329 = PERSON_AND_ORGANIZATION ( #312, #316 ) ;
#330 = ORIENTED_EDGE ( 'NONE', *, *, #148, .T. ) ;
#331 = ADVANCED_BREP_SHAPE_REPRESENTATION ( '4229-50-20-35_REV_', ( #391, #147 ), #305 ) ;
#332 = VERTEX_POINT ( 'NONE', #143 ) ;
#333 = CLOSED_SHELL ( 'NONE', ( #10, #369, #101, #79, #258, #93, #70, #11, #381, #33, #83, #293, #136, #342 ) ) ;
#334 = VECTOR ( 'NONE', #403, 1000.000000000000000 ) ;
#335 = EDGE_LOOP ( 'NONE', ( #288, #228, #360, #32 ) ) ;
#336 = CARTESIAN_POINT ( 'NONE',  ( -44.50000000000000000, 5.999999999999985789, -20.00000000000000000 ) ) ;
#337 = CARTESIAN_POINT ( 'NONE',  ( -50.49999999999999289, 150.5000000000000284, -20.00000000000000000 ) ) ;
#338 = VECTOR ( 'NONE', #250, 1000.000000000000000 ) ;
#339 = EDGE_CURVE ( 'NONE', #163, #9, #304, .T. ) ;
#340 = CYLINDRICAL_SURFACE ( 'NONE', #48, 44.50000000000000000 ) ;
#341 = DIRECTION ( 'NONE',  ( -1.000000000000000000, 0.000000000000000000, 0.000000000000000000 ) ) ;
#342 = ADVANCED_FACE ( 'NONE', ( #271 ), #206, .F. ) ;
#343 = PLANE ( 'NONE',  #2 ) ;
#344 = VECTOR ( 'NONE', #112, 1000.000000000000000 ) ;
#345 = CARTESIAN_POINT ( 'NONE',  ( 0.000000000000000000, 150.5000000000000284, 20.00000000000000000 ) ) ;
#346 = DIRECTION ( 'NONE',  ( -1.000000000000000000, 0.000000000000000000, 0.000000000000000000 ) ) ;
#347 = ORIENTED_EDGE ( 'NONE', *, *, #270, .T. ) ;
#348 = CARTESIAN_POINT ( 'NONE',  ( -50.49999999999999289, 150.5000000000000284, 20.00000000000000000 ) ) ;
#349 = CARTESIAN_POINT ( 'NONE',  ( 44.50000000000000000, 150.5000000000000284, -20.00000000000000000 ) ) ;
#350 = APPLICATION_CONTEXT ( 'configuration controlled 3d designs of mechanical parts and assemblies' ) ;
#351 = CARTESIAN_POINT ( 'NONE',  ( -44.50000000000000000, 5.999999999999985789, 20.00000000000000000 ) ) ;
#352 = CARTESIAN_POINT ( 'NONE',  ( -50.49999999999999289, 5.999999999999985789, -20.00000000000000000 ) ) ;
#353 = AXIS2_PLACEMENT_3D ( 'NONE', #49, #185, #215 ) ;
#354 = PLANE ( 'NONE',  #353 ) ;
#355 = COORDINATED_UNIVERSAL_TIME_OFFSET ( 10, 0, .AHEAD. ) ;
#356 = DIRECTION ( 'NONE',  ( 0.000000000000000000, -1.000000000000000000, 0.000000000000000000 ) ) ;
#357 = APPROVAL_ROLE ( '' ) ;
#358 = DIRECTION ( 'NONE',  ( -0.000000000000000000, -0.000000000000000000, -1.000000000000000000 ) ) ;
#359 = EDGE_CURVE ( 'NONE', #332, #179, #7, .T. ) ;
#360 = ORIENTED_EDGE ( 'NONE', *, *, #289, .F. ) ;
#361 = AXIS2_PLACEMENT_3D ( 'NONE', #238, #34, #378 ) ;
#362 = CALENDAR_DATE ( 2026, 9, 1 ) ;
#363 = ORIENTED_EDGE ( 'NONE', *, *, #171, .T. ) ;
#364 = ORIENTED_EDGE ( 'NONE', *, *, #371, .T. ) ;
#365 = EDGE_LOOP ( 'NONE', ( #295, #399, #166, #392 ) ) ;
#366 = LOCAL_TIME ( 13, 47, 23.00000000000000000, #26 ) ;
#367 = APPLICATION_CONTEXT ( 'configuration controlled 3d designs of mechanical parts and assemblies' ) ;
#368 = DIRECTION ( 'NONE',  ( 0.000000000000000000, 0.000000000000000000, 1.000000000000000000 ) ) ;
#369 = ADVANCED_FACE ( 'NONE', ( #38 ), #37, .T. ) ;
#370 = CARTESIAN_POINT ( 'NONE',  ( 44.50000000000000000, 150.5000000000000284, 20.00000000000000000 ) ) ;
#371 = EDGE_CURVE ( 'NONE', #57, #177, #268, .T. ) ;
#372 = EDGE_CURVE ( 'NONE', #163, #30, #306, .T. ) ;
#373 = LOCAL_TIME ( 13, 47, 23.00000000000000000, #393 ) ;
#374 = SECURITY_CLASSIFICATION ( '', '', #421 ) ;
#375 = DIRECTION ( 'NONE',  ( -1.000000000000000000, 0.000000000000000000, 0.000000000000000000 ) ) ;
#376 = DIRECTION ( 'NONE',  ( 1.000000000000000000, 0.000000000000000000, -0.000000000000000000 ) ) ;
#377 = DIRECTION ( 'NONE',  ( 0.000000000000000000, 0.000000000000000000, 1.000000000000000000 ) ) ;
#378 = DIRECTION ( 'NONE',  ( 1.000000000000000000, 0.000000000000000000, -0.000000000000000000 ) ) ;
#379 = CARTESIAN_POINT ( 'NONE',  ( 0.000000000000000000, 150.5000000000000284, 20.00000000000000000 ) ) ;
#380 = DIRECTION ( 'NONE',  ( -0.000000000000000000, -1.000000000000000000, 0.000000000000000000 ) ) ;
#381 = ADVANCED_FACE ( 'NONE', ( #103 ), #107, .T. ) ;
#382 = CARTESIAN_POINT ( 'NONE',  ( 50.49999999999999289, 150.5000000000000284, 20.00000000000000000 ) ) ;
#383 = CARTESIAN_POINT ( 'NONE',  ( -50.49999999999999289, 5.999999999999985789, 20.00000000000000000 ) ) ;
#384 = DIRECTION ( 'NONE',  ( -0.000000000000000000, -0.000000000000000000, -1.000000000000000000 ) ) ;
#385 = CARTESIAN_POINT ( 'NONE',  ( -50.49999999999999289, 5.999999999999985789, 20.00000000000000000 ) ) ;
#386 = VECTOR ( 'NONE', #16, 1000.000000000000000 ) ;
#387 = APPROVAL_STATUS ( 'not_yet_approved' ) ;
#388 = CARTESIAN_POINT ( 'NONE',  ( 44.50000000000000000, 150.5000000000000284, 20.00000000000000000 ) ) ;
#389 = PRODUCT_DEFINITION ( 'UNKNOWN', '', #267, #66 ) ;
#390 = DIRECTION ( 'NONE',  ( -0.000000000000000000, -0.000000000000000000, -1.000000000000000000 ) ) ;
#391 = MANIFOLD_SOLID_BREP ( 'Base-Flange1', #333 ) ;
#392 = ORIENTED_EDGE ( 'NONE', *, *, #231, .T. ) ;
#393 = COORDINATED_UNIVERSAL_TIME_OFFSET ( 10, 0, .AHEAD. ) ;
#394 = CARTESIAN_POINT ( 'NONE',  ( -50.49999999999999289, 5.999999999999985789, 20.00000000000000000 ) ) ;
#395 = VERTEX_POINT ( 'NONE', #235 ) ;
#396 = APPLICATION_PROTOCOL_DEFINITION ( 'international standard', 'config_control_design', 1994, #367 ) ;
#397 = EDGE_LOOP ( 'NONE', ( #193, #87, #262, #6 ) ) ;
#398 = ORIENTED_EDGE ( 'NONE', *, *, #204, .F. ) ;
#399 = ORIENTED_EDGE ( 'NONE', *, *, #261, .F. ) ;
#400 = AXIS2_PLACEMENT_3D ( 'NONE', #337, #74, #201 ) ;
#401 = CARTESIAN_POINT ( 'NONE',  ( 0.000000000000000000, 150.5000000000000284, 20.00000000000000000 ) ) ;
#402 = LOCAL_TIME ( 13, 47, 23.00000000000000000, #126 ) ;
#403 = DIRECTION ( 'NONE',  ( 0.000000000000000000, 1.000000000000000000, 0.000000000000000000 ) ) ;
#404 = CARTESIAN_POINT ( 'NONE',  ( -50.49999999999999289, 150.5000000000000284, 20.00000000000000000 ) ) ;
#405 = DIRECTION ( 'NONE',  ( 0.000000000000000000, 0.000000000000000000, 1.000000000000000000 ) ) ;
#406 = UNCERTAINTY_MEASURE_WITH_UNIT (LENGTH_MEASURE( 1.000000000000000082E-05 ), #310, 'distance_accuracy_value', 'NONE');
#407 = LINE ( 'NONE', #303, #169 ) ;
#408 = ORIENTED_EDGE ( 'NONE', *, *, #339, .F. ) ;
#409 = FACE_OUTER_BOUND ( 'NONE', #244, .T. ) ;
#410 = ORIENTED_EDGE ( 'NONE', *, *, #159, .T. ) ;
#411 = APPROVAL ( #122, 'UNSPECIFIED' ) ;
#412 = CARTESIAN_POINT ( 'NONE',  ( 50.49999999999999289, 5.999999999999977796, 20.00000000000000000 ) ) ;
#413 = APPROVAL ( #387, 'UNSPECIFIED' ) ;
#414 = CARTESIAN_POINT ( 'NONE',  ( 44.50000000000000000, 5.999999999999985789, -20.00000000000000000 ) ) ;
#415 = EDGE_CURVE ( 'NONE', #254, #179, #105, .T. ) ;
#416 = CARTESIAN_POINT ( 'NONE',  ( 44.50000000000000000, 150.5000000000000284, 20.00000000000000000 ) ) ;
#417 = CC_DESIGN_PERSON_AND_ORGANIZATION_ASSIGNMENT ( #290, #164, ( #267 ) ) ;
#418 = ORIENTED_EDGE ( 'NONE', *, *, #431, .T. ) ;
#419 = LINE ( 'NONE', #416, #133 ) ;
#420 = EDGE_LOOP ( 'NONE', ( #410, #96, #428, #324 ) ) ;
#421 = SECURITY_CLASSIFICATION_LEVEL ( 'unclassified' ) ;
#422 = LINE ( 'NONE', #388, #239 ) ;
#423 = ORIENTED_EDGE ( 'NONE', *, *, #199, .T. ) ;
#424 = APPROVAL_ROLE ( '' ) ;
#425 = ORIENTED_EDGE ( 'NONE', *, *, #243, .F. ) ;
#426 = VECTOR ( 'NONE', #281, 1000.000000000000000 ) ;
#427 = CC_DESIGN_SECURITY_CLASSIFICATION ( #374, ( #267 ) ) ;
#428 = ORIENTED_EDGE ( 'NONE', *, *, #173, .F. ) ;
#429 = ORIENTED_EDGE ( 'NONE', *, *, #371, .F. ) ;
#430 = DIRECTION ( 'NONE',  ( 1.000000000000000000, 0.000000000000000000, -0.000000000000000000 ) ) ;
#431 = EDGE_CURVE ( 'NONE', #177, #321, #46, .T. ) ;
#432 = AXIS2_PLACEMENT_3D ( 'NONE', #8, #80, #212 ) ;
#433 = PLANE ( 'NONE',  #400 ) ;
ENDSEC;
END-ISO-10303-21;
