ISO-10303-21;
HEADER;
FILE_DESCRIPTION (( 'STEP AP203' ),
    '1' );
FILE_NAME ('4229-50-25-15_REV_.step',
    '2026-01-09T02:46:28',
    ( '' ),
    ( '' ),
    'SwSTEP 2.0',
    'SolidWorks 2025',
    '' );
FILE_SCHEMA (( 'CONFIG_CONTROL_DESIGN' ));
ENDSEC;

DATA;
#1 = APPROVAL_STATUS ( 'not_yet_approved' ) ;
#2 = CLOSED_SHELL ( 'NONE', ( #29, #12, #173, #191, #61, #211, #195, #67 ) ) ;
#3 = PERSON_AND_ORGANIZATION_ROLE ( 'classification_officer' ) ;
#4 = ORIENTED_EDGE ( 'NONE', *, *, #133, .T. ) ;
#5 = APPROVAL_ROLE ( '' ) ;
#6 = EDGE_LOOP ( 'NONE', ( #239, #111, #180, #105 ) ) ;
#7 = EDGE_CURVE ( 'NONE', #198, #266, #277, .T. ) ;
#8 = ORIENTED_EDGE ( 'NONE', *, *, #55, .T. ) ;
#9 = CARTESIAN_POINT ( 'NONE',  ( 0.000000000000000000, 0.000000000000000000, 0.000000000000000000 ) ) ;
#10 = VECTOR ( 'NONE', #51, 1000.000000000000000 ) ;
#11 = ORIENTED_EDGE ( 'NONE', *, *, #299, .F. ) ;
#12 = ADVANCED_FACE ( 'NONE', ( #17 ), #58, .T. ) ;
#13 = CARTESIAN_POINT ( 'NONE',  ( 0.000000000000000000, 0.000000000000000000, -6.000000000000000000 ) ) ;
#14 = VECTOR ( 'NONE', #166, 1000.000000000000000 ) ;
#15 = EDGE_CURVE ( 'NONE', #182, #28, #207, .T. ) ;
#16 = SHAPE_DEFINITION_REPRESENTATION ( #223, #231 ) ;
#17 = FACE_OUTER_BOUND ( 'NONE', #278, .T. ) ;
#18 = ORIENTED_EDGE ( 'NONE', *, *, #123, .T. ) ;
#19 = LINE ( 'NONE', #210, #194 ) ;
#20 = DIRECTION ( 'NONE',  ( -0.000000000000000000, -0.000000000000000000, 1.000000000000000000 ) ) ;
#21 = EDGE_CURVE ( 'NONE', #244, #276, #251, .T. ) ;
#22 = CARTESIAN_POINT ( 'NONE',  ( -44.50000000000000000, 19.99999999999999645, 1.224646799147352468E-16 ) ) ;
#23 = CARTESIAN_POINT ( 'NONE',  ( 0.000000000000000000, 0.000000000000000000, -6.000000000000000000 ) ) ;
#24 = LOCAL_TIME ( 13, 46, 28.00000000000000000, #172 ) ;
#25 = LINE ( 'NONE', #146, #10 ) ;
#26 = LINE ( 'NONE', #286, #37 ) ;
#27 = COORDINATED_UNIVERSAL_TIME_OFFSET ( 10, 0, .AHEAD. ) ;
#28 = VERTEX_POINT ( 'NONE', #109 ) ;
#29 = ADVANCED_FACE ( 'NONE', ( #160 ), #226, .F. ) ;
#30 = CIRCLE ( 'NONE', #293, 7.500000000000000000 ) ;
#31 = PERSON_AND_ORGANIZATION ( #45, #200 ) ;
#32 = CARTESIAN_POINT ( 'NONE',  ( -44.50000000000000000, 19.99999999999999645, 0.000000000000000000 ) ) ;
#33 = ORIENTED_EDGE ( 'NONE', *, *, #40, .T. ) ;
#34 = APPLICATION_PROTOCOL_DEFINITION ( 'international standard', 'config_control_design', 1994, #139 ) ;
#35 = ORIENTED_EDGE ( 'NONE', *, *, #15, .F. ) ;
#36 = PERSON_AND_ORGANIZATION ( #45, #200 ) ;
#37 = VECTOR ( 'NONE', #237, 1000.000000000000000 ) ;
#38 = CARTESIAN_POINT ( 'NONE',  ( -1.387778780781445676E-14, 40.00000000000000711, -6.000000000000000000 ) ) ;
#39 = PLANE ( 'NONE',  #112 ) ;
#40 = EDGE_CURVE ( 'NONE', #129, #276, #228, .T. ) ;
#41 = CC_DESIGN_APPROVAL ( #164, ( #262 ) ) ;
#42 = ORIENTED_EDGE ( 'NONE', *, *, #227, .T. ) ;
#43 = EDGE_CURVE ( 'NONE', #199, #158, #107, .T. ) ;
#44 = ORIENTED_EDGE ( 'NONE', *, *, #282, .F. ) ;
#45 = PERSON ( 'UNSPECIFIED', 'UNSPECIFIED', 'UNSPECIFIED', ('UNSPECIFIED'), ('UNSPECIFIED'), ('UNSPECIFIED') ) ;
#46 = ORIENTED_EDGE ( 'NONE', *, *, #65, .T. ) ;
#47 = FACE_OUTER_BOUND ( 'NONE', #252, .T. ) ;
#48 = DIRECTION ( 'NONE',  ( 1.000000000000000000, 1.332703869660354591E-16, 0.000000000000000000 ) ) ;
#49 = DIRECTION ( 'NONE',  ( 1.332703869660354591E-16, -1.000000000000000000, 0.000000000000000000 ) ) ;
#50 = DIRECTION ( 'NONE',  ( 1.000000000000000000, 0.000000000000000000, 0.000000000000000000 ) ) ;
#51 = DIRECTION ( 'NONE',  ( -3.469446951953613696E-16, 1.000000000000000000, 0.000000000000000000 ) ) ;
#52 = ORIENTED_EDGE ( 'NONE', *, *, #43, .F. ) ;
#53 = VECTOR ( 'NONE', #185, 1000.000000000000000 ) ;
#54 = DATE_TIME_ROLE ( 'creation_date' ) ;
#55 = EDGE_CURVE ( 'NONE', #183, #244, #19, .T. ) ;
#56 = APPROVAL_DATE_TIME ( #271, #164 ) ;
#57 = ORIENTED_EDGE ( 'NONE', *, *, #21, .T. ) ;
#58 = PLANE ( 'NONE',  #309 ) ;
#59 = DIRECTION ( 'NONE',  ( -3.469446951953613696E-16, 1.000000000000000000, 0.000000000000000000 ) ) ;
#60 = CARTESIAN_POINT ( 'NONE',  ( 0.000000000000000000, 0.000000000000000000, -6.000000000000000000 ) ) ;
#61 = ADVANCED_FACE ( 'NONE', ( #250 ), #39, .T. ) ;
#62 = DATE_AND_TIME ( #205, #303 ) ;
#63 = ORIENTED_EDGE ( 'NONE', *, *, #40, .F. ) ;
#64 = DIRECTION ( 'NONE',  ( 1.000000000000000000, 0.000000000000000000, 0.000000000000000000 ) ) ;
#65 = EDGE_CURVE ( 'NONE', #266, #244, #296, .T. ) ;
#66 = DIRECTION ( 'NONE',  ( -0.000000000000000000, -1.000000000000000000, -0.000000000000000000 ) ) ;
#67 = ADVANCED_FACE ( 'NONE', ( #298 ), #87, .F. ) ;
#68 = DIRECTION ( 'NONE',  ( 0.000000000000000000, 0.000000000000000000, 1.000000000000000000 ) ) ;
#69 =( GEOMETRIC_REPRESENTATION_CONTEXT ( 3 ) GLOBAL_UNCERTAINTY_ASSIGNED_CONTEXT ( ( #212 ) ) GLOBAL_UNIT_ASSIGNED_CONTEXT ( ( #219, #247, #243 ) ) REPRESENTATION_CONTEXT ( 'NONE', 'WORKASPACE' ) );
#70 = CARTESIAN_POINT ( 'NONE',  ( -37.00000000000000000, 19.99999999999999645, 0.000000000000000000 ) ) ;
#71 = PLANE ( 'NONE',  #89 ) ;
#72 = DIRECTION ( 'NONE',  ( 1.000000000000000000, 0.000000000000000000, -0.000000000000000000 ) ) ;
#73 = DIRECTION ( 'NONE',  ( -0.000000000000000000, -1.000000000000000000, -0.000000000000000000 ) ) ;
#74 = CC_DESIGN_PERSON_AND_ORGANIZATION_ASSIGNMENT ( #121, #104, ( #156 ) ) ;
#75 = APPROVAL_STATUS ( 'not_yet_approved' ) ;
#76 = CALENDAR_DATE ( 2026, 9, 1 ) ;
#77 = ORIENTED_EDGE ( 'NONE', *, *, #299, .T. ) ;
#78 = LOCAL_TIME ( 13, 46, 28.00000000000000000, #27 ) ;
#79 = CC_DESIGN_APPROVAL ( #218, ( #118 ) ) ;
#80 = DIRECTION ( 'NONE',  ( 1.000000000000000000, 0.000000000000000000, 0.000000000000000000 ) ) ;
#81 = ORIENTED_EDGE ( 'NONE', *, *, #227, .F. ) ;
#82 = APPROVAL_STATUS ( 'not_yet_approved' ) ;
#83 = DIRECTION ( 'NONE',  ( 0.000000000000000000, 0.000000000000000000, 1.000000000000000000 ) ) ;
#84 = VECTOR ( 'NONE', #161, 1000.000000000000000 ) ;
#85 = CC_DESIGN_SECURITY_CLASSIFICATION ( #118, ( #262 ) ) ;
#86 = CARTESIAN_POINT ( 'NONE',  ( 0.000000000000000000, 0.000000000000000000, 0.000000000000000000 ) ) ;
#87 = CYLINDRICAL_SURFACE ( 'NONE', #169, 7.500000000000000000 ) ;
#88 = ORIENTED_EDGE ( 'NONE', *, *, #305, .T. ) ;
#89 = AXIS2_PLACEMENT_3D ( 'NONE', #188, #49, #48 ) ;
#90 = CARTESIAN_POINT ( 'NONE',  ( -68.00000000000000000, 39.99999999999999289, -6.000000000000000000 ) ) ;
#91 = EDGE_CURVE ( 'NONE', #28, #266, #26, .T. ) ;
#92 = LINE ( 'NONE', #281, #297 ) ;
#93 = DIRECTION ( 'NONE',  ( 1.000000000000000000, 0.000000000000000000, 0.000000000000000000 ) ) ;
#94 = PLANE ( 'NONE',  #153 ) ;
#95 = LOCAL_TIME ( 13, 46, 28.00000000000000000, #179 ) ;
#96 = CARTESIAN_POINT ( 'NONE',  ( -37.00000000000000000, 19.99999999999999645, 1.224646799147352468E-16 ) ) ;
#97 = CARTESIAN_POINT ( 'NONE',  ( 0.000000000000000000, 0.000000000000000000, -6.000000000000000000 ) ) ;
#98 = DESIGN_CONTEXT ( 'detailed design', #139, 'design' ) ;
#99 = AXIS2_PLACEMENT_3D ( 'NONE', #217, #234, #72 ) ;
#100 = CALENDAR_DATE ( 2026, 9, 1 ) ;
#101 = PERSON_AND_ORGANIZATION ( #45, #200 ) ;
#102 = EDGE_LOOP ( 'NONE', ( #44, #295 ) ) ;
#103 = APPROVAL_PERSON_ORGANIZATION ( #150, #218, #274 ) ;
#104 = PERSON_AND_ORGANIZATION_ROLE ( 'creator' ) ;
#105 = ORIENTED_EDGE ( 'NONE', *, *, #137, .F. ) ;
#106 = PRODUCT ( '4229-50-25-15_REV_', '4229-50-25-15_REV_', '', ( #171 ) ) ;
#107 = LINE ( 'NONE', #155, #253 ) ;
#108 = VECTOR ( 'NONE', #232, 1000.000000000000000 ) ;
#109 = CARTESIAN_POINT ( 'NONE',  ( -68.00000000000000000, -9.062386313690412007E-15, 0.000000000000000000 ) ) ;
#110 = VERTEX_POINT ( 'NONE', #22 ) ;
#111 = ORIENTED_EDGE ( 'NONE', *, *, #133, .F. ) ;
#112 = AXIS2_PLACEMENT_3D ( 'NONE', #38, #206, #203 ) ;
#113 = DIRECTION ( 'NONE',  ( -0.000000000000000000, -0.000000000000000000, 1.000000000000000000 ) ) ;
#114 = DIRECTION ( 'NONE',  ( -0.000000000000000000, -0.000000000000000000, 1.000000000000000000 ) ) ;
#115 = LINE ( 'NONE', #214, #233 ) ;
#116 = EDGE_CURVE ( 'NONE', #199, #126, #30, .T. ) ;
#117 = CARTESIAN_POINT ( 'NONE',  ( -1.387778780781445676E-14, 40.00000000000000711, -6.000000000000000000 ) ) ;
#118 = SECURITY_CLASSIFICATION ( '', '', #220 ) ;
#119 = CARTESIAN_POINT ( 'NONE',  ( 0.000000000000000000, 0.000000000000000000, 0.000000000000000000 ) ) ;
#120 = CARTESIAN_POINT ( 'NONE',  ( -37.00000000000000000, 19.99999999999999645, 1.224646799147352468E-16 ) ) ;
#121 = PERSON_AND_ORGANIZATION ( #45, #200 ) ;
#122 = ORIENTED_EDGE ( 'NONE', *, *, #282, .T. ) ;
#123 = EDGE_CURVE ( 'NONE', #110, #158, #289, .T. ) ;
#124 = CIRCLE ( 'NONE', #209, 7.500000000000000000 ) ;
#125 = PERSON_AND_ORGANIZATION_ROLE ( 'creator' ) ;
#126 = VERTEX_POINT ( 'NONE', #256 ) ;
#127 = ORIENTED_EDGE ( 'NONE', *, *, #15, .T. ) ;
#128 = APPROVAL_ROLE ( '' ) ;
#129 = VERTEX_POINT ( 'NONE', #304 ) ;
#130 = APPROVAL_PERSON_ORGANIZATION ( #31, #164, #5 ) ;
#131 = ORIENTED_EDGE ( 'NONE', *, *, #21, .F. ) ;
#132 = ORIENTED_EDGE ( 'NONE', *, *, #55, .F. ) ;
#133 = EDGE_CURVE ( 'NONE', #182, #198, #190, .T. ) ;
#134 = DIRECTION ( 'NONE',  ( -3.469446951953613696E-16, 1.000000000000000000, 0.000000000000000000 ) ) ;
#135 = VECTOR ( 'NONE', #157, 1000.000000000000000 ) ;
#136 = ORIENTED_EDGE ( 'NONE', *, *, #284, .T. ) ;
#137 = EDGE_CURVE ( 'NONE', #183, #129, #115, .T. ) ;
#138 = ORIENTED_EDGE ( 'NONE', *, *, #116, .F. ) ;
#139 = APPLICATION_CONTEXT ( 'configuration controlled 3d designs of mechanical parts and assemblies' ) ;
#140 = CARTESIAN_POINT ( 'NONE',  ( -1.387778780781445676E-14, 40.00000000000000711, 0.000000000000000000 ) ) ;
#141 = CARTESIAN_POINT ( 'NONE',  ( -1.387778780781445676E-14, 40.00000000000000711, 0.000000000000000000 ) ) ;
#142 = DIRECTION ( 'NONE',  ( -1.000000000000000000, -2.040851148208008491E-16, 0.000000000000000000 ) ) ;
#143 = CARTESIAN_POINT ( 'NONE',  ( -68.00000000000000000, -9.062386313690412007E-15, -6.000000000000000000 ) ) ;
#144 = PLANE ( 'NONE',  #99 ) ;
#145 = AXIS2_PLACEMENT_3D ( 'NONE', #302, #113, #64 ) ;
#146 = CARTESIAN_POINT ( 'NONE',  ( 0.000000000000000000, 0.000000000000000000, -6.000000000000000000 ) ) ;
#147 = CALENDAR_DATE ( 2026, 9, 1 ) ;
#148 = PERSON_AND_ORGANIZATION_ROLE ( 'design_owner' ) ;
#149 = AXIS2_PLACEMENT_3D ( 'NONE', #120, #260, #50 ) ;
#150 = PERSON_AND_ORGANIZATION ( #45, #200 ) ;
#151 = PERSON_AND_ORGANIZATION ( #45, #200 ) ;
#152 = ORIENTED_EDGE ( 'NONE', *, *, #91, .T. ) ;
#153 = AXIS2_PLACEMENT_3D ( 'NONE', #119, #68, #165 ) ;
#154 = APPROVAL_DATE_TIME ( #62, #218 ) ;
#155 = CARTESIAN_POINT ( 'NONE',  ( -29.50000000000000000, 19.99999999999999645, 0.000000000000000000 ) ) ;
#156 = PRODUCT_DEFINITION ( 'UNKNOWN', '', #262, #98 ) ;
#157 = DIRECTION ( 'NONE',  ( 0.000000000000000000, 0.000000000000000000, 1.000000000000000000 ) ) ;
#158 = VERTEX_POINT ( 'NONE', #288 ) ;
#159 = COORDINATED_UNIVERSAL_TIME_OFFSET ( 10, 0, .AHEAD. ) ;
#160 = FACE_OUTER_BOUND ( 'NONE', #208, .T. ) ;
#161 = DIRECTION ( 'NONE',  ( 0.000000000000000000, 0.000000000000000000, 1.000000000000000000 ) ) ;
#162 = LINE ( 'NONE', #32, #184 ) ;
#163 = AXIS2_PLACEMENT_3D ( 'NONE', #236, #168, #311 ) ;
#164 = APPROVAL ( #82, 'UNSPECIFIED' ) ;
#165 = DIRECTION ( 'NONE',  ( 1.000000000000000000, 0.000000000000000000, -0.000000000000000000 ) ) ;
#166 = DIRECTION ( 'NONE',  ( 1.000000000000000000, 1.332703869660354591E-16, -0.000000000000000000 ) ) ;
#167 = DIRECTION ( 'NONE',  ( 1.000000000000000000, 0.000000000000000000, 0.000000000000000000 ) ) ;
#168 = DIRECTION ( 'NONE',  ( -1.000000000000000000, 0.000000000000000000, 0.000000000000000000 ) ) ;
#169 = AXIS2_PLACEMENT_3D ( 'NONE', #70, #20, #235 ) ;
#170 = EDGE_CURVE ( 'NONE', #198, #183, #25, .T. ) ;
#171 = MECHANICAL_CONTEXT ( 'NONE', #301, 'mechanical' ) ;
#172 = COORDINATED_UNIVERSAL_TIME_OFFSET ( 10, 0, .AHEAD. ) ;
#173 = ADVANCED_FACE ( 'NONE', ( #283 ), #71, .T. ) ;
#174 = PERSON_AND_ORGANIZATION ( #45, #200 ) ;
#175 = LOCAL_TIME ( 13, 46, 28.00000000000000000, #224 ) ;
#176 = VECTOR ( 'NONE', #59, 1000.000000000000000 ) ;
#177 = PERSON_AND_ORGANIZATION ( #45, #200 ) ;
#178 = ORIENTED_EDGE ( 'NONE', *, *, #43, .T. ) ;
#179 = COORDINATED_UNIVERSAL_TIME_OFFSET ( 10, 0, .AHEAD. ) ;
#180 = ORIENTED_EDGE ( 'NONE', *, *, #305, .F. ) ;
#181 = EDGE_LOOP ( 'NONE', ( #11, #138, #178, #122 ) ) ;
#182 = VERTEX_POINT ( 'NONE', #143 ) ;
#183 = VERTEX_POINT ( 'NONE', #117 ) ;
#184 = VECTOR ( 'NONE', #193, 1000.000000000000000 ) ;
#185 = DIRECTION ( 'NONE',  ( 0.000000000000000000, 0.000000000000000000, 1.000000000000000000 ) ) ;
#186 = DIRECTION ( 'NONE',  ( 0.000000000000000000, 0.000000000000000000, 1.000000000000000000 ) ) ;
#187 = APPROVAL ( #1, 'UNSPECIFIED' ) ;
#188 = CARTESIAN_POINT ( 'NONE',  ( 0.000000000000000000, 0.000000000000000000, -6.000000000000000000 ) ) ;
#189 = CARTESIAN_POINT ( 'NONE',  ( -29.50000000000000000, 19.99999999999999645, -6.000000000000000000 ) ) ;
#190 = LINE ( 'NONE', #23, #14 ) ;
#191 = ADVANCED_FACE ( 'NONE', ( #261 ), #259, .T. ) ;
#192 = FACE_BOUND ( 'NONE', #230, .T. ) ;
#193 = DIRECTION ( 'NONE',  ( -0.000000000000000000, -0.000000000000000000, 1.000000000000000000 ) ) ;
#194 = VECTOR ( 'NONE', #83, 1000.000000000000000 ) ;
#195 = ADVANCED_FACE ( 'NONE', ( #307, #47 ), #94, .T. ) ;
#196 = DATE_AND_TIME ( #100, #24 ) ;
#197 = DATE_TIME_ROLE ( 'classification_date' ) ;
#198 = VERTEX_POINT ( 'NONE', #97 ) ;
#199 = VERTEX_POINT ( 'NONE', #189 ) ;
#200 = ORGANIZATION ( 'UNSPECIFIED', 'UNSPECIFIED', '' ) ;
#201 = DATE_AND_TIME ( #76, #78 ) ;
#202 = CC_DESIGN_PERSON_AND_ORGANIZATION_ASSIGNMENT ( #177, #148, ( #106 ) ) ;
#203 = DIRECTION ( 'NONE',  ( -1.000000000000000000, -2.040851148208008491E-16, 0.000000000000000000 ) ) ;
#204 = CC_DESIGN_PERSON_AND_ORGANIZATION_ASSIGNMENT ( #101, #3, ( #118 ) ) ;
#205 = CALENDAR_DATE ( 2026, 9, 1 ) ;
#206 = DIRECTION ( 'NONE',  ( -2.040851148208008491E-16, 1.000000000000000000, 0.000000000000000000 ) ) ;
#207 = LINE ( 'NONE', #273, #135 ) ;
#208 = EDGE_LOOP ( 'NONE', ( #81, #77, #18, #52 ) ) ;
#209 = AXIS2_PLACEMENT_3D ( 'NONE', #96, #114, #167 ) ;
#210 = CARTESIAN_POINT ( 'NONE',  ( -1.387778780781445676E-14, 40.00000000000000711, -6.000000000000000000 ) ) ;
#211 = ADVANCED_FACE ( 'NONE', ( #192, #285 ), #144, .F. ) ;
#212 = UNCERTAINTY_MEASURE_WITH_UNIT (LENGTH_MEASURE( 1.000000000000000082E-05 ), #219, 'distance_accuracy_value', 'NONE');
#213 = CARTESIAN_POINT ( 'NONE',  ( -37.00000000000000000, 19.99999999999999645, -6.000000000000000000 ) ) ;
#214 = CARTESIAN_POINT ( 'NONE',  ( -1.387778780781445676E-14, 40.00000000000000711, -6.000000000000000000 ) ) ;
#215 = AXIS2_PLACEMENT_3D ( 'NONE', #9, #265, #80 ) ;
#216 = CARTESIAN_POINT ( 'NONE',  ( 0.000000000000000000, 0.000000000000000000, 0.000000000000000000 ) ) ;
#217 = CARTESIAN_POINT ( 'NONE',  ( 0.000000000000000000, 0.000000000000000000, -6.000000000000000000 ) ) ;
#218 = APPROVAL ( #75, 'UNSPECIFIED' ) ;
#219 =( LENGTH_UNIT ( ) NAMED_UNIT ( * ) SI_UNIT ( .MILLI., .METRE. ) );
#220 = SECURITY_CLASSIFICATION_LEVEL ( 'unclassified' ) ;
#221 = EDGE_LOOP ( 'NONE', ( #222, #35, #4, #255 ) ) ;
#222 = ORIENTED_EDGE ( 'NONE', *, *, #91, .F. ) ;
#223 = PRODUCT_DEFINITION_SHAPE ( 'NONE', 'NONE',  #156 ) ;
#224 = COORDINATED_UNIVERSAL_TIME_OFFSET ( 10, 0, .AHEAD. ) ;
#225 = ORIENTED_EDGE ( 'NONE', *, *, #170, .T. ) ;
#226 = CYLINDRICAL_SURFACE ( 'NONE', #145, 7.500000000000000000 ) ;
#227 = EDGE_CURVE ( 'NONE', #126, #199, #257, .T. ) ;
#228 = LINE ( 'NONE', #90, #84 ) ;
#229 = ORIENTED_EDGE ( 'NONE', *, *, #65, .F. ) ;
#230 = EDGE_LOOP ( 'NONE', ( #242, #42 ) ) ;
#231 = ADVANCED_BREP_SHAPE_REPRESENTATION ( '4229-50-25-15_REV_', ( #269, #215 ), #69 ) ;
#232 = DIRECTION ( 'NONE',  ( -1.000000000000000000, -2.040851148208008491E-16, 0.000000000000000000 ) ) ;
#233 = VECTOR ( 'NONE', #142, 1000.000000000000000 ) ;
#234 = DIRECTION ( 'NONE',  ( 0.000000000000000000, 0.000000000000000000, 1.000000000000000000 ) ) ;
#235 = DIRECTION ( 'NONE',  ( 1.000000000000000000, 0.000000000000000000, 0.000000000000000000 ) ) ;
#236 = CARTESIAN_POINT ( 'NONE',  ( -68.00000000000000000, -9.062386313690412007E-15, -6.000000000000000000 ) ) ;
#237 = DIRECTION ( 'NONE',  ( 1.000000000000000000, 1.332703869660354591E-16, -0.000000000000000000 ) ) ;
#238 = DIRECTION ( 'NONE',  ( 1.000000000000000000, 0.000000000000000000, 0.000000000000000000 ) ) ;
#239 = ORIENTED_EDGE ( 'NONE', *, *, #170, .F. ) ;
#240 = DATE_AND_TIME ( #147, #175 ) ;
#241 = VECTOR ( 'NONE', #73, 1000.000000000000000 ) ;
#242 = ORIENTED_EDGE ( 'NONE', *, *, #116, .T. ) ;
#243 =( NAMED_UNIT ( * ) SI_UNIT ( $, .STERADIAN. ) SOLID_ANGLE_UNIT ( ) );
#244 = VERTEX_POINT ( 'NONE', #141 ) ;
#245 = APPLICATION_PROTOCOL_DEFINITION ( 'international standard', 'config_control_design', 1994, #301 ) ;
#246 = ORIENTED_EDGE ( 'NONE', *, *, #284, .F. ) ;
#247 =( NAMED_UNIT ( * ) PLANE_ANGLE_UNIT ( ) SI_UNIT ( $, .RADIAN. ) );
#248 = ORIENTED_EDGE ( 'NONE', *, *, #137, .T. ) ;
#249 = CC_DESIGN_APPROVAL ( #187, ( #156 ) ) ;
#250 = FACE_OUTER_BOUND ( 'NONE', #272, .T. ) ;
#251 = LINE ( 'NONE', #140, #108 ) ;
#252 = EDGE_LOOP ( 'NONE', ( #46, #57, #136, #152 ) ) ;
#253 = VECTOR ( 'NONE', #300, 1000.000000000000000 ) ;
#254 = ORIENTED_EDGE ( 'NONE', *, *, #7, .F. ) ;
#255 = ORIENTED_EDGE ( 'NONE', *, *, #7, .T. ) ;
#256 = CARTESIAN_POINT ( 'NONE',  ( -44.50000000000000000, 19.99999999999999645, -6.000000000000000000 ) ) ;
#257 = CIRCLE ( 'NONE', #279, 7.500000000000000000 ) ;
#258 = CC_DESIGN_PERSON_AND_ORGANIZATION_ASSIGNMENT ( #36, #125, ( #262 ) ) ;
#259 = PLANE ( 'NONE',  #163 ) ;
#260 = DIRECTION ( 'NONE',  ( -0.000000000000000000, -0.000000000000000000, 1.000000000000000000 ) ) ;
#261 = FACE_OUTER_BOUND ( 'NONE', #270, .T. ) ;
#262 = PRODUCT_DEFINITION_FORMATION_WITH_SPECIFIED_SOURCE ( 'ANY', '', #106, .NOT_KNOWN. ) ;
#263 = CARTESIAN_POINT ( 'NONE',  ( -37.00000000000000000, 19.99999999999999645, -6.000000000000000000 ) ) ;
#264 = LINE ( 'NONE', #290, #241 ) ;
#265 = DIRECTION ( 'NONE',  ( 0.000000000000000000, 0.000000000000000000, 1.000000000000000000 ) ) ;
#266 = VERTEX_POINT ( 'NONE', #216 ) ;
#267 = PERSON_AND_ORGANIZATION_ROLE ( 'design_supplier' ) ;
#268 = PRODUCT_RELATED_PRODUCT_CATEGORY ( 'detail', '', ( #106 ) ) ;
#269 = MANIFOLD_SOLID_BREP ( 'M12 Clearance Hole1', #2 ) ;
#270 = EDGE_LOOP ( 'NONE', ( #246, #63, #88, #127 ) ) ;
#271 = DATE_AND_TIME ( #291, #95 ) ;
#272 = EDGE_LOOP ( 'NONE', ( #131, #132, #248, #33 ) ) ;
#273 = CARTESIAN_POINT ( 'NONE',  ( -68.00000000000000000, -9.062386313690412007E-15, -6.000000000000000000 ) ) ;
#274 = APPROVAL_ROLE ( '' ) ;
#275 = CC_DESIGN_DATE_AND_TIME_ASSIGNMENT ( #201, #54, ( #156 ) ) ;
#276 = VERTEX_POINT ( 'NONE', #310 ) ;
#277 = LINE ( 'NONE', #60, #53 ) ;
#278 = EDGE_LOOP ( 'NONE', ( #229, #254, #225, #8 ) ) ;
#279 = AXIS2_PLACEMENT_3D ( 'NONE', #263, #186, #238 ) ;
#280 = DIRECTION ( 'NONE',  ( 1.000000000000000000, 3.469446951953613696E-16, -0.000000000000000000 ) ) ;
#281 = CARTESIAN_POINT ( 'NONE',  ( -68.00000000000000000, -9.062386313690412007E-15, 0.000000000000000000 ) ) ;
#282 = EDGE_CURVE ( 'NONE', #158, #110, #124, .T. ) ;
#283 = FACE_OUTER_BOUND ( 'NONE', #221, .T. ) ;
#284 = EDGE_CURVE ( 'NONE', #276, #28, #92, .T. ) ;
#285 = FACE_OUTER_BOUND ( 'NONE', #6, .T. ) ;
#286 = CARTESIAN_POINT ( 'NONE',  ( 0.000000000000000000, 0.000000000000000000, 0.000000000000000000 ) ) ;
#287 = CC_DESIGN_PERSON_AND_ORGANIZATION_ASSIGNMENT ( #174, #267, ( #262 ) ) ;
#288 = CARTESIAN_POINT ( 'NONE',  ( -29.50000000000000000, 19.99999999999999645, 1.224646799147352468E-16 ) ) ;
#289 = CIRCLE ( 'NONE', #149, 7.500000000000000000 ) ;
#290 = CARTESIAN_POINT ( 'NONE',  ( -68.00000000000000000, -9.062386313690412007E-15, -6.000000000000000000 ) ) ;
#291 = CALENDAR_DATE ( 2026, 9, 1 ) ;
#292 = CC_DESIGN_DATE_AND_TIME_ASSIGNMENT ( #196, #197, ( #118 ) ) ;
#293 = AXIS2_PLACEMENT_3D ( 'NONE', #213, #306, #93 ) ;
#294 = APPROVAL_DATE_TIME ( #240, #187 ) ;
#295 = ORIENTED_EDGE ( 'NONE', *, *, #123, .F. ) ;
#296 = LINE ( 'NONE', #86, #176 ) ;
#297 = VECTOR ( 'NONE', #66, 1000.000000000000000 ) ;
#298 = FACE_OUTER_BOUND ( 'NONE', #181, .T. ) ;
#299 = EDGE_CURVE ( 'NONE', #126, #110, #162, .T. ) ;
#300 = DIRECTION ( 'NONE',  ( -0.000000000000000000, -0.000000000000000000, 1.000000000000000000 ) ) ;
#301 = APPLICATION_CONTEXT ( 'configuration controlled 3d designs of mechanical parts and assemblies' ) ;
#302 = CARTESIAN_POINT ( 'NONE',  ( -37.00000000000000000, 19.99999999999999645, 0.000000000000000000 ) ) ;
#303 = LOCAL_TIME ( 13, 46, 28.00000000000000000, #159 ) ;
#304 = CARTESIAN_POINT ( 'NONE',  ( -68.00000000000000000, 39.99999999999999289, -6.000000000000000000 ) ) ;
#305 = EDGE_CURVE ( 'NONE', #129, #182, #264, .T. ) ;
#306 = DIRECTION ( 'NONE',  ( 0.000000000000000000, 0.000000000000000000, 1.000000000000000000 ) ) ;
#307 = FACE_BOUND ( 'NONE', #102, .T. ) ;
#308 = APPROVAL_PERSON_ORGANIZATION ( #151, #187, #128 ) ;
#309 = AXIS2_PLACEMENT_3D ( 'NONE', #13, #280, #134 ) ;
#310 = CARTESIAN_POINT ( 'NONE',  ( -68.00000000000000000, 39.99999999999999289, 0.000000000000000000 ) ) ;
#311 = DIRECTION ( 'NONE',  ( 0.000000000000000000, 0.000000000000000000, 1.000000000000000000 ) ) ;
ENDSEC;
END-ISO-10303-21;
