ISO-10303-21;
HEADER;
FILE_DESCRIPTION (( 'STEP AP203' ),
    '1' );
FILE_NAME ('4229-50-25-25_REV_.step',
    '2026-01-09T02:46:02',
    ( '' ),
    ( '' ),
    'SwSTEP 2.0',
    'SolidWorks 2025',
    '' );
FILE_SCHEMA (( 'CONFIG_CONTROL_DESIGN' ));
ENDSEC;

DATA;
#1 = CC_DESIGN_SECURITY_CLASSIFICATION ( #130, ( #73 ) ) ;
#2 = DIRECTION ( 'NONE',  ( 1.000000000000000000, 0.000000000000000000, 0.000000000000000000 ) ) ;
#3 = CARTESIAN_POINT ( 'NONE',  ( -30.00000000000000711, 19.99999999999999645, 1.224646799147352468E-16 ) ) ;
#4 = PLANE ( 'NONE',  #190 ) ;
#5 = CC_DESIGN_APPROVAL ( #34, ( #264 ) ) ;
#6 = CARTESIAN_POINT ( 'NONE',  ( -75.00000000000000000, -6.490628035480970741E-15, -6.000000000000000000 ) ) ;
#7 = PLANE ( 'NONE',  #262 ) ;
#8 = ADVANCED_FACE ( 'NONE', ( #115 ), #259, .T. ) ;
#9 = CARTESIAN_POINT ( 'NONE',  ( 0.000000000000000000, 0.000000000000000000, -6.000000000000000000 ) ) ;
#10 = CARTESIAN_POINT ( 'NONE',  ( -1.387778780781445676E-14, 40.00000000000000711, -6.000000000000000000 ) ) ;
#11 = DATE_AND_TIME ( #125, #99 ) ;
#12 = VERTEX_POINT ( 'NONE', #3 ) ;
#13 = APPLICATION_PROTOCOL_DEFINITION ( 'international standard', 'config_control_design', 1994, #252 ) ;
#14 = EDGE_LOOP ( 'NONE', ( #89, #174, #275, #132 ) ) ;
#15 = CARTESIAN_POINT ( 'NONE',  ( -37.50000000000000711, 19.99999999999999645, 0.000000000000000000 ) ) ;
#16 = VECTOR ( 'NONE', #124, 1000.000000000000000 ) ;
#17 = CYLINDRICAL_SURFACE ( 'NONE', #185, 7.500000000000000000 ) ;
#18 = ORIENTED_EDGE ( 'NONE', *, *, #258, .F. ) ;
#19 = EDGE_CURVE ( 'NONE', #201, #113, #206, .T. ) ;
#20 = DIRECTION ( 'NONE',  ( -0.000000000000000000, -0.000000000000000000, 1.000000000000000000 ) ) ;
#21 = CALENDAR_DATE ( 2026, 9, 1 ) ;
#22 = ORIENTED_EDGE ( 'NONE', *, *, #19, .T. ) ;
#23 = PRODUCT_DEFINITION_SHAPE ( 'NONE', 'NONE',  #264 ) ;
#24 = ORIENTED_EDGE ( 'NONE', *, *, #187, .T. ) ;
#25 = LINE ( 'NONE', #45, #261 ) ;
#26 = CARTESIAN_POINT ( 'NONE',  ( -1.387778780781445676E-14, 40.00000000000000711, -6.000000000000000000 ) ) ;
#27 = CIRCLE ( 'NONE', #270, 7.500000000000000000 ) ;
#28 = CARTESIAN_POINT ( 'NONE',  ( -1.387778780781445676E-14, 40.00000000000000711, -6.000000000000000000 ) ) ;
#29 = DIRECTION ( 'NONE',  ( 0.000000000000000000, 0.000000000000000000, 1.000000000000000000 ) ) ;
#30 = DIRECTION ( 'NONE',  ( -0.000000000000000000, -1.000000000000000000, -0.000000000000000000 ) ) ;
#31 = VECTOR ( 'NONE', #139, 1000.000000000000000 ) ;
#32 = ORGANIZATION ( 'UNSPECIFIED', 'UNSPECIFIED', '' ) ;
#33 = PLANE ( 'NONE',  #303 ) ;
#34 = APPROVAL ( #276, 'UNSPECIFIED' ) ;
#35 = CARTESIAN_POINT ( 'NONE',  ( -75.00000000000000000, -6.490628035480970741E-15, 0.000000000000000000 ) ) ;
#36 = CARTESIAN_POINT ( 'NONE',  ( -1.387778780781445676E-14, 40.00000000000000711, 0.000000000000000000 ) ) ;
#37 = EDGE_CURVE ( 'NONE', #205, #61, #47, .T. ) ;
#38 =( NAMED_UNIT ( * ) PLANE_ANGLE_UNIT ( ) SI_UNIT ( $, .RADIAN. ) );
#39 = PERSON_AND_ORGANIZATION ( #265, #32 ) ;
#40 = PERSON_AND_ORGANIZATION_ROLE ( 'creator' ) ;
#41 = AXIS2_PLACEMENT_3D ( 'NONE', #256, #142, #203 ) ;
#42 = ORIENTED_EDGE ( 'NONE', *, *, #84, .F. ) ;
#43 = VERTEX_POINT ( 'NONE', #48 ) ;
#44 = ORIENTED_EDGE ( 'NONE', *, *, #182, .T. ) ;
#45 = CARTESIAN_POINT ( 'NONE',  ( 0.000000000000000000, 0.000000000000000000, 0.000000000000000000 ) ) ;
#46 = LOCAL_TIME ( 13, 46, 2.000000000000000000, #204 ) ;
#47 = LINE ( 'NONE', #67, #31 ) ;
#48 = CARTESIAN_POINT ( 'NONE',  ( -75.00000000000000000, 39.99999999999999289, 0.000000000000000000 ) ) ;
#49 = ORIENTED_EDGE ( 'NONE', *, *, #238, .F. ) ;
#50 = LOCAL_TIME ( 13, 46, 2.000000000000000000, #107 ) ;
#51 = CARTESIAN_POINT ( 'NONE',  ( -37.50000000000000711, 19.99999999999999645, 1.224646799147352468E-16 ) ) ;
#52 = CARTESIAN_POINT ( 'NONE',  ( -45.00000000000000711, 19.99999999999999645, 0.000000000000000000 ) ) ;
#53 = CARTESIAN_POINT ( 'NONE',  ( -37.50000000000000711, 19.99999999999999645, 1.224646799147352468E-16 ) ) ;
#54 = AXIS2_PLACEMENT_3D ( 'NONE', #208, #291, #2 ) ;
#55 = DIRECTION ( 'NONE',  ( 0.000000000000000000, 0.000000000000000000, 1.000000000000000000 ) ) ;
#56 = PLANE ( 'NONE',  #146 ) ;
#57 = LINE ( 'NONE', #79, #308 ) ;
#58 = DIRECTION ( 'NONE',  ( -1.000000000000000000, -1.850371707708594563E-16, 0.000000000000000000 ) ) ;
#59 = ORIENTED_EDGE ( 'NONE', *, *, #166, .T. ) ;
#60 = SECURITY_CLASSIFICATION_LEVEL ( 'unclassified' ) ;
#61 = VERTEX_POINT ( 'NONE', #181 ) ;
#62 = EDGE_CURVE ( 'NONE', #260, #12, #155, .T. ) ;
#63 = VECTOR ( 'NONE', #58, 1000.000000000000000 ) ;
#64 = APPROVAL_STATUS ( 'not_yet_approved' ) ;
#65 = EDGE_CURVE ( 'NONE', #230, #113, #25, .T. ) ;
#66 = APPROVAL_DATE_TIME ( #289, #151 ) ;
#67 = CARTESIAN_POINT ( 'NONE',  ( -75.00000000000000000, -6.490628035480970741E-15, -6.000000000000000000 ) ) ;
#68 = ORIENTED_EDGE ( 'NONE', *, *, #135, .F. ) ;
#69 = ORIENTED_EDGE ( 'NONE', *, *, #62, .T. ) ;
#70 = APPROVAL_ROLE ( '' ) ;
#71 = VERTEX_POINT ( 'NONE', #211 ) ;
#72 = ORIENTED_EDGE ( 'NONE', *, *, #163, .F. ) ;
#73 = PRODUCT_DEFINITION_FORMATION_WITH_SPECIFIED_SOURCE ( 'ANY', '', #91, .NOT_KNOWN. ) ;
#74 = DIRECTION ( 'NONE',  ( -0.000000000000000000, -0.000000000000000000, 1.000000000000000000 ) ) ;
#75 = APPROVAL ( #127, 'UNSPECIFIED' ) ;
#76 = PLANE ( 'NONE',  #255 ) ;
#77 = DIRECTION ( 'NONE',  ( 0.000000000000000000, 0.000000000000000000, 1.000000000000000000 ) ) ;
#78 = LINE ( 'NONE', #153, #63 ) ;
#79 = CARTESIAN_POINT ( 'NONE',  ( -75.00000000000000000, 39.99999999999999289, -6.000000000000000000 ) ) ;
#80 = CC_DESIGN_PERSON_AND_ORGANIZATION_ASSIGNMENT ( #167, #273, ( #264 ) ) ;
#81 = DIRECTION ( 'NONE',  ( 0.000000000000000000, 0.000000000000000000, 1.000000000000000000 ) ) ;
#82 = PERSON_AND_ORGANIZATION ( #265, #32 ) ;
#83 = CC_DESIGN_APPROVAL ( #75, ( #73 ) ) ;
#84 = EDGE_CURVE ( 'NONE', #284, #230, #311, .T. ) ;
#85 = APPROVAL_ROLE ( '' ) ;
#86 = APPROVAL_ROLE ( '' ) ;
#87 = EDGE_CURVE ( 'NONE', #201, #158, #140, .T. ) ;
#88 = LOCAL_TIME ( 13, 46, 2.000000000000000000, #306 ) ;
#89 = ORIENTED_EDGE ( 'NONE', *, *, #182, .F. ) ;
#90 = CARTESIAN_POINT ( 'NONE',  ( 0.000000000000000000, 0.000000000000000000, -6.000000000000000000 ) ) ;
#91 = PRODUCT ( '4229-50-25-25_REV_', '4229-50-25-25_REV_', '', ( #109 ) ) ;
#92 = ORIENTED_EDGE ( 'NONE', *, *, #19, .F. ) ;
#93 =( GEOMETRIC_REPRESENTATION_CONTEXT ( 3 ) GLOBAL_UNCERTAINTY_ASSIGNED_CONTEXT ( ( #210 ) ) GLOBAL_UNIT_ASSIGNED_CONTEXT ( ( #106, #38, #304 ) ) REPRESENTATION_CONTEXT ( 'NONE', 'WORKASPACE' ) );
#94 = MANIFOLD_SOLID_BREP ( 'M12 Clearance Hole1', #214 ) ;
#95 = FACE_OUTER_BOUND ( 'NONE', #236, .T. ) ;
#96 = DIRECTION ( 'NONE',  ( -1.000000000000000000, -1.850371707708594563E-16, 0.000000000000000000 ) ) ;
#97 = DIRECTION ( 'NONE',  ( -0.000000000000000000, -0.000000000000000000, 1.000000000000000000 ) ) ;
#98 = ADVANCED_FACE ( 'NONE', ( #116 ), #183, .F. ) ;
#99 = LOCAL_TIME ( 13, 46, 2.000000000000000000, #111 ) ;
#100 = FACE_BOUND ( 'NONE', #250, .T. ) ;
#101 = CARTESIAN_POINT ( 'NONE',  ( -37.50000000000000711, 19.99999999999999645, -6.000000000000000000 ) ) ;
#102 = DESIGN_CONTEXT ( 'detailed design', #216, 'design' ) ;
#103 = DIRECTION ( 'NONE',  ( 1.000000000000000000, 8.654170713974627835E-17, -0.000000000000000000 ) ) ;
#104 = CC_DESIGN_DATE_AND_TIME_ASSIGNMENT ( #249, #245, ( #264 ) ) ;
#105 = LINE ( 'NONE', #267, #234 ) ;
#106 =( LENGTH_UNIT ( ) NAMED_UNIT ( * ) SI_UNIT ( .MILLI., .METRE. ) );
#107 = COORDINATED_UNIVERSAL_TIME_OFFSET ( 10, 0, .AHEAD. ) ;
#108 = AXIS2_PLACEMENT_3D ( 'NONE', #51, #74, #213 ) ;
#109 = MECHANICAL_CONTEXT ( 'NONE', #252, 'mechanical' ) ;
#110 = PERSON_AND_ORGANIZATION ( #265, #32 ) ;
#111 = COORDINATED_UNIVERSAL_TIME_OFFSET ( 10, 0, .AHEAD. ) ;
#112 = ADVANCED_FACE ( 'NONE', ( #95 ), #33, .T. ) ;
#113 = VERTEX_POINT ( 'NONE', #36 ) ;
#114 = EDGE_LOOP ( 'NONE', ( #72, #136, #69, #290 ) ) ;
#115 = FACE_OUTER_BOUND ( 'NONE', #14, .T. ) ;
#116 = FACE_OUTER_BOUND ( 'NONE', #114, .T. ) ;
#117 = CALENDAR_DATE ( 2026, 9, 1 ) ;
#118 = DIRECTION ( 'NONE',  ( -3.469446951953613696E-16, 1.000000000000000000, 0.000000000000000000 ) ) ;
#119 = ADVANCED_FACE ( 'NONE', ( #299 ), #4, .T. ) ;
#120 = DIRECTION ( 'NONE',  ( 1.000000000000000000, 3.469446951953613696E-16, -0.000000000000000000 ) ) ;
#121 = DIRECTION ( 'NONE',  ( -1.000000000000000000, -1.850371707708594563E-16, 0.000000000000000000 ) ) ;
#122 = CARTESIAN_POINT ( 'NONE',  ( 0.000000000000000000, 0.000000000000000000, -6.000000000000000000 ) ) ;
#123 = DIRECTION ( 'NONE',  ( -0.000000000000000000, -1.000000000000000000, -0.000000000000000000 ) ) ;
#124 = DIRECTION ( 'NONE',  ( 1.000000000000000000, 8.654170713974627835E-17, -0.000000000000000000 ) ) ;
#125 = CALENDAR_DATE ( 2026, 9, 1 ) ;
#126 = EDGE_CURVE ( 'NONE', #284, #201, #105, .T. ) ;
#127 = APPROVAL_STATUS ( 'not_yet_approved' ) ;
#128 = ORIENTED_EDGE ( 'NONE', *, *, #37, .T. ) ;
#129 = AXIS2_PLACEMENT_3D ( 'NONE', #296, #161, #269 ) ;
#130 = SECURITY_CLASSIFICATION ( '', '', #60 ) ;
#131 = PERSON_AND_ORGANIZATION ( #265, #32 ) ;
#132 = ORIENTED_EDGE ( 'NONE', *, *, #84, .T. ) ;
#133 = APPLICATION_PROTOCOL_DEFINITION ( 'international standard', 'config_control_design', 1994, #216 ) ;
#134 = ORIENTED_EDGE ( 'NONE', *, *, #160, .T. ) ;
#135 = EDGE_CURVE ( 'NONE', #158, #205, #189, .T. ) ;
#136 = ORIENTED_EDGE ( 'NONE', *, *, #187, .F. ) ;
#137 = LOCAL_TIME ( 13, 46, 2.000000000000000000, #194 ) ;
#138 = ORIENTED_EDGE ( 'NONE', *, *, #238, .T. ) ;
#139 = DIRECTION ( 'NONE',  ( 0.000000000000000000, 0.000000000000000000, 1.000000000000000000 ) ) ;
#140 = LINE ( 'NONE', #26, #274 ) ;
#141 = DATE_AND_TIME ( #117, #46 ) ;
#142 = DIRECTION ( 'NONE',  ( 8.654170713974627835E-17, -1.000000000000000000, 0.000000000000000000 ) ) ;
#143 = FACE_OUTER_BOUND ( 'NONE', #154, .T. ) ;
#144 = CARTESIAN_POINT ( 'NONE',  ( -1.387778780781445676E-14, 40.00000000000000711, -6.000000000000000000 ) ) ;
#145 = CARTESIAN_POINT ( 'NONE',  ( 0.000000000000000000, 0.000000000000000000, -6.000000000000000000 ) ) ;
#146 = AXIS2_PLACEMENT_3D ( 'NONE', #237, #29, #184 ) ;
#147 = CARTESIAN_POINT ( 'NONE',  ( 0.000000000000000000, 0.000000000000000000, 0.000000000000000000 ) ) ;
#148 = PRODUCT_RELATED_PRODUCT_CATEGORY ( 'detail', '', ( #91 ) ) ;
#149 = CARTESIAN_POINT ( 'NONE',  ( -75.00000000000000000, 39.99999999999999289, -6.000000000000000000 ) ) ;
#150 = DIRECTION ( 'NONE',  ( 0.000000000000000000, 0.000000000000000000, 1.000000000000000000 ) ) ;
#151 = APPROVAL ( #64, 'UNSPECIFIED' ) ;
#152 = ORIENTED_EDGE ( 'NONE', *, *, #272, .F. ) ;
#153 = CARTESIAN_POINT ( 'NONE',  ( -1.387778780781445676E-14, 40.00000000000000711, 0.000000000000000000 ) ) ;
#154 = EDGE_LOOP ( 'NONE', ( #156, #224, #138, #44 ) ) ;
#155 = LINE ( 'NONE', #180, #219 ) ;
#156 = ORIENTED_EDGE ( 'NONE', *, *, #65, .T. ) ;
#157 = ORIENTED_EDGE ( 'NONE', *, *, #292, .T. ) ;
#158 = VERTEX_POINT ( 'NONE', #149 ) ;
#159 = DIRECTION ( 'NONE',  ( -3.469446951953613696E-16, 1.000000000000000000, 0.000000000000000000 ) ) ;
#160 = EDGE_CURVE ( 'NONE', #71, #260, #254, .T. ) ;
#161 = DIRECTION ( 'NONE',  ( 0.000000000000000000, 0.000000000000000000, 1.000000000000000000 ) ) ;
#162 = DIRECTION ( 'NONE',  ( -1.850371707708594563E-16, 1.000000000000000000, 0.000000000000000000 ) ) ;
#163 = EDGE_CURVE ( 'NONE', #71, #248, #239, .T. ) ;
#164 = DIRECTION ( 'NONE',  ( -1.000000000000000000, 0.000000000000000000, 0.000000000000000000 ) ) ;
#165 = FACE_BOUND ( 'NONE', #309, .T. ) ;
#166 = EDGE_CURVE ( 'NONE', #248, #12, #268, .T. ) ;
#167 = PERSON_AND_ORGANIZATION ( #265, #32 ) ;
#168 = VECTOR ( 'NONE', #30, 1000.000000000000000 ) ;
#169 = ADVANCED_BREP_SHAPE_REPRESENTATION ( '4229-50-25-25_REV_', ( #94, #207 ), #93 ) ;
#170 = PERSON_AND_ORGANIZATION_ROLE ( 'design_supplier' ) ;
#171 = CALENDAR_DATE ( 2026, 9, 1 ) ;
#172 = CC_DESIGN_PERSON_AND_ORGANIZATION_ASSIGNMENT ( #131, #199, ( #130 ) ) ;
#173 = DATE_AND_TIME ( #247, #137 ) ;
#174 = ORIENTED_EDGE ( 'NONE', *, *, #37, .F. ) ;
#175 = ORIENTED_EDGE ( 'NONE', *, *, #65, .F. ) ;
#176 = ADVANCED_FACE ( 'NONE', ( #165, #143 ), #56, .T. ) ;
#177 = DIRECTION ( 'NONE',  ( 0.000000000000000000, 0.000000000000000000, 1.000000000000000000 ) ) ;
#178 = CIRCLE ( 'NONE', #129, 7.500000000000000000 ) ;
#179 = APPROVAL_PERSON_ORGANIZATION ( #110, #34, #85 ) ;
#180 = CARTESIAN_POINT ( 'NONE',  ( -30.00000000000000711, 19.99999999999999645, 0.000000000000000000 ) ) ;
#181 = CARTESIAN_POINT ( 'NONE',  ( -75.00000000000000000, -6.490628035480970741E-15, 0.000000000000000000 ) ) ;
#182 = EDGE_CURVE ( 'NONE', #61, #230, #295, .T. ) ;
#183 = CYLINDRICAL_SURFACE ( 'NONE', #54, 7.500000000000000000 ) ;
#184 = DIRECTION ( 'NONE',  ( 1.000000000000000000, 0.000000000000000000, -0.000000000000000000 ) ) ;
#185 = AXIS2_PLACEMENT_3D ( 'NONE', #15, #20, #192 ) ;
#186 = FACE_OUTER_BOUND ( 'NONE', #193, .T. ) ;
#187 = EDGE_CURVE ( 'NONE', #260, #71, #178, .T. ) ;
#188 = CARTESIAN_POINT ( 'NONE',  ( -75.00000000000000000, -6.490628035480970741E-15, -6.000000000000000000 ) ) ;
#189 = LINE ( 'NONE', #191, #168 ) ;
#190 = AXIS2_PLACEMENT_3D ( 'NONE', #122, #120, #159 ) ;
#191 = CARTESIAN_POINT ( 'NONE',  ( -75.00000000000000000, -6.490628035480970741E-15, -6.000000000000000000 ) ) ;
#192 = DIRECTION ( 'NONE',  ( 1.000000000000000000, 0.000000000000000000, 0.000000000000000000 ) ) ;
#193 = EDGE_LOOP ( 'NONE', ( #279, #18, #68, #251 ) ) ;
#194 = COORDINATED_UNIVERSAL_TIME_OFFSET ( 10, 0, .AHEAD. ) ;
#195 = ORIENTED_EDGE ( 'NONE', *, *, #135, .T. ) ;
#196 = AXIS2_PLACEMENT_3D ( 'NONE', #101, #263, #212 ) ;
#197 = PERSON_AND_ORGANIZATION ( #265, #32 ) ;
#198 = EDGE_CURVE ( 'NONE', #12, #248, #27, .T. ) ;
#199 = PERSON_AND_ORGANIZATION_ROLE ( 'classification_officer' ) ;
#200 = FACE_OUTER_BOUND ( 'NONE', #222, .T. ) ;
#201 = VERTEX_POINT ( 'NONE', #144 ) ;
#202 = CC_DESIGN_DATE_AND_TIME_ASSIGNMENT ( #141, #257, ( #130 ) ) ;
#203 = DIRECTION ( 'NONE',  ( 1.000000000000000000, 8.654170713974627835E-17, 0.000000000000000000 ) ) ;
#204 = COORDINATED_UNIVERSAL_TIME_OFFSET ( 10, 0, .AHEAD. ) ;
#205 = VERTEX_POINT ( 'NONE', #6 ) ;
#206 = LINE ( 'NONE', #28, #229 ) ;
#207 = AXIS2_PLACEMENT_3D ( 'NONE', #221, #81, #223 ) ;
#208 = CARTESIAN_POINT ( 'NONE',  ( -37.50000000000000711, 19.99999999999999645, 0.000000000000000000 ) ) ;
#209 = ADVANCED_FACE ( 'NONE', ( #100, #186 ), #76, .F. ) ;
#210 = UNCERTAINTY_MEASURE_WITH_UNIT (LENGTH_MEASURE( 1.000000000000000082E-05 ), #106, 'distance_accuracy_value', 'NONE');
#211 = CARTESIAN_POINT ( 'NONE',  ( -45.00000000000000711, 19.99999999999999645, -6.000000000000000000 ) ) ;
#212 = DIRECTION ( 'NONE',  ( 1.000000000000000000, 0.000000000000000000, 0.000000000000000000 ) ) ;
#213 = DIRECTION ( 'NONE',  ( 1.000000000000000000, 0.000000000000000000, 0.000000000000000000 ) ) ;
#214 = CLOSED_SHELL ( 'NONE', ( #305, #119, #8, #220, #112, #209, #176, #98 ) ) ;
#215 = FACE_OUTER_BOUND ( 'NONE', #282, .T. ) ;
#216 = APPLICATION_CONTEXT ( 'configuration controlled 3d designs of mechanical parts and assemblies' ) ;
#217 = CARTESIAN_POINT ( 'NONE',  ( -45.00000000000000711, 19.99999999999999645, 1.224646799147352468E-16 ) ) ;
#218 = DIRECTION ( 'NONE',  ( -3.469446951953613696E-16, 1.000000000000000000, 0.000000000000000000 ) ) ;
#219 = VECTOR ( 'NONE', #253, 1000.000000000000000 ) ;
#220 = ADVANCED_FACE ( 'NONE', ( #215 ), #7, .T. ) ;
#221 = CARTESIAN_POINT ( 'NONE',  ( 0.000000000000000000, 0.000000000000000000, 0.000000000000000000 ) ) ;
#222 = EDGE_LOOP ( 'NONE', ( #228, #277, #59, #231 ) ) ;
#223 = DIRECTION ( 'NONE',  ( 1.000000000000000000, 0.000000000000000000, 0.000000000000000000 ) ) ;
#224 = ORIENTED_EDGE ( 'NONE', *, *, #272, .T. ) ;
#225 = PERSON_AND_ORGANIZATION_ROLE ( 'design_owner' ) ;
#226 = CARTESIAN_POINT ( 'NONE',  ( 0.000000000000000000, 0.000000000000000000, -6.000000000000000000 ) ) ;
#227 = ORIENTED_EDGE ( 'NONE', *, *, #292, .F. ) ;
#228 = ORIENTED_EDGE ( 'NONE', *, *, #160, .F. ) ;
#229 = VECTOR ( 'NONE', #310, 1000.000000000000000 ) ;
#230 = VERTEX_POINT ( 'NONE', #147 ) ;
#231 = ORIENTED_EDGE ( 'NONE', *, *, #62, .F. ) ;
#232 = SHAPE_DEFINITION_REPRESENTATION ( #23, #169 ) ;
#233 = EDGE_LOOP ( 'NONE', ( #175, #42, #307, #22 ) ) ;
#234 = VECTOR ( 'NONE', #218, 1000.000000000000000 ) ;
#235 = VECTOR ( 'NONE', #123, 1000.000000000000000 ) ;
#236 = EDGE_LOOP ( 'NONE', ( #152, #92, #246, #157 ) ) ;
#237 = CARTESIAN_POINT ( 'NONE',  ( 0.000000000000000000, 0.000000000000000000, 0.000000000000000000 ) ) ;
#238 = EDGE_CURVE ( 'NONE', #43, #61, #242, .T. ) ;
#239 = LINE ( 'NONE', #52, #241 ) ;
#240 = DIRECTION ( 'NONE',  ( 1.000000000000000000, 0.000000000000000000, -0.000000000000000000 ) ) ;
#241 = VECTOR ( 'NONE', #97, 1000.000000000000000 ) ;
#242 = LINE ( 'NONE', #35, #235 ) ;
#243 = DIRECTION ( 'NONE',  ( 1.000000000000000000, 0.000000000000000000, 0.000000000000000000 ) ) ;
#244 = APPROVAL_PERSON_ORGANIZATION ( #39, #75, #86 ) ;
#245 = DATE_TIME_ROLE ( 'creation_date' ) ;
#246 = ORIENTED_EDGE ( 'NONE', *, *, #87, .T. ) ;
#247 = CALENDAR_DATE ( 2026, 9, 1 ) ;
#248 = VERTEX_POINT ( 'NONE', #217 ) ;
#249 = DATE_AND_TIME ( #171, #50 ) ;
#250 = EDGE_LOOP ( 'NONE', ( #24, #134 ) ) ;
#251 = ORIENTED_EDGE ( 'NONE', *, *, #87, .F. ) ;
#252 = APPLICATION_CONTEXT ( 'configuration controlled 3d designs of mechanical parts and assemblies' ) ;
#253 = DIRECTION ( 'NONE',  ( -0.000000000000000000, -0.000000000000000000, 1.000000000000000000 ) ) ;
#254 = CIRCLE ( 'NONE', #196, 7.500000000000000000 ) ;
#255 = AXIS2_PLACEMENT_3D ( 'NONE', #145, #77, #240 ) ;
#256 = CARTESIAN_POINT ( 'NONE',  ( 0.000000000000000000, 0.000000000000000000, -6.000000000000000000 ) ) ;
#257 = DATE_TIME_ROLE ( 'classification_date' ) ;
#258 = EDGE_CURVE ( 'NONE', #205, #284, #271, .T. ) ;
#259 = PLANE ( 'NONE',  #41 ) ;
#260 = VERTEX_POINT ( 'NONE', #298 ) ;
#261 = VECTOR ( 'NONE', #118, 1000.000000000000000 ) ;
#262 = AXIS2_PLACEMENT_3D ( 'NONE', #188, #164, #55 ) ;
#263 = DIRECTION ( 'NONE',  ( 0.000000000000000000, 0.000000000000000000, 1.000000000000000000 ) ) ;
#264 = PRODUCT_DEFINITION ( 'UNKNOWN', '', #73, #102 ) ;
#265 = PERSON ( 'UNSPECIFIED', 'UNSPECIFIED', 'UNSPECIFIED', ('UNSPECIFIED'), ('UNSPECIFIED'), ('UNSPECIFIED') ) ;
#266 = DIRECTION ( 'NONE',  ( -0.000000000000000000, -0.000000000000000000, 1.000000000000000000 ) ) ;
#267 = CARTESIAN_POINT ( 'NONE',  ( 0.000000000000000000, 0.000000000000000000, -6.000000000000000000 ) ) ;
#268 = CIRCLE ( 'NONE', #108, 7.500000000000000000 ) ;
#269 = DIRECTION ( 'NONE',  ( 1.000000000000000000, 0.000000000000000000, 0.000000000000000000 ) ) ;
#270 = AXIS2_PLACEMENT_3D ( 'NONE', #53, #266, #243 ) ;
#271 = LINE ( 'NONE', #9, #293 ) ;
#272 = EDGE_CURVE ( 'NONE', #113, #43, #78, .T. ) ;
#273 = PERSON_AND_ORGANIZATION_ROLE ( 'creator' ) ;
#274 = VECTOR ( 'NONE', #96, 1000.000000000000000 ) ;
#275 = ORIENTED_EDGE ( 'NONE', *, *, #258, .T. ) ;
#276 = APPROVAL_STATUS ( 'not_yet_approved' ) ;
#277 = ORIENTED_EDGE ( 'NONE', *, *, #163, .T. ) ;
#278 = PERSON_AND_ORGANIZATION ( #265, #32 ) ;
#279 = ORIENTED_EDGE ( 'NONE', *, *, #126, .F. ) ;
#280 = APPROVAL_PERSON_ORGANIZATION ( #283, #151, #70 ) ;
#281 = CC_DESIGN_PERSON_AND_ORGANIZATION_ASSIGNMENT ( #278, #40, ( #73 ) ) ;
#282 = EDGE_LOOP ( 'NONE', ( #49, #227, #195, #128 ) ) ;
#283 = PERSON_AND_ORGANIZATION ( #265, #32 ) ;
#284 = VERTEX_POINT ( 'NONE', #226 ) ;
#285 = VECTOR ( 'NONE', #177, 1000.000000000000000 ) ;
#286 = CC_DESIGN_PERSON_AND_ORGANIZATION_ASSIGNMENT ( #197, #225, ( #91 ) ) ;
#287 = CC_DESIGN_APPROVAL ( #151, ( #130 ) ) ;
#288 = ORIENTED_EDGE ( 'NONE', *, *, #166, .F. ) ;
#289 = DATE_AND_TIME ( #21, #88 ) ;
#290 = ORIENTED_EDGE ( 'NONE', *, *, #198, .T. ) ;
#291 = DIRECTION ( 'NONE',  ( -0.000000000000000000, -0.000000000000000000, 1.000000000000000000 ) ) ;
#292 = EDGE_CURVE ( 'NONE', #158, #43, #57, .T. ) ;
#293 = VECTOR ( 'NONE', #103, 1000.000000000000000 ) ;
#294 = CARTESIAN_POINT ( 'NONE',  ( 0.000000000000000000, 0.000000000000000000, 0.000000000000000000 ) ) ;
#295 = LINE ( 'NONE', #294, #16 ) ;
#296 = CARTESIAN_POINT ( 'NONE',  ( -37.50000000000000711, 19.99999999999999645, -6.000000000000000000 ) ) ;
#297 = CC_DESIGN_PERSON_AND_ORGANIZATION_ASSIGNMENT ( #82, #170, ( #73 ) ) ;
#298 = CARTESIAN_POINT ( 'NONE',  ( -30.00000000000000711, 19.99999999999999645, -6.000000000000000000 ) ) ;
#299 = FACE_OUTER_BOUND ( 'NONE', #233, .T. ) ;
#300 = APPROVAL_DATE_TIME ( #11, #34 ) ;
#301 = ORIENTED_EDGE ( 'NONE', *, *, #198, .F. ) ;
#302 = APPROVAL_DATE_TIME ( #173, #75 ) ;
#303 = AXIS2_PLACEMENT_3D ( 'NONE', #10, #162, #121 ) ;
#304 =( NAMED_UNIT ( * ) SI_UNIT ( $, .STERADIAN. ) SOLID_ANGLE_UNIT ( ) );
#305 = ADVANCED_FACE ( 'NONE', ( #200 ), #17, .F. ) ;
#306 = COORDINATED_UNIVERSAL_TIME_OFFSET ( 10, 0, .AHEAD. ) ;
#307 = ORIENTED_EDGE ( 'NONE', *, *, #126, .T. ) ;
#308 = VECTOR ( 'NONE', #150, 1000.000000000000000 ) ;
#309 = EDGE_LOOP ( 'NONE', ( #301, #288 ) ) ;
#310 = DIRECTION ( 'NONE',  ( 0.000000000000000000, 0.000000000000000000, 1.000000000000000000 ) ) ;
#311 = LINE ( 'NONE', #90, #285 ) ;
ENDSEC;
END-ISO-10303-21;
