ISO-10303-21;
HEADER;
FILE_DESCRIPTION (( 'STEP AP203' ),
    '1' );
FILE_NAME ('4229-50-25-30_REV_.step',
    '2026-01-09T02:46:40',
    ( '' ),
    ( '' ),
    'SwSTEP 2.0',
    'SolidWorks 2025',
    '' );
FILE_SCHEMA (( 'CONFIG_CONTROL_DESIGN' ));
ENDSEC;

DATA;
#1 = CC_DESIGN_PERSON_AND_ORGANIZATION_ASSIGNMENT ( #68, #170, ( #365 ) ) ;
#2 = LINE ( 'NONE', #61, #171 ) ;
#3 = PERSON ( 'UNSPECIFIED', 'UNSPECIFIED', 'UNSPECIFIED', ('UNSPECIFIED'), ('UNSPECIFIED'), ('UNSPECIFIED') ) ;
#4 = DIRECTION ( 'NONE',  ( 1.000000000000000000, 0.000000000000000000, 0.000000000000000000 ) ) ;
#5 = CARTESIAN_POINT ( 'NONE',  ( -63.50000000000001421, 5.999999999999970690, 20.00000000000000000 ) ) ;
#6 = VECTOR ( 'NONE', #415, 1000.000000000000000 ) ;
#7 = VECTOR ( 'NONE', #129, 1000.000000000000000 ) ;
#8 = ORIENTED_EDGE ( 'NONE', *, *, #353, .F. ) ;
#9 = CARTESIAN_POINT ( 'NONE',  ( -63.50000000000001421, 5.999999999999970690, -20.00000000000000000 ) ) ;
#10 = CARTESIAN_POINT ( 'NONE',  ( 0.000000000000000000, 147.4999999999999716, -20.00000000000000000 ) ) ;
#11 = DIRECTION ( 'NONE',  ( -1.000000000000000000, -0.000000000000000000, 0.000000000000000000 ) ) ;
#12 = ADVANCED_FACE ( 'NONE', ( #123 ), #260, .T. ) ;
#13 = FACE_OUTER_BOUND ( 'NONE', #378, .T. ) ;
#14 = ORIENTED_EDGE ( 'NONE', *, *, #307, .F. ) ;
#15 = AXIS2_PLACEMENT_3D ( 'NONE', #56, #418, #82 ) ;
#16 = AXIS2_PLACEMENT_3D ( 'NONE', #10, #407, #148 ) ;
#17 = ORIENTED_EDGE ( 'NONE', *, *, #405, .F. ) ;
#18 = CARTESIAN_POINT ( 'NONE',  ( 63.50000000000001421, 5.999999999999977796, 20.00000000000000000 ) ) ;
#19 = VERTEX_POINT ( 'NONE', #349 ) ;
#20 = VERTEX_POINT ( 'NONE', #392 ) ;
#21 = CALENDAR_DATE ( 2026, 9, 1 ) ;
#22 = DIRECTION ( 'NONE',  ( 1.156482317317870344E-15, -1.000000000000000000, 0.000000000000000000 ) ) ;
#23 = DIRECTION ( 'NONE',  ( 0.000000000000000000, 0.000000000000000000, 1.000000000000000000 ) ) ;
#24 = DIRECTION ( 'NONE',  ( -1.000000000000000000, 0.000000000000000000, 0.000000000000000000 ) ) ;
#25 = APPROVAL_PERSON_ORGANIZATION ( #239, #216, #35 ) ;
#26 = DIRECTION ( 'NONE',  ( 0.000000000000000000, 0.000000000000000000, 1.000000000000000000 ) ) ;
#27 = PERSON_AND_ORGANIZATION ( #3, #381 ) ;
#28 = PLANE ( 'NONE',  #430 ) ;
#29 = PLANE ( 'NONE',  #192 ) ;
#30 = CIRCLE ( 'NONE', #15, 63.50000000000001421 ) ;
#31 = APPROVAL_PERSON_ORGANIZATION ( #229, #81, #427 ) ;
#32 = EDGE_CURVE ( 'NONE', #147, #327, #30, .T. ) ;
#33 = APPROVAL_DATE_TIME ( #368, #57 ) ;
#34 = CARTESIAN_POINT ( 'NONE',  ( -57.50000000000000711, 5.999999999999970690, 20.00000000000000000 ) ) ;
#35 = APPROVAL_ROLE ( '' ) ;
#36 = CARTESIAN_POINT ( 'NONE',  ( 63.50000000000001421, 147.4999999999999716, 20.00000000000000000 ) ) ;
#37 = ADVANCED_FACE ( 'NONE', ( #91 ), #117, .T. ) ;
#38 = DIRECTION ( 'NONE',  ( -0.000000000000000000, -0.000000000000000000, -1.000000000000000000 ) ) ;
#39 = VERTEX_POINT ( 'NONE', #352 ) ;
#40 = DIRECTION ( 'NONE',  ( -0.000000000000000000, -0.000000000000000000, -1.000000000000000000 ) ) ;
#41 = VECTOR ( 'NONE', #4, 1000.000000000000000 ) ;
#42 = ORIENTED_EDGE ( 'NONE', *, *, #331, .T. ) ;
#43 = CARTESIAN_POINT ( 'NONE',  ( 63.50000000000001421, 5.999999999999977796, 20.00000000000000000 ) ) ;
#44 = ADVANCED_FACE ( 'NONE', ( #386 ), #85, .T. ) ;
#45 = EDGE_LOOP ( 'NONE', ( #49, #314, #284, #158 ) ) ;
#46 = LINE ( 'NONE', #289, #210 ) ;
#47 = CARTESIAN_POINT ( 'NONE',  ( -57.50000000000000711, 5.999999999999970690, -20.00000000000000000 ) ) ;
#48 = DIRECTION ( 'NONE',  ( 0.000000000000000000, -0.000000000000000000, -1.000000000000000000 ) ) ;
#49 = ORIENTED_EDGE ( 'NONE', *, *, #369, .F. ) ;
#50 = VECTOR ( 'NONE', #395, 1000.000000000000000 ) ;
#51 = AXIS2_PLACEMENT_3D ( 'NONE', #213, #119, #351 ) ;
#52 = ORIENTED_EDGE ( 'NONE', *, *, #369, .T. ) ;
#53 = DIRECTION ( 'NONE',  ( 1.000000000000000000, 0.000000000000000000, 0.000000000000000000 ) ) ;
#54 = CARTESIAN_POINT ( 'NONE',  ( 0.000000000000000000, 147.4999999999999716, 20.00000000000000000 ) ) ;
#55 = EDGE_CURVE ( 'NONE', #420, #255, #293, .T. ) ;
#56 = CARTESIAN_POINT ( 'NONE',  ( 0.000000000000000000, 147.4999999999999716, 20.00000000000000000 ) ) ;
#57 = APPROVAL ( #101, 'UNSPECIFIED' ) ;
#58 = FACE_OUTER_BOUND ( 'NONE', #332, .T. ) ;
#59 = AXIS2_PLACEMENT_3D ( 'NONE', #242, #273, #373 ) ;
#60 = LOCAL_TIME ( 13, 46, 40.00000000000000000, #140 ) ;
#61 = CARTESIAN_POINT ( 'NONE',  ( -63.50000000000001421, 147.4999999999999716, -20.00000000000000000 ) ) ;
#62 = FACE_OUTER_BOUND ( 'NONE', #225, .T. ) ;
#63 = ADVANCED_FACE ( 'NONE', ( #58 ), #316, .F. ) ;
#64 = CARTESIAN_POINT ( 'NONE',  ( -57.50000000000000711, 5.999999999999970690, 20.00000000000000000 ) ) ;
#65 = AXIS2_PLACEMENT_3D ( 'NONE', #305, #26, #264 ) ;
#66 = LOCAL_TIME ( 13, 46, 40.00000000000000000, #136 ) ;
#67 = APPROVAL_DATE_TIME ( #398, #216 ) ;
#68 = PERSON_AND_ORGANIZATION ( #3, #381 ) ;
#69 = CARTESIAN_POINT ( 'NONE',  ( -63.50000000000001421, 147.4999999999999716, 20.00000000000000000 ) ) ;
#70 = AXIS2_PLACEMENT_3D ( 'NONE', #168, #403, #209 ) ;
#71 = CC_DESIGN_APPROVAL ( #81, ( #417 ) ) ;
#72 = EDGE_CURVE ( 'NONE', #420, #121, #152, .T. ) ;
#73 = CARTESIAN_POINT ( 'NONE',  ( 57.50000000000000711, 147.4999999999999716, 20.00000000000000000 ) ) ;
#74 = ADVANCED_FACE ( 'NONE', ( #232 ), #297, .T. ) ;
#75 = CARTESIAN_POINT ( 'NONE',  ( 57.50000000000000711, 147.4999999999999716, 20.00000000000000000 ) ) ;
#76 = ORIENTED_EDGE ( 'NONE', *, *, #331, .F. ) ;
#77 = DIRECTION ( 'NONE',  ( 0.000000000000000000, 0.000000000000000000, 1.000000000000000000 ) ) ;
#78 = VECTOR ( 'NONE', #243, 1000.000000000000000 ) ;
#79 = APPROVAL_PERSON_ORGANIZATION ( #370, #57, #176 ) ;
#80 = DIRECTION ( 'NONE',  ( -1.000000000000000000, -1.156482317317870344E-15, 0.000000000000000000 ) ) ;
#81 = APPROVAL ( #296, 'UNSPECIFIED' ) ;
#82 = DIRECTION ( 'NONE',  ( 1.000000000000000000, 0.000000000000000000, 0.000000000000000000 ) ) ;
#83 = DIRECTION ( 'NONE',  ( -1.000000000000000000, -1.156482317317870344E-15, 0.000000000000000000 ) ) ;
#84 = ORIENTED_EDGE ( 'NONE', *, *, #156, .F. ) ;
#85 = CYLINDRICAL_SURFACE ( 'NONE', #399, 63.50000000000001421 ) ;
#86 = CIRCLE ( 'NONE', #278, 57.50000000000000711 ) ;
#87 = ORIENTED_EDGE ( 'NONE', *, *, #269, .F. ) ;
#88 = DATE_AND_TIME ( #21, #322 ) ;
#89 = ORIENTED_EDGE ( 'NONE', *, *, #313, .T. ) ;
#90 = MECHANICAL_CONTEXT ( 'NONE', #203, 'mechanical' ) ;
#91 = FACE_OUTER_BOUND ( 'NONE', #247, .T. ) ;
#92 = ORIENTED_EDGE ( 'NONE', *, *, #172, .T. ) ;
#93 = DIRECTION ( 'NONE',  ( 1.000000000000000000, 0.000000000000000000, -0.000000000000000000 ) ) ;
#94 = EDGE_CURVE ( 'NONE', #327, #39, #143, .T. ) ;
#95 = LINE ( 'NONE', #266, #198 ) ;
#96 = COORDINATED_UNIVERSAL_TIME_OFFSET ( 10, 0, .AHEAD. ) ;
#97 = VECTOR ( 'NONE', #380, 1000.000000000000000 ) ;
#98 = CARTESIAN_POINT ( 'NONE',  ( -63.50000000000001421, 147.4999999999999716, -20.00000000000000000 ) ) ;
#99 = ORIENTED_EDGE ( 'NONE', *, *, #326, .T. ) ;
#100 = LINE ( 'NONE', #130, #356 ) ;
#101 = APPROVAL_STATUS ( 'not_yet_approved' ) ;
#102 = VECTOR ( 'NONE', #80, 1000.000000000000000 ) ;
#103 = SECURITY_CLASSIFICATION_LEVEL ( 'unclassified' ) ;
#104 = LINE ( 'NONE', #335, #78 ) ;
#105 = EDGE_CURVE ( 'NONE', #327, #319, #104, .T. ) ;
#106 = CARTESIAN_POINT ( 'NONE',  ( -57.50000000000000711, 5.999999999999970690, 20.00000000000000000 ) ) ;
#107 = CLOSED_SHELL ( 'NONE', ( #338, #408, #189, #74, #63, #37, #241, #44, #12, #360, #212, #141, #235, #337 ) ) ;
#108 = DIRECTION ( 'NONE',  ( 0.000000000000000000, -1.000000000000000000, 0.000000000000000000 ) ) ;
#109 = EDGE_CURVE ( 'NONE', #147, #118, #95, .T. ) ;
#110 = EDGE_LOOP ( 'NONE', ( #120, #179, #419, #154 ) ) ;
#111 = LINE ( 'NONE', #73, #163 ) ;
#112 = LINE ( 'NONE', #146, #400 ) ;
#113 = ORIENTED_EDGE ( 'NONE', *, *, #391, .T. ) ;
#114 = CC_DESIGN_APPROVAL ( #216, ( #365 ) ) ;
#115 = ORIENTED_EDGE ( 'NONE', *, *, #181, .T. ) ;
#116 = DIRECTION ( 'NONE',  ( 0.000000000000000000, 1.000000000000000000, 0.000000000000000000 ) ) ;
#117 = PLANE ( 'NONE',  #276 ) ;
#118 = VERTEX_POINT ( 'NONE', #199 ) ;
#119 = DIRECTION ( 'NONE',  ( 0.000000000000000000, 0.000000000000000000, 1.000000000000000000 ) ) ;
#120 = ORIENTED_EDGE ( 'NONE', *, *, #307, .T. ) ;
#121 = VERTEX_POINT ( 'NONE', #363 ) ;
#122 = DIRECTION ( 'NONE',  ( -0.000000000000000000, -1.000000000000000000, 0.000000000000000000 ) ) ;
#123 = FACE_OUTER_BOUND ( 'NONE', #193, .T. ) ;
#124 = PLANE ( 'NONE',  #153 ) ;
#125 = ORIENTED_EDGE ( 'NONE', *, *, #275, .T. ) ;
#126 = APPROVAL_DATE_TIME ( #325, #81 ) ;
#127 = EDGE_CURVE ( 'NONE', #118, #121, #2, .T. ) ;
#128 = CARTESIAN_POINT ( 'NONE',  ( 57.50000000000000711, 5.999999999999970690, 20.00000000000000000 ) ) ;
#129 = DIRECTION ( 'NONE',  ( -0.000000000000000000, 1.000000000000000000, 0.000000000000000000 ) ) ;
#130 = CARTESIAN_POINT ( 'NONE',  ( -57.50000000000000711, 147.4999999999999716, 20.00000000000000000 ) ) ;
#131 = UNCERTAINTY_MEASURE_WITH_UNIT (LENGTH_MEASURE( 1.000000000000000082E-05 ), #358, 'distance_accuracy_value', 'NONE');
#132 = VECTOR ( 'NONE', #134, 1000.000000000000000 ) ;
#133 = VECTOR ( 'NONE', #315, 1000.000000000000000 ) ;
#134 = DIRECTION ( 'NONE',  ( -1.000000000000000000, 0.000000000000000000, 0.000000000000000000 ) ) ;
#135 = APPROVAL_STATUS ( 'not_yet_approved' ) ;
#136 = COORDINATED_UNIVERSAL_TIME_OFFSET ( 10, 0, .AHEAD. ) ;
#137 = CC_DESIGN_DATE_AND_TIME_ASSIGNMENT ( #88, #227, ( #417 ) ) ;
#138 = PERSON_AND_ORGANIZATION ( #3, #381 ) ;
#139 = AXIS2_PLACEMENT_3D ( 'NONE', #161, #11, #283 ) ;
#140 = COORDINATED_UNIVERSAL_TIME_OFFSET ( 10, 0, .AHEAD. ) ;
#141 = ADVANCED_FACE ( 'NONE', ( #308 ), #142, .F. ) ;
#142 = CYLINDRICAL_SURFACE ( 'NONE', #59, 57.50000000000000711 ) ;
#143 = LINE ( 'NONE', #36, #341 ) ;
#144 = CARTESIAN_POINT ( 'NONE',  ( 57.50000000000000711, 5.999999999999970690, 20.00000000000000000 ) ) ;
#145 = ORIENTED_EDGE ( 'NONE', *, *, #55, .T. ) ;
#146 = CARTESIAN_POINT ( 'NONE',  ( 57.50000000000000711, 147.4999999999999716, -20.00000000000000000 ) ) ;
#147 = VERTEX_POINT ( 'NONE', #69 ) ;
#148 = DIRECTION ( 'NONE',  ( 1.000000000000000000, 0.000000000000000000, 0.000000000000000000 ) ) ;
#149 = CARTESIAN_POINT ( 'NONE',  ( 57.50000000000000711, 147.4999999999999716, 20.00000000000000000 ) ) ;
#150 = ORIENTED_EDGE ( 'NONE', *, *, #391, .F. ) ;
#151 = CARTESIAN_POINT ( 'NONE',  ( 63.50000000000001421, 5.999999999999977796, -20.00000000000000000 ) ) ;
#152 = LINE ( 'NONE', #287, #6 ) ;
#153 = AXIS2_PLACEMENT_3D ( 'NONE', #291, #23, #93 ) ;
#154 = ORIENTED_EDGE ( 'NONE', *, *, #261, .T. ) ;
#155 = DIRECTION ( 'NONE',  ( 0.000000000000000000, -1.000000000000000000, 0.000000000000000000 ) ) ;
#156 = EDGE_CURVE ( 'NONE', #214, #420, #340, .T. ) ;
#157 = EDGE_LOOP ( 'NONE', ( #385, #256, #310, #92 ) ) ;
#158 = ORIENTED_EDGE ( 'NONE', *, *, #105, .T. ) ;
#159 = CC_DESIGN_PERSON_AND_ORGANIZATION_ASSIGNMENT ( #304, #372, ( #272 ) ) ;
#160 = ORIENTED_EDGE ( 'NONE', *, *, #429, .F. ) ;
#161 = CARTESIAN_POINT ( 'NONE',  ( -63.50000000000001421, 5.999999999999970690, 20.00000000000000000 ) ) ;
#162 = EDGE_CURVE ( 'NONE', #223, #39, #362, .T. ) ;
#163 = VECTOR ( 'NONE', #410, 1000.000000000000000 ) ;
#164 = CARTESIAN_POINT ( 'NONE',  ( 0.000000000000000000, 0.000000000000000000, 0.000000000000000000 ) ) ;
#165 = FACE_OUTER_BOUND ( 'NONE', #157, .T. ) ;
#166 = DESIGN_CONTEXT ( 'detailed design', #236, 'design' ) ;
#167 = PERSON_AND_ORGANIZATION_ROLE ( 'creator' ) ;
#168 = CARTESIAN_POINT ( 'NONE',  ( 0.000000000000000000, 147.4999999999999716, 20.00000000000000000 ) ) ;
#169 = CARTESIAN_POINT ( 'NONE',  ( 63.50000000000001421, 5.999999999999977796, 20.00000000000000000 ) ) ;
#170 = PERSON_AND_ORGANIZATION_ROLE ( 'design_supplier' ) ;
#171 = VECTOR ( 'NONE', #177, 1000.000000000000000 ) ;
#172 = EDGE_CURVE ( 'NONE', #320, #20, #393, .T. ) ;
#173 = CARTESIAN_POINT ( 'NONE',  ( 57.50000000000000711, 147.4999999999999716, -20.00000000000000000 ) ) ;
#174 = VECTOR ( 'NONE', #230, 1000.000000000000000 ) ;
#175 = CC_DESIGN_APPROVAL ( #57, ( #272 ) ) ;
#176 = APPROVAL_ROLE ( '' ) ;
#177 = DIRECTION ( 'NONE',  ( 1.000000000000000000, 0.000000000000000000, 0.000000000000000000 ) ) ;
#178 = CARTESIAN_POINT ( 'NONE',  ( 63.50000000000001421, 147.4999999999999716, 20.00000000000000000 ) ) ;
#179 = ORIENTED_EDGE ( 'NONE', *, *, #371, .F. ) ;
#180 = LINE ( 'NONE', #345, #97 ) ;
#181 = EDGE_CURVE ( 'NONE', #214, #290, #237, .T. ) ;
#182 = CC_DESIGN_SECURITY_CLASSIFICATION ( #272, ( #365 ) ) ;
#183 = ORIENTED_EDGE ( 'NONE', *, *, #353, .T. ) ;
#184 = CARTESIAN_POINT ( 'NONE',  ( 0.000000000000000000, 147.4999999999999716, -20.00000000000000000 ) ) ;
#185 = PRODUCT_RELATED_PRODUCT_CATEGORY ( 'detail', '', ( #426 ) ) ;
#186 = ORIENTED_EDGE ( 'NONE', *, *, #72, .F. ) ;
#187 = DIRECTION ( 'NONE',  ( -1.000000000000000000, 0.000000000000000000, 0.000000000000000000 ) ) ;
#188 = DIRECTION ( 'NONE',  ( -0.000000000000000000, 0.000000000000000000, -1.000000000000000000 ) ) ;
#189 = ADVANCED_FACE ( 'NONE', ( #62 ), #29, .T. ) ;
#190 = DIRECTION ( 'NONE',  ( -0.000000000000000000, 0.000000000000000000, -1.000000000000000000 ) ) ;
#191 = ORIENTED_EDGE ( 'NONE', *, *, #72, .T. ) ;
#192 = AXIS2_PLACEMENT_3D ( 'NONE', #173, #376, #367 ) ;
#193 = EDGE_LOOP ( 'NONE', ( #359, #150, #324, #397 ) ) ;
#194 = ORIENTED_EDGE ( 'NONE', *, *, #162, .T. ) ;
#195 = CARTESIAN_POINT ( 'NONE',  ( 63.50000000000001421, 5.999999999999977796, 20.00000000000000000 ) ) ;
#196 = CARTESIAN_POINT ( 'NONE',  ( 57.50000000000000711, 147.4999999999999716, -20.00000000000000000 ) ) ;
#197 = CC_DESIGN_PERSON_AND_ORGANIZATION_ASSIGNMENT ( #333, #224, ( #426 ) ) ;
#198 = VECTOR ( 'NONE', #402, 1000.000000000000000 ) ;
#199 = CARTESIAN_POINT ( 'NONE',  ( -63.50000000000001421, 147.4999999999999716, -20.00000000000000000 ) ) ;
#200 = FACE_OUTER_BOUND ( 'NONE', #357, .T. ) ;
#201 = DIRECTION ( 'NONE',  ( -1.000000000000000000, 0.000000000000000000, 0.000000000000000000 ) ) ;
#202 = DIRECTION ( 'NONE',  ( -0.000000000000000000, 0.000000000000000000, -1.000000000000000000 ) ) ;
#203 = APPLICATION_CONTEXT ( 'configuration controlled 3d designs of mechanical parts and assemblies' ) ;
#204 = EDGE_CURVE ( 'NONE', #218, #319, #396, .T. ) ;
#205 = AXIS2_PLACEMENT_3D ( 'NONE', #414, #77, #248 ) ;
#206 = MANIFOLD_SOLID_BREP ( 'Base-Flange1', #107 ) ;
#207 = EDGE_CURVE ( 'NONE', #223, #147, #100, .T. ) ;
#208 = PERSON_AND_ORGANIZATION_ROLE ( 'creator' ) ;
#209 = DIRECTION ( 'NONE',  ( -1.000000000000000000, 0.000000000000000000, 0.000000000000000000 ) ) ;
#210 = VECTOR ( 'NONE', #116, 1000.000000000000000 ) ;
#211 = LINE ( 'NONE', #344, #375 ) ;
#212 = ADVANCED_FACE ( 'NONE', ( #334 ), #28, .F. ) ;
#213 = CARTESIAN_POINT ( 'NONE',  ( -57.50000000000000711, 147.4999999999999716, 20.00000000000000000 ) ) ;
#214 = VERTEX_POINT ( 'NONE', #106 ) ;
#215 = CARTESIAN_POINT ( 'NONE',  ( -57.50000000000000711, 147.4999999999999716, 20.00000000000000000 ) ) ;
#216 = APPROVAL ( #135, 'UNSPECIFIED' ) ;
#217 = AXIS2_PLACEMENT_3D ( 'NONE', #164, #233, #53 ) ;
#218 = VERTEX_POINT ( 'NONE', #330 ) ;
#219 = CARTESIAN_POINT ( 'NONE',  ( -57.50000000000000711, 5.999999999999970690, 20.00000000000000000 ) ) ;
#220 = ORIENTED_EDGE ( 'NONE', *, *, #280, .F. ) ;
#221 = DIRECTION ( 'NONE',  ( -0.000000000000000000, 1.000000000000000000, 0.000000000000000000 ) ) ;
#222 = ORIENTED_EDGE ( 'NONE', *, *, #261, .F. ) ;
#223 = VERTEX_POINT ( 'NONE', #299 ) ;
#224 = PERSON_AND_ORGANIZATION_ROLE ( 'design_owner' ) ;
#225 = EDGE_LOOP ( 'NONE', ( #281, #14, #252, #52 ) ) ;
#226 = ORIENTED_EDGE ( 'NONE', *, *, #280, .T. ) ;
#227 = DATE_TIME_ROLE ( 'creation_date' ) ;
#228 = VERTEX_POINT ( 'NONE', #128 ) ;
#229 = PERSON_AND_ORGANIZATION ( #3, #381 ) ;
#230 = DIRECTION ( 'NONE',  ( -1.000000000000000000, 0.000000000000000000, 0.000000000000000000 ) ) ;
#231 =( NAMED_UNIT ( * ) PLANE_ANGLE_UNIT ( ) SI_UNIT ( $, .RADIAN. ) );
#232 = FACE_OUTER_BOUND ( 'NONE', #288, .T. ) ;
#233 = DIRECTION ( 'NONE',  ( 0.000000000000000000, 0.000000000000000000, 1.000000000000000000 ) ) ;
#234 = FACE_OUTER_BOUND ( 'NONE', #413, .T. ) ;
#235 = ADVANCED_FACE ( 'NONE', ( #234 ), #428, .T. ) ;
#236 = APPLICATION_CONTEXT ( 'configuration controlled 3d designs of mechanical parts and assemblies' ) ;
#237 = LINE ( 'NONE', #34, #132 ) ;
#238 = CALENDAR_DATE ( 2026, 9, 1 ) ;
#239 = PERSON_AND_ORGANIZATION ( #3, #381 ) ;
#240 = AXIS2_PLACEMENT_3D ( 'NONE', #98, #202, #343 ) ;
#241 = ADVANCED_FACE ( 'NONE', ( #165 ), #262, .T. ) ;
#242 = CARTESIAN_POINT ( 'NONE',  ( 0.000000000000000000, 147.4999999999999716, 20.00000000000000000 ) ) ;
#243 = DIRECTION ( 'NONE',  ( -0.000000000000000000, -0.000000000000000000, -1.000000000000000000 ) ) ;
#244 = PLANE ( 'NONE',  #347 ) ;
#245 = ORIENTED_EDGE ( 'NONE', *, *, #32, .F. ) ;
#246 = CARTESIAN_POINT ( 'NONE',  ( -63.50000000000001421, 5.999999999999970690, -20.00000000000000000 ) ) ;
#247 = EDGE_LOOP ( 'NONE', ( #220, #292, #183, #42 ) ) ;
#248 = DIRECTION ( 'NONE',  ( 1.000000000000000000, 0.000000000000000000, -0.000000000000000000 ) ) ;
#249 = EDGE_LOOP ( 'NONE', ( #350, #194, #424, #245 ) ) ;
#250 = LINE ( 'NONE', #144, #133 ) ;
#251 = ORIENTED_EDGE ( 'NONE', *, *, #127, .T. ) ;
#252 = ORIENTED_EDGE ( 'NONE', *, *, #127, .F. ) ;
#253 = LINE ( 'NONE', #43, #389 ) ;
#254 = ORIENTED_EDGE ( 'NONE', *, *, #275, .F. ) ;
#255 = VERTEX_POINT ( 'NONE', #9 ) ;
#256 = ORIENTED_EDGE ( 'NONE', *, *, #105, .F. ) ;
#257 = VECTOR ( 'NONE', #302, 1000.000000000000000 ) ;
#258 = VECTOR ( 'NONE', #282, 1000.000000000000000 ) ;
#259 = CARTESIAN_POINT ( 'NONE',  ( -63.50000000000001421, 5.999999999999970690, 20.00000000000000000 ) ) ;
#260 = PLANE ( 'NONE',  #139 ) ;
#261 = EDGE_CURVE ( 'NONE', #223, #121, #309, .T. ) ;
#262 = PLANE ( 'NONE',  #295 ) ;
#263 = APPLICATION_PROTOCOL_DEFINITION ( 'international standard', 'config_control_design', 1994, #236 ) ;
#264 = DIRECTION ( 'NONE',  ( 1.000000000000000000, 0.000000000000000000, -0.000000000000000000 ) ) ;
#265 = LOCAL_TIME ( 13, 46, 40.00000000000000000, #388 ) ;
#266 = CARTESIAN_POINT ( 'NONE',  ( -63.50000000000001421, 147.4999999999999716, 20.00000000000000000 ) ) ;
#267 = ORIENTED_EDGE ( 'NONE', *, *, #371, .T. ) ;
#268 = CALENDAR_DATE ( 2026, 9, 1 ) ;
#269 = EDGE_CURVE ( 'NONE', #218, #19, #112, .T. ) ;
#270 = COORDINATED_UNIVERSAL_TIME_OFFSET ( 10, 0, .AHEAD. ) ;
#271 = CALENDAR_DATE ( 2026, 9, 1 ) ;
#272 = SECURITY_CLASSIFICATION ( '', '', #103 ) ;
#273 = DIRECTION ( 'NONE',  ( -0.000000000000000000, -0.000000000000000000, -1.000000000000000000 ) ) ;
#274 = DIRECTION ( 'NONE',  ( 0.000000000000000000, 0.000000000000000000, 1.000000000000000000 ) ) ;
#275 = EDGE_CURVE ( 'NONE', #214, #223, #46, .T. ) ;
#276 = AXIS2_PLACEMENT_3D ( 'NONE', #195, #22, #361 ) ;
#277 = DIRECTION ( 'NONE',  ( 0.000000000000000000, -1.000000000000000000, 0.000000000000000000 ) ) ;
#278 = AXIS2_PLACEMENT_3D ( 'NONE', #184, #40, #187 ) ;
#279 = LINE ( 'NONE', #246, #303 ) ;
#280 = EDGE_CURVE ( 'NONE', #20, #19, #348, .T. ) ;
#281 = ORIENTED_EDGE ( 'NONE', *, *, #204, .F. ) ;
#282 = DIRECTION ( 'NONE',  ( -0.000000000000000000, -0.000000000000000000, -1.000000000000000000 ) ) ;
#283 = DIRECTION ( 'NONE',  ( 0.000000000000000000, 0.000000000000000000, 1.000000000000000000 ) ) ;
#284 = ORIENTED_EDGE ( 'NONE', *, *, #32, .T. ) ;
#285 = CARTESIAN_POINT ( 'NONE',  ( 63.50000000000001421, 147.4999999999999716, 20.00000000000000000 ) ) ;
#286 = VECTOR ( 'NONE', #155, 1000.000000000000000 ) ;
#287 = CARTESIAN_POINT ( 'NONE',  ( -57.50000000000000711, 5.999999999999970690, -20.00000000000000000 ) ) ;
#288 = EDGE_LOOP ( 'NONE', ( #87, #406, #409, #226 ) ) ;
#289 = CARTESIAN_POINT ( 'NONE',  ( -57.50000000000000711, 5.999999999999970690, 20.00000000000000000 ) ) ;
#290 = VERTEX_POINT ( 'NONE', #5 ) ;
#291 = CARTESIAN_POINT ( 'NONE',  ( 63.50000000000001421, 147.4999999999999716, 20.00000000000000000 ) ) ;
#292 = ORIENTED_EDGE ( 'NONE', *, *, #172, .F. ) ;
#293 = LINE ( 'NONE', #47, #174 ) ;
#294 = CC_DESIGN_DATE_AND_TIME_ASSIGNMENT ( #336, #339, ( #272 ) ) ;
#295 = AXIS2_PLACEMENT_3D ( 'NONE', #178, #321, #190 ) ;
#296 = APPROVAL_STATUS ( 'not_yet_approved' ) ;
#297 = PLANE ( 'NONE',  #240 ) ;
#298 = CARTESIAN_POINT ( 'NONE',  ( -57.50000000000000711, 5.999999999999970690, -20.00000000000000000 ) ) ;
#299 = CARTESIAN_POINT ( 'NONE',  ( -57.50000000000000711, 147.4999999999999716, 20.00000000000000000 ) ) ;
#300 = ORIENTED_EDGE ( 'NONE', *, *, #326, .F. ) ;
#301 = LINE ( 'NONE', #259, #7 ) ;
#302 = DIRECTION ( 'NONE',  ( -0.000000000000000000, -0.000000000000000000, -1.000000000000000000 ) ) ;
#303 = VECTOR ( 'NONE', #221, 1000.000000000000000 ) ;
#304 = PERSON_AND_ORGANIZATION ( #3, #381 ) ;
#305 = CARTESIAN_POINT ( 'NONE',  ( 0.000000000000000000, 147.4999999999999716, 20.00000000000000000 ) ) ;
#306 = SHAPE_DEFINITION_REPRESENTATION ( #364, #411 ) ;
#307 = EDGE_CURVE ( 'NONE', #121, #218, #86, .T. ) ;
#308 = FACE_OUTER_BOUND ( 'NONE', #110, .T. ) ;
#309 = LINE ( 'NONE', #215, #258 ) ;
#310 = ORIENTED_EDGE ( 'NONE', *, *, #405, .T. ) ;
#311 = CARTESIAN_POINT ( 'NONE',  ( 63.50000000000001421, 147.4999999999999716, 20.00000000000000000 ) ) ;
#312 = LOCAL_TIME ( 13, 46, 40.00000000000000000, #270 ) ;
#313 = EDGE_CURVE ( 'NONE', #255, #118, #279, .T. ) ;
#314 = ORIENTED_EDGE ( 'NONE', *, *, #109, .F. ) ;
#315 = DIRECTION ( 'NONE',  ( -0.000000000000000000, -0.000000000000000000, -1.000000000000000000 ) ) ;
#316 = PLANE ( 'NONE',  #374 ) ;
#317 = CC_DESIGN_PERSON_AND_ORGANIZATION_ASSIGNMENT ( #138, #208, ( #365 ) ) ;
#318 = FACE_OUTER_BOUND ( 'NONE', #249, .T. ) ;
#319 = VERTEX_POINT ( 'NONE', #346 ) ;
#320 = VERTEX_POINT ( 'NONE', #18 ) ;
#321 = DIRECTION ( 'NONE',  ( 1.000000000000000000, 0.000000000000000000, -0.000000000000000000 ) ) ;
#322 = LOCAL_TIME ( 13, 46, 40.00000000000000000, #96 ) ;
#323 = ORIENTED_EDGE ( 'NONE', *, *, #55, .F. ) ;
#324 = ORIENTED_EDGE ( 'NONE', *, *, #429, .T. ) ;
#325 = DATE_AND_TIME ( #355, #265 ) ;
#326 = EDGE_CURVE ( 'NONE', #39, #228, #379, .T. ) ;
#327 = VERTEX_POINT ( 'NONE', #285 ) ;
#328 = ORIENTED_EDGE ( 'NONE', *, *, #207, .T. ) ;
#329 = DIRECTION ( 'NONE',  ( -0.000000000000000000, -0.000000000000000000, -1.000000000000000000 ) ) ;
#330 = CARTESIAN_POINT ( 'NONE',  ( 57.50000000000000711, 147.4999999999999716, -20.00000000000000000 ) ) ;
#331 = EDGE_CURVE ( 'NONE', #228, #19, #250, .T. ) ;
#332 = EDGE_LOOP ( 'NONE', ( #421, #76, #300, #267 ) ) ;
#333 = PERSON_AND_ORGANIZATION ( #3, #381 ) ;
#334 = FACE_OUTER_BOUND ( 'NONE', #383, .T. ) ;
#335 = CARTESIAN_POINT ( 'NONE',  ( 63.50000000000001421, 147.4999999999999716, 20.00000000000000000 ) ) ;
#336 = DATE_AND_TIME ( #271, #60 ) ;
#337 = ADVANCED_FACE ( 'NONE', ( #377 ), #416, .F. ) ;
#338 = ADVANCED_FACE ( 'NONE', ( #318 ), #384, .T. ) ;
#339 = DATE_TIME_ROLE ( 'classification_date' ) ;
#340 = LINE ( 'NONE', #431, #257 ) ;
#341 = VECTOR ( 'NONE', #201, 1000.000000000000000 ) ;
#342 = CIRCLE ( 'NONE', #16, 63.50000000000001421 ) ;
#343 = DIRECTION ( 'NONE',  ( -1.000000000000000000, 0.000000000000000000, 0.000000000000000000 ) ) ;
#344 = CARTESIAN_POINT ( 'NONE',  ( -63.50000000000001421, 5.999999999999970690, 20.00000000000000000 ) ) ;
#345 = CARTESIAN_POINT ( 'NONE',  ( 63.50000000000001421, 147.4999999999999716, -20.00000000000000000 ) ) ;
#346 = CARTESIAN_POINT ( 'NONE',  ( 63.50000000000001421, 147.4999999999999716, -20.00000000000000000 ) ) ;
#347 = AXIS2_PLACEMENT_3D ( 'NONE', #219, #277, #48 ) ;
#348 = LINE ( 'NONE', #151, #102 ) ;
#349 = CARTESIAN_POINT ( 'NONE',  ( 57.50000000000000711, 5.999999999999970690, -20.00000000000000000 ) ) ;
#350 = ORIENTED_EDGE ( 'NONE', *, *, #207, .F. ) ;
#351 = DIRECTION ( 'NONE',  ( 1.000000000000000000, 0.000000000000000000, -0.000000000000000000 ) ) ;
#352 = CARTESIAN_POINT ( 'NONE',  ( 57.50000000000000711, 147.4999999999999716, 20.00000000000000000 ) ) ;
#353 = EDGE_CURVE ( 'NONE', #320, #228, #253, .T. ) ;
#354 = ORIENTED_EDGE ( 'NONE', *, *, #156, .T. ) ;
#355 = CALENDAR_DATE ( 2026, 9, 1 ) ;
#356 = VECTOR ( 'NONE', #366, 1000.000000000000000 ) ;
#357 = EDGE_LOOP ( 'NONE', ( #125, #328, #160, #382 ) ) ;
#358 =( LENGTH_UNIT ( ) NAMED_UNIT ( * ) SI_UNIT ( .MILLI., .METRE. ) );
#359 = ORIENTED_EDGE ( 'NONE', *, *, #313, .F. ) ;
#360 = ADVANCED_FACE ( 'NONE', ( #13 ), #244, .T. ) ;
#361 = DIRECTION ( 'NONE',  ( 1.000000000000000000, 1.156482317317870344E-15, 0.000000000000000000 ) ) ;
#362 = CIRCLE ( 'NONE', #70, 57.50000000000000711 ) ;
#363 = CARTESIAN_POINT ( 'NONE',  ( -57.50000000000000711, 147.4999999999999716, -20.00000000000000000 ) ) ;
#364 = PRODUCT_DEFINITION_SHAPE ( 'NONE', 'NONE',  #417 ) ;
#365 = PRODUCT_DEFINITION_FORMATION_WITH_SPECIFIED_SOURCE ( 'ANY', '', #426, .NOT_KNOWN. ) ;
#366 = DIRECTION ( 'NONE',  ( -1.000000000000000000, 0.000000000000000000, 0.000000000000000000 ) ) ;
#367 = DIRECTION ( 'NONE',  ( -1.000000000000000000, 0.000000000000000000, 0.000000000000000000 ) ) ;
#368 = DATE_AND_TIME ( #238, #312 ) ;
#369 = EDGE_CURVE ( 'NONE', #118, #319, #342, .T. ) ;
#370 = PERSON_AND_ORGANIZATION ( #3, #381 ) ;
#371 = EDGE_CURVE ( 'NONE', #39, #218, #111, .T. ) ;
#372 = PERSON_AND_ORGANIZATION_ROLE ( 'classification_officer' ) ;
#373 = DIRECTION ( 'NONE',  ( -1.000000000000000000, 0.000000000000000000, 0.000000000000000000 ) ) ;
#374 = AXIS2_PLACEMENT_3D ( 'NONE', #149, #412, #188 ) ;
#375 = VECTOR ( 'NONE', #38, 1000.000000000000000 ) ;
#376 = DIRECTION ( 'NONE',  ( -0.000000000000000000, 0.000000000000000000, -1.000000000000000000 ) ) ;
#377 = FACE_OUTER_BOUND ( 'NONE', #387, .T. ) ;
#378 = EDGE_LOOP ( 'NONE', ( #323, #84, #115, #113 ) ) ;
#379 = LINE ( 'NONE', #75, #286 ) ;
#380 = DIRECTION ( 'NONE',  ( -0.000000000000000000, -1.000000000000000000, 0.000000000000000000 ) ) ;
#381 = ORGANIZATION ( 'UNSPECIFIED', 'UNSPECIFIED', '' ) ;
#382 = ORIENTED_EDGE ( 'NONE', *, *, #181, .F. ) ;
#383 = EDGE_LOOP ( 'NONE', ( #191, #222, #254, #354 ) ) ;
#384 = PLANE ( 'NONE',  #51 ) ;
#385 = ORIENTED_EDGE ( 'NONE', *, *, #401, .F. ) ;
#386 = FACE_OUTER_BOUND ( 'NONE', #45, .T. ) ;
#387 = EDGE_LOOP ( 'NONE', ( #89, #251, #186, #145 ) ) ;
#388 = COORDINATED_UNIVERSAL_TIME_OFFSET ( 10, 0, .AHEAD. ) ;
#389 = VECTOR ( 'NONE', #83, 1000.000000000000000 ) ;
#390 = ORIENTED_EDGE ( 'NONE', *, *, #94, .T. ) ;
#391 = EDGE_CURVE ( 'NONE', #290, #255, #211, .T. ) ;
#392 = CARTESIAN_POINT ( 'NONE',  ( 63.50000000000001421, 5.999999999999977796, -20.00000000000000000 ) ) ;
#393 = LINE ( 'NONE', #169, #50 ) ;
#394 = APPLICATION_PROTOCOL_DEFINITION ( 'international standard', 'config_control_design', 1994, #203 ) ;
#395 = DIRECTION ( 'NONE',  ( -0.000000000000000000, -0.000000000000000000, -1.000000000000000000 ) ) ;
#396 = LINE ( 'NONE', #196, #41 ) ;
#397 = ORIENTED_EDGE ( 'NONE', *, *, #109, .T. ) ;
#398 = DATE_AND_TIME ( #268, #66 ) ;
#399 = AXIS2_PLACEMENT_3D ( 'NONE', #54, #329, #24 ) ;
#400 = VECTOR ( 'NONE', #108, 1000.000000000000000 ) ;
#401 = EDGE_CURVE ( 'NONE', #319, #20, #180, .T. ) ;
#402 = DIRECTION ( 'NONE',  ( -0.000000000000000000, -0.000000000000000000, -1.000000000000000000 ) ) ;
#403 = DIRECTION ( 'NONE',  ( -0.000000000000000000, -0.000000000000000000, -1.000000000000000000 ) ) ;
#404 = LINE ( 'NONE', #311, #423 ) ;
#405 = EDGE_CURVE ( 'NONE', #327, #320, #404, .T. ) ;
#406 = ORIENTED_EDGE ( 'NONE', *, *, #204, .T. ) ;
#407 = DIRECTION ( 'NONE',  ( -0.000000000000000000, -0.000000000000000000, -1.000000000000000000 ) ) ;
#408 = ADVANCED_FACE ( 'NONE', ( #200 ), #124, .T. ) ;
#409 = ORIENTED_EDGE ( 'NONE', *, *, #401, .T. ) ;
#410 = DIRECTION ( 'NONE',  ( -0.000000000000000000, -0.000000000000000000, -1.000000000000000000 ) ) ;
#411 = ADVANCED_BREP_SHAPE_REPRESENTATION ( '4229-50-25-30_REV_', ( #206, #217 ), #432 ) ;
#412 = DIRECTION ( 'NONE',  ( 1.000000000000000000, 0.000000000000000000, -0.000000000000000000 ) ) ;
#413 = EDGE_LOOP ( 'NONE', ( #99, #8, #17, #390 ) ) ;
#414 = CARTESIAN_POINT ( 'NONE',  ( 0.000000000000000000, 147.4999999999999716, -20.00000000000000000 ) ) ;
#415 = DIRECTION ( 'NONE',  ( 0.000000000000000000, 1.000000000000000000, 0.000000000000000000 ) ) ;
#416 = PLANE ( 'NONE',  #205 ) ;
#417 = PRODUCT_DEFINITION ( 'UNKNOWN', '', #365, #166 ) ;
#418 = DIRECTION ( 'NONE',  ( -0.000000000000000000, -0.000000000000000000, -1.000000000000000000 ) ) ;
#419 = ORIENTED_EDGE ( 'NONE', *, *, #162, .F. ) ;
#420 = VERTEX_POINT ( 'NONE', #298 ) ;
#421 = ORIENTED_EDGE ( 'NONE', *, *, #269, .T. ) ;
#422 =( NAMED_UNIT ( * ) SI_UNIT ( $, .STERADIAN. ) SOLID_ANGLE_UNIT ( ) );
#423 = VECTOR ( 'NONE', #122, 1000.000000000000000 ) ;
#424 = ORIENTED_EDGE ( 'NONE', *, *, #94, .F. ) ;
#425 = DIRECTION ( 'NONE',  ( -1.000000000000000000, 0.000000000000000000, 0.000000000000000000 ) ) ;
#426 = PRODUCT ( '4229-50-25-30_REV_', '4229-50-25-30_REV_', '', ( #90 ) ) ;
#427 = APPROVAL_ROLE ( '' ) ;
#428 = PLANE ( 'NONE',  #65 ) ;
#429 = EDGE_CURVE ( 'NONE', #290, #147, #301, .T. ) ;
#430 = AXIS2_PLACEMENT_3D ( 'NONE', #64, #425, #274 ) ;
#431 = CARTESIAN_POINT ( 'NONE',  ( -57.50000000000000711, 5.999999999999970690, 20.00000000000000000 ) ) ;
#432 =( GEOMETRIC_REPRESENTATION_CONTEXT ( 3 ) GLOBAL_UNCERTAINTY_ASSIGNED_CONTEXT ( ( #131 ) ) GLOBAL_UNIT_ASSIGNED_CONTEXT ( ( #358, #231, #422 ) ) REPRESENTATION_CONTEXT ( 'NONE', 'WORKASPACE' ) );
#433 = CC_DESIGN_PERSON_AND_ORGANIZATION_ASSIGNMENT ( #27, #167, ( #417 ) ) ;
ENDSEC;
END-ISO-10303-21;
