ISO-10303-21;
HEADER;
FILE_DESCRIPTION (( 'STEP AP203' ),
    '1' );
FILE_NAME ('4229-50-25-35_REV_.step',
    '2026-01-09T02:46:15',
    ( '' ),
    ( '' ),
    'SwSTEP 2.0',
    'SolidWorks 2025',
    '' );
FILE_SCHEMA (( 'CONFIG_CONTROL_DESIGN' ));
ENDSEC;

DATA;
#1 = ORIENTED_EDGE ( 'NONE', *, *, #218, .T. ) ;
#2 = ADVANCED_FACE ( 'NONE', ( #187 ), #146, .T. ) ;
#3 = ORGANIZATION ( 'UNSPECIFIED', 'UNSPECIFIED', '' ) ;
#4 = DIRECTION ( 'NONE',  ( -0.000000000000000000, -0.000000000000000000, -1.000000000000000000 ) ) ;
#5 = ORIENTED_EDGE ( 'NONE', *, *, #19, .F. ) ;
#6 = CLOSED_SHELL ( 'NONE', ( #96, #287, #268, #261, #360, #2, #382, #151, #405, #281, #161, #110, #192, #299 ) ) ;
#7 = ORIENTED_EDGE ( 'NONE', *, *, #425, .F. ) ;
#8 = CALENDAR_DATE ( 2026, 9, 1 ) ;
#9 = EDGE_CURVE ( 'NONE', #372, #207, #249, .T. ) ;
#10 = DIRECTION ( 'NONE',  ( -0.000000000000000000, -0.000000000000000000, -1.000000000000000000 ) ) ;
#11 = PERSON_AND_ORGANIZATION_ROLE ( 'creator' ) ;
#12 = AXIS2_PLACEMENT_3D ( 'NONE', #406, #240, #42 ) ;
#13 = ORIENTED_EDGE ( 'NONE', *, *, #30, .T. ) ;
#14 = VECTOR ( 'NONE', #153, 1000.000000000000000 ) ;
#15 = DIRECTION ( 'NONE',  ( 1.000000000000000000, 0.000000000000000000, 0.000000000000000000 ) ) ;
#16 = DIRECTION ( 'NONE',  ( 1.000000000000000000, 0.000000000000000000, 0.000000000000000000 ) ) ;
#17 = CARTESIAN_POINT ( 'NONE',  ( 50.49999999999999289, 130.5000000000000000, 20.00000000000000000 ) ) ;
#18 = ORIENTED_EDGE ( 'NONE', *, *, #228, .F. ) ;
#19 = EDGE_CURVE ( 'NONE', #176, #372, #119, .T. ) ;
#20 = CARTESIAN_POINT ( 'NONE',  ( 50.49999999999999289, 5.999999999999991118, -20.00000000000000000 ) ) ;
#21 = VECTOR ( 'NONE', #189, 1000.000000000000000 ) ;
#22 = DIRECTION ( 'NONE',  ( -0.000000000000000000, -0.000000000000000000, -1.000000000000000000 ) ) ;
#23 = PERSON_AND_ORGANIZATION_ROLE ( 'classification_officer' ) ;
#24 = CARTESIAN_POINT ( 'NONE',  ( 50.49999999999999289, 130.5000000000000000, -20.00000000000000000 ) ) ;
#25 = LINE ( 'NONE', #259, #21 ) ;
#26 = VECTOR ( 'NONE', #330, 1000.000000000000000 ) ;
#27 = VECTOR ( 'NONE', #188, 1000.000000000000000 ) ;
#28 = PRODUCT_DEFINITION_SHAPE ( 'NONE', 'NONE',  #185 ) ;
#29 = DIRECTION ( 'NONE',  ( -1.000000000000000000, 0.000000000000000000, 0.000000000000000000 ) ) ;
#30 = EDGE_CURVE ( 'NONE', #70, #431, #251, .T. ) ;
#31 = DIRECTION ( 'NONE',  ( -1.000000000000000000, 0.000000000000000000, 0.000000000000000000 ) ) ;
#32 = ORIENTED_EDGE ( 'NONE', *, *, #307, .F. ) ;
#33 = DIRECTION ( 'NONE',  ( -1.000000000000000000, -1.011922027653137735E-15, 0.000000000000000000 ) ) ;
#34 = ORIENTED_EDGE ( 'NONE', *, *, #178, .F. ) ;
#35 = DIRECTION ( 'NONE',  ( 1.000000000000000000, 0.000000000000000000, -0.000000000000000000 ) ) ;
#36 = ORIENTED_EDGE ( 'NONE', *, *, #374, .T. ) ;
#37 = DIRECTION ( 'NONE',  ( 0.000000000000000000, 1.000000000000000000, 0.000000000000000000 ) ) ;
#38 = CC_DESIGN_PERSON_AND_ORGANIZATION_ASSIGNMENT ( #427, #23, ( #418 ) ) ;
#39 = ORIENTED_EDGE ( 'NONE', *, *, #124, .F. ) ;
#40 = ORIENTED_EDGE ( 'NONE', *, *, #346, .T. ) ;
#41 = LOCAL_TIME ( 13, 46, 15.00000000000000000, #318 ) ;
#42 = DIRECTION ( 'NONE',  ( 0.000000000000000000, -0.000000000000000000, -1.000000000000000000 ) ) ;
#43 = ORIENTED_EDGE ( 'NONE', *, *, #256, .T. ) ;
#44 = VECTOR ( 'NONE', #424, 1000.000000000000000 ) ;
#45 = EDGE_CURVE ( 'NONE', #350, #70, #208, .T. ) ;
#46 = APPROVAL_STATUS ( 'not_yet_approved' ) ;
#47 = EDGE_LOOP ( 'NONE', ( #308, #5, #212, #87 ) ) ;
#48 = FACE_OUTER_BOUND ( 'NONE', #123, .T. ) ;
#49 = DIRECTION ( 'NONE',  ( 1.000000000000000000, 0.000000000000000000, -0.000000000000000000 ) ) ;
#50 = PERSON_AND_ORGANIZATION ( #77, #3 ) ;
#51 = LINE ( 'NONE', #384, #355 ) ;
#52 = PLANE ( 'NONE',  #86 ) ;
#53 = ORIENTED_EDGE ( 'NONE', *, *, #147, .F. ) ;
#54 = DIRECTION ( 'NONE',  ( -0.000000000000000000, -0.000000000000000000, -1.000000000000000000 ) ) ;
#55 = SHAPE_DEFINITION_REPRESENTATION ( #28, #120 ) ;
#56 = PLANE ( 'NONE',  #388 ) ;
#57 = VECTOR ( 'NONE', #107, 1000.000000000000000 ) ;
#58 = AXIS2_PLACEMENT_3D ( 'NONE', #247, #381, #49 ) ;
#59 = DIRECTION ( 'NONE',  ( 1.000000000000000000, 0.000000000000000000, -0.000000000000000000 ) ) ;
#60 = PERSON_AND_ORGANIZATION ( #77, #3 ) ;
#61 = FACE_OUTER_BOUND ( 'NONE', #229, .T. ) ;
#62 = PLANE ( 'NONE',  #80 ) ;
#63 = CARTESIAN_POINT ( 'NONE',  ( 0.000000000000000000, 130.5000000000000000, 20.00000000000000000 ) ) ;
#64 = CARTESIAN_POINT ( 'NONE',  ( -50.49999999999999289, 5.999999999999985789, 20.00000000000000000 ) ) ;
#65 = DIRECTION ( 'NONE',  ( -0.000000000000000000, -0.000000000000000000, -1.000000000000000000 ) ) ;
#66 = VERTEX_POINT ( 'NONE', #177 ) ;
#67 = VECTOR ( 'NONE', #143, 1000.000000000000000 ) ;
#68 = EDGE_CURVE ( 'NONE', #176, #296, #284, .T. ) ;
#69 = CARTESIAN_POINT ( 'NONE',  ( -44.50000000000000000, 5.999999999999985789, 20.00000000000000000 ) ) ;
#70 = VERTEX_POINT ( 'NONE', #279 ) ;
#71 = UNCERTAINTY_MEASURE_WITH_UNIT (LENGTH_MEASURE( 1.000000000000000082E-05 ), #413, 'distance_accuracy_value', 'NONE');
#72 = APPROVAL ( #156, 'UNSPECIFIED' ) ;
#73 = CARTESIAN_POINT ( 'NONE',  ( 50.49999999999999289, 130.5000000000000000, 20.00000000000000000 ) ) ;
#74 = CARTESIAN_POINT ( 'NONE',  ( 50.49999999999999289, 130.5000000000000000, 20.00000000000000000 ) ) ;
#75 = ORIENTED_EDGE ( 'NONE', *, *, #68, .F. ) ;
#76 = EDGE_CURVE ( 'NONE', #372, #344, #419, .T. ) ;
#77 = PERSON ( 'UNSPECIFIED', 'UNSPECIFIED', 'UNSPECIFIED', ('UNSPECIFIED'), ('UNSPECIFIED'), ('UNSPECIFIED') ) ;
#78 = APPROVAL_PERSON_ORGANIZATION ( #60, #72, #422 ) ;
#79 = CARTESIAN_POINT ( 'NONE',  ( -50.49999999999999289, 130.5000000000000000, -20.00000000000000000 ) ) ;
#80 = AXIS2_PLACEMENT_3D ( 'NONE', #227, #127, #59 ) ;
#81 = LINE ( 'NONE', #389, #252 ) ;
#82 = ORIENTED_EDGE ( 'NONE', *, *, #425, .T. ) ;
#83 = ORIENTED_EDGE ( 'NONE', *, *, #218, .F. ) ;
#84 = APPROVAL_ROLE ( '' ) ;
#85 = EDGE_CURVE ( 'NONE', #315, #133, #319, .T. ) ;
#86 = AXIS2_PLACEMENT_3D ( 'NONE', #253, #246, #211 ) ;
#87 = ORIENTED_EDGE ( 'NONE', *, *, #178, .T. ) ;
#88 = CC_DESIGN_SECURITY_CLASSIFICATION ( #418, ( #180 ) ) ;
#89 = DIRECTION ( 'NONE',  ( -1.000000000000000000, 0.000000000000000000, 0.000000000000000000 ) ) ;
#90 = CARTESIAN_POINT ( 'NONE',  ( -50.49999999999999289, 5.999999999999985789, -20.00000000000000000 ) ) ;
#91 = CC_DESIGN_PERSON_AND_ORGANIZATION_ASSIGNMENT ( #357, #324, ( #180 ) ) ;
#92 = LINE ( 'NONE', #125, #44 ) ;
#93 = VECTOR ( 'NONE', #16, 1000.000000000000000 ) ;
#94 = CARTESIAN_POINT ( 'NONE',  ( 44.50000000000000000, 5.999999999999985789, -20.00000000000000000 ) ) ;
#95 = LINE ( 'NONE', #290, #27 ) ;
#96 = ADVANCED_FACE ( 'NONE', ( #144 ), #114, .T. ) ;
#97 = FACE_OUTER_BOUND ( 'NONE', #345, .T. ) ;
#98 = AXIS2_PLACEMENT_3D ( 'NONE', #175, #309, #113 ) ;
#99 = DESIGN_CONTEXT ( 'detailed design', #190, 'design' ) ;
#100 = VECTOR ( 'NONE', #22, 1000.000000000000000 ) ;
#101 = LINE ( 'NONE', #295, #348 ) ;
#102 = CARTESIAN_POINT ( 'NONE',  ( 50.49999999999999289, 130.5000000000000000, 20.00000000000000000 ) ) ;
#103 = EDGE_CURVE ( 'NONE', #350, #66, #51, .T. ) ;
#104 = CARTESIAN_POINT ( 'NONE',  ( 44.50000000000000000, 130.5000000000000000, 20.00000000000000000 ) ) ;
#105 = EDGE_LOOP ( 'NONE', ( #390, #168, #7, #13 ) ) ;
#106 = AXIS2_PLACEMENT_3D ( 'NONE', #73, #136, #132 ) ;
#107 = DIRECTION ( 'NONE',  ( -1.000000000000000000, 0.000000000000000000, 0.000000000000000000 ) ) ;
#108 = ORIENTED_EDGE ( 'NONE', *, *, #85, .F. ) ;
#109 = LINE ( 'NONE', #64, #395 ) ;
#110 = ADVANCED_FACE ( 'NONE', ( #182 ), #194, .F. ) ;
#111 = VERTEX_POINT ( 'NONE', #288 ) ;
#112 = ORIENTED_EDGE ( 'NONE', *, *, #236, .T. ) ;
#113 = DIRECTION ( 'NONE',  ( 1.000000000000000000, 0.000000000000000000, 0.000000000000000000 ) ) ;
#114 = PLANE ( 'NONE',  #58 ) ;
#115 = APPLICATION_PROTOCOL_DEFINITION ( 'international standard', 'config_control_design', 1994, #190 ) ;
#116 = DIRECTION ( 'NONE',  ( 1.000000000000000000, 0.000000000000000000, 0.000000000000000000 ) ) ;
#117 = EDGE_CURVE ( 'NONE', #66, #176, #95, .T. ) ;
#118 = DATE_AND_TIME ( #8, #368 ) ;
#119 = LINE ( 'NONE', #317, #379 ) ;
#120 = ADVANCED_BREP_SHAPE_REPRESENTATION ( '4229-50-25-35_REV_', ( #205, #98 ), #220 ) ;
#121 = CARTESIAN_POINT ( 'NONE',  ( 44.50000000000000000, 5.999999999999985789, 20.00000000000000000 ) ) ;
#122 = LOCAL_TIME ( 13, 46, 15.00000000000000000, #213 ) ;
#123 = EDGE_LOOP ( 'NONE', ( #204, #34, #233, #340 ) ) ;
#124 = EDGE_CURVE ( 'NONE', #243, #315, #92, .T. ) ;
#125 = CARTESIAN_POINT ( 'NONE',  ( 50.49999999999999289, 5.999999999999991118, 20.00000000000000000 ) ) ;
#126 = DATE_AND_TIME ( #420, #377 ) ;
#127 = DIRECTION ( 'NONE',  ( 0.000000000000000000, 0.000000000000000000, 1.000000000000000000 ) ) ;
#128 = PERSON_AND_ORGANIZATION ( #77, #3 ) ;
#129 = DIRECTION ( 'NONE',  ( 0.000000000000000000, 0.000000000000000000, 1.000000000000000000 ) ) ;
#130 = APPROVAL ( #351, 'UNSPECIFIED' ) ;
#131 = FACE_OUTER_BOUND ( 'NONE', #201, .T. ) ;
#132 = DIRECTION ( 'NONE',  ( 1.000000000000000000, 0.000000000000000000, -0.000000000000000000 ) ) ;
#133 = VERTEX_POINT ( 'NONE', #94 ) ;
#134 = FACE_OUTER_BOUND ( 'NONE', #269, .T. ) ;
#135 = ORIENTED_EDGE ( 'NONE', *, *, #19, .T. ) ;
#136 = DIRECTION ( 'NONE',  ( 0.000000000000000000, 0.000000000000000000, 1.000000000000000000 ) ) ;
#137 = VECTOR ( 'NONE', #242, 1000.000000000000000 ) ;
#138 = AXIS2_PLACEMENT_3D ( 'NONE', #221, #328, #159 ) ;
#139 = FACE_OUTER_BOUND ( 'NONE', #367, .T. ) ;
#140 = ORIENTED_EDGE ( 'NONE', *, *, #398, .T. ) ;
#141 = APPROVAL_ROLE ( '' ) ;
#142 = EDGE_LOOP ( 'NONE', ( #108, #39, #210, #112 ) ) ;
#143 = DIRECTION ( 'NONE',  ( 0.000000000000000000, 1.000000000000000000, 0.000000000000000000 ) ) ;
#144 = FACE_OUTER_BOUND ( 'NONE', #386, .T. ) ;
#145 = PERSON_AND_ORGANIZATION ( #77, #3 ) ;
#146 = PLANE ( 'NONE',  #174 ) ;
#147 = EDGE_CURVE ( 'NONE', #265, #207, #428, .T. ) ;
#148 = DIRECTION ( 'NONE',  ( 1.000000000000000000, 1.011922027653137735E-15, 0.000000000000000000 ) ) ;
#149 = FACE_OUTER_BOUND ( 'NONE', #332, .T. ) ;
#150 = CARTESIAN_POINT ( 'NONE',  ( -44.50000000000000000, 5.999999999999985789, 20.00000000000000000 ) ) ;
#151 = ADVANCED_FACE ( 'NONE', ( #157 ), #423, .T. ) ;
#152 = CC_DESIGN_APPROVAL ( #72, ( #418 ) ) ;
#153 = DIRECTION ( 'NONE',  ( -1.000000000000000000, -1.011922027653137735E-15, 0.000000000000000000 ) ) ;
#154 = CALENDAR_DATE ( 2026, 9, 1 ) ;
#155 = CARTESIAN_POINT ( 'NONE',  ( -44.50000000000000000, 5.999999999999985789, 20.00000000000000000 ) ) ;
#156 = APPROVAL_STATUS ( 'not_yet_approved' ) ;
#157 = FACE_OUTER_BOUND ( 'NONE', #47, .T. ) ;
#158 = DATE_AND_TIME ( #154, #122 ) ;
#159 = DIRECTION ( 'NONE',  ( -1.000000000000000000, 0.000000000000000000, 0.000000000000000000 ) ) ;
#160 = VECTOR ( 'NONE', #225, 1000.000000000000000 ) ;
#161 = ADVANCED_FACE ( 'NONE', ( #131 ), #56, .F. ) ;
#162 = CARTESIAN_POINT ( 'NONE',  ( -50.49999999999999289, 130.5000000000000000, -20.00000000000000000 ) ) ;
#163 = LINE ( 'NONE', #90, #173 ) ;
#164 = APPROVAL ( #46, 'UNSPECIFIED' ) ;
#165 = ORIENTED_EDGE ( 'NONE', *, *, #103, .F. ) ;
#166 = APPROVAL_PERSON_ORGANIZATION ( #50, #130, #141 ) ;
#167 = DIRECTION ( 'NONE',  ( 0.000000000000000000, -1.000000000000000000, 0.000000000000000000 ) ) ;
#168 = ORIENTED_EDGE ( 'NONE', *, *, #9, .T. ) ;
#169 = ORIENTED_EDGE ( 'NONE', *, *, #412, .F. ) ;
#170 = APPLICATION_CONTEXT ( 'configuration controlled 3d designs of mechanical parts and assemblies' ) ;
#171 = DIRECTION ( 'NONE',  ( -0.000000000000000000, -0.000000000000000000, -1.000000000000000000 ) ) ;
#172 = ORIENTED_EDGE ( 'NONE', *, *, #333, .F. ) ;
#173 = VECTOR ( 'NONE', #421, 1000.000000000000000 ) ;
#174 = AXIS2_PLACEMENT_3D ( 'NONE', #411, #184, #148 ) ;
#175 = CARTESIAN_POINT ( 'NONE',  ( 0.000000000000000000, 0.000000000000000000, 0.000000000000000000 ) ) ;
#176 = VERTEX_POINT ( 'NONE', #394 ) ;
#177 = CARTESIAN_POINT ( 'NONE',  ( -50.49999999999999289, 5.999999999999985789, 20.00000000000000000 ) ) ;
#178 = EDGE_CURVE ( 'NONE', #296, #344, #219, .T. ) ;
#179 = CARTESIAN_POINT ( 'NONE',  ( 0.000000000000000000, 130.5000000000000000, -20.00000000000000000 ) ) ;
#180 = PRODUCT_DEFINITION_FORMATION_WITH_SPECIFIED_SOURCE ( 'ANY', '', #399, .NOT_KNOWN. ) ;
#181 = DATE_AND_TIME ( #311, #362 ) ;
#182 = FACE_OUTER_BOUND ( 'NONE', #276, .T. ) ;
#183 = LINE ( 'NONE', #383, #67 ) ;
#184 = DIRECTION ( 'NONE',  ( 1.011922027653137735E-15, -1.000000000000000000, 0.000000000000000000 ) ) ;
#185 = PRODUCT_DEFINITION ( 'UNKNOWN', '', #180, #99 ) ;
#186 = COORDINATED_UNIVERSAL_TIME_OFFSET ( 10, 0, .AHEAD. ) ;
#187 = FACE_OUTER_BOUND ( 'NONE', #142, .T. ) ;
#188 = DIRECTION ( 'NONE',  ( -0.000000000000000000, 1.000000000000000000, 0.000000000000000000 ) ) ;
#189 = DIRECTION ( 'NONE',  ( -0.000000000000000000, -0.000000000000000000, -1.000000000000000000 ) ) ;
#190 = APPLICATION_CONTEXT ( 'configuration controlled 3d designs of mechanical parts and assemblies' ) ;
#191 = APPROVAL_DATE_TIME ( #126, #72 ) ;
#192 = ADVANCED_FACE ( 'NONE', ( #97 ), #62, .T. ) ;
#193 = CARTESIAN_POINT ( 'NONE',  ( 44.50000000000000000, 130.5000000000000000, 20.00000000000000000 ) ) ;
#194 = CYLINDRICAL_SURFACE ( 'NONE', #397, 44.50000000000000000 ) ;
#195 = LINE ( 'NONE', #193, #26 ) ;
#196 = ORIENTED_EDGE ( 'NONE', *, *, #76, .T. ) ;
#197 = LINE ( 'NONE', #334, #429 ) ;
#198 = ORIENTED_EDGE ( 'NONE', *, *, #374, .F. ) ;
#199 = AXIS2_PLACEMENT_3D ( 'NONE', #310, #215, #283 ) ;
#200 = CARTESIAN_POINT ( 'NONE',  ( -50.49999999999999289, 130.5000000000000000, -20.00000000000000000 ) ) ;
#201 = EDGE_LOOP ( 'NONE', ( #82, #53, #198, #409 ) ) ;
#202 = PLANE ( 'NONE',  #245 ) ;
#203 = CC_DESIGN_PERSON_AND_ORGANIZATION_ASSIGNMENT ( #216, #410, ( #399 ) ) ;
#204 = ORIENTED_EDGE ( 'NONE', *, *, #256, .F. ) ;
#205 = MANIFOLD_SOLID_BREP ( 'Base-Flange1', #6 ) ;
#206 = FACE_OUTER_BOUND ( 'NONE', #105, .T. ) ;
#207 = VERTEX_POINT ( 'NONE', #363 ) ;
#208 = LINE ( 'NONE', #150, #336 ) ;
#209 = CC_DESIGN_PERSON_AND_ORGANIZATION_ASSIGNMENT ( #128, #322, ( #180 ) ) ;
#210 = ORIENTED_EDGE ( 'NONE', *, *, #307, .T. ) ;
#211 = DIRECTION ( 'NONE',  ( -0.000000000000000000, 0.000000000000000000, -1.000000000000000000 ) ) ;
#212 = ORIENTED_EDGE ( 'NONE', *, *, #68, .T. ) ;
#213 = COORDINATED_UNIVERSAL_TIME_OFFSET ( 10, 0, .AHEAD. ) ;
#214 = VECTOR ( 'NONE', #89, 1000.000000000000000 ) ;
#215 = DIRECTION ( 'NONE',  ( -0.000000000000000000, -0.000000000000000000, -1.000000000000000000 ) ) ;
#216 = PERSON_AND_ORGANIZATION ( #77, #3 ) ;
#217 = ORIENTED_EDGE ( 'NONE', *, *, #275, .T. ) ;
#218 = EDGE_CURVE ( 'NONE', #302, #111, #291, .T. ) ;
#219 = LINE ( 'NONE', #356, #100 ) ;
#220 =( GEOMETRIC_REPRESENTATION_CONTEXT ( 3 ) GLOBAL_UNCERTAINTY_ASSIGNED_CONTEXT ( ( #71 ) ) GLOBAL_UNIT_ASSIGNED_CONTEXT ( ( #413, #408, #250 ) ) REPRESENTATION_CONTEXT ( 'NONE', 'WORKASPACE' ) );
#221 = CARTESIAN_POINT ( 'NONE',  ( 0.000000000000000000, 130.5000000000000000, 20.00000000000000000 ) ) ;
#222 = EDGE_CURVE ( 'NONE', #302, #407, #195, .T. ) ;
#223 = DIRECTION ( 'NONE',  ( -1.000000000000000000, 0.000000000000000000, 0.000000000000000000 ) ) ;
#224 = CALENDAR_DATE ( 2026, 9, 1 ) ;
#225 = DIRECTION ( 'NONE',  ( -0.000000000000000000, -1.000000000000000000, 0.000000000000000000 ) ) ;
#226 = CIRCLE ( 'NONE', #313, 44.50000000000000000 ) ;
#227 = CARTESIAN_POINT ( 'NONE',  ( 0.000000000000000000, 130.5000000000000000, 20.00000000000000000 ) ) ;
#228 = EDGE_CURVE ( 'NONE', #431, #372, #163, .T. ) ;
#229 = EDGE_LOOP ( 'NONE', ( #169, #401, #312, #196 ) ) ;
#230 = AXIS2_PLACEMENT_3D ( 'NONE', #179, #10, #116 ) ;
#231 = ORIENTED_EDGE ( 'NONE', *, *, #346, .F. ) ;
#232 = DIRECTION ( 'NONE',  ( -0.000000000000000000, -1.000000000000000000, 0.000000000000000000 ) ) ;
#233 = ORIENTED_EDGE ( 'NONE', *, *, #329, .T. ) ;
#234 = DIRECTION ( 'NONE',  ( -1.000000000000000000, 0.000000000000000000, 0.000000000000000000 ) ) ;
#235 = ORIENTED_EDGE ( 'NONE', *, *, #45, .F. ) ;
#236 = EDGE_CURVE ( 'NONE', #407, #133, #25, .T. ) ;
#237 = LINE ( 'NONE', #337, #294 ) ;
#238 = ORIENTED_EDGE ( 'NONE', *, *, #329, .F. ) ;
#239 = CC_DESIGN_DATE_AND_TIME_ASSIGNMENT ( #257, #286, ( #418 ) ) ;
#240 = DIRECTION ( 'NONE',  ( 0.000000000000000000, -1.000000000000000000, 0.000000000000000000 ) ) ;
#241 = EDGE_LOOP ( 'NONE', ( #370, #300, #43, #403 ) ) ;
#242 = DIRECTION ( 'NONE',  ( -1.000000000000000000, 0.000000000000000000, 0.000000000000000000 ) ) ;
#243 = VERTEX_POINT ( 'NONE', #325 ) ;
#244 = CC_DESIGN_DATE_AND_TIME_ASSIGNMENT ( #118, #385, ( #185 ) ) ;
#245 = AXIS2_PLACEMENT_3D ( 'NONE', #293, #264, #35 ) ;
#246 = DIRECTION ( 'NONE',  ( 1.000000000000000000, 0.000000000000000000, -0.000000000000000000 ) ) ;
#247 = CARTESIAN_POINT ( 'NONE',  ( -44.50000000000000000, 130.5000000000000000, 20.00000000000000000 ) ) ;
#248 = COORDINATED_UNIVERSAL_TIME_OFFSET ( 10, 0, .AHEAD. ) ;
#249 = LINE ( 'NONE', #79, #93 ) ;
#250 =( NAMED_UNIT ( * ) SI_UNIT ( $, .STERADIAN. ) SOLID_ANGLE_UNIT ( ) );
#251 = LINE ( 'NONE', #352, #214 ) ;
#252 = VECTOR ( 'NONE', #15, 1000.000000000000000 ) ;
#253 = CARTESIAN_POINT ( 'NONE',  ( 50.49999999999999289, 130.5000000000000000, 20.00000000000000000 ) ) ;
#254 = DIRECTION ( 'NONE',  ( -0.000000000000000000, -0.000000000000000000, -1.000000000000000000 ) ) ;
#255 = DIRECTION ( 'NONE',  ( -0.000000000000000000, -0.000000000000000000, -1.000000000000000000 ) ) ;
#256 = EDGE_CURVE ( 'NONE', #344, #315, #260, .T. ) ;
#257 = DATE_AND_TIME ( #224, #41 ) ;
#258 = AXIS2_PLACEMENT_3D ( 'NONE', #104, #371, #369 ) ;
#259 = CARTESIAN_POINT ( 'NONE',  ( 44.50000000000000000, 5.999999999999985789, 20.00000000000000000 ) ) ;
#260 = LINE ( 'NONE', #24, #160 ) ;
#261 = ADVANCED_FACE ( 'NONE', ( #353 ), #361, .T. ) ;
#262 = CARTESIAN_POINT ( 'NONE',  ( -44.50000000000000000, 130.5000000000000000, 20.00000000000000000 ) ) ;
#263 = PLANE ( 'NONE',  #106 ) ;
#264 = DIRECTION ( 'NONE',  ( 0.000000000000000000, 0.000000000000000000, 1.000000000000000000 ) ) ;
#265 = VERTEX_POINT ( 'NONE', #358 ) ;
#266 = PLANE ( 'NONE',  #258 ) ;
#267 = ORIENTED_EDGE ( 'NONE', *, *, #341, .T. ) ;
#268 = ADVANCED_FACE ( 'NONE', ( #61 ), #327, .T. ) ;
#269 = EDGE_LOOP ( 'NONE', ( #267, #305, #273, #1 ) ) ;
#270 = VECTOR ( 'NONE', #232, 1000.000000000000000 ) ;
#271 = VECTOR ( 'NONE', #255, 1000.000000000000000 ) ;
#272 = PLANE ( 'NONE',  #12 ) ;
#273 = ORIENTED_EDGE ( 'NONE', *, *, #222, .F. ) ;
#274 = COORDINATED_UNIVERSAL_TIME_OFFSET ( 10, 0, .AHEAD. ) ;
#275 = EDGE_CURVE ( 'NONE', #66, #431, #109, .T. ) ;
#276 = EDGE_LOOP ( 'NONE', ( #417, #83, #172, #343 ) ) ;
#277 = PRODUCT_RELATED_PRODUCT_CATEGORY ( 'detail', '', ( #399 ) ) ;
#278 = MECHANICAL_CONTEXT ( 'NONE', #170, 'mechanical' ) ;
#279 = CARTESIAN_POINT ( 'NONE',  ( -44.50000000000000000, 5.999999999999985789, -20.00000000000000000 ) ) ;
#280 = APPROVAL_DATE_TIME ( #181, #130 ) ;
#281 = ADVANCED_FACE ( 'NONE', ( #139 ), #272, .T. ) ;
#282 = PLANE ( 'NONE',  #342 ) ;
#283 = DIRECTION ( 'NONE',  ( 1.000000000000000000, 0.000000000000000000, 0.000000000000000000 ) ) ;
#284 = CIRCLE ( 'NONE', #199, 50.49999999999999289 ) ;
#285 = ORIENTED_EDGE ( 'NONE', *, *, #30, .F. ) ;
#286 = DATE_TIME_ROLE ( 'classification_date' ) ;
#287 = ADVANCED_FACE ( 'NONE', ( #331 ), #263, .T. ) ;
#288 = CARTESIAN_POINT ( 'NONE',  ( 44.50000000000000000, 130.5000000000000000, -20.00000000000000000 ) ) ;
#289 = AXIS2_PLACEMENT_3D ( 'NONE', #301, #303, #364 ) ;
#290 = CARTESIAN_POINT ( 'NONE',  ( -50.49999999999999289, 5.999999999999985789, 20.00000000000000000 ) ) ;
#291 = LINE ( 'NONE', #392, #297 ) ;
#292 = EDGE_CURVE ( 'NONE', #207, #111, #226, .T. ) ;
#293 = CARTESIAN_POINT ( 'NONE',  ( 0.000000000000000000, 130.5000000000000000, -20.00000000000000000 ) ) ;
#294 = VECTOR ( 'NONE', #37, 1000.000000000000000 ) ;
#295 = CARTESIAN_POINT ( 'NONE',  ( 50.49999999999999289, 5.999999999999991118, 20.00000000000000000 ) ) ;
#296 = VERTEX_POINT ( 'NONE', #74 ) ;
#297 = VECTOR ( 'NONE', #391, 1000.000000000000000 ) ;
#298 = LINE ( 'NONE', #432, #57 ) ;
#299 = ADVANCED_FACE ( 'NONE', ( #206 ), #202, .F. ) ;
#300 = ORIENTED_EDGE ( 'NONE', *, *, #412, .T. ) ;
#301 = CARTESIAN_POINT ( 'NONE',  ( 44.50000000000000000, 130.5000000000000000, -20.00000000000000000 ) ) ;
#302 = VERTEX_POINT ( 'NONE', #339 ) ;
#303 = DIRECTION ( 'NONE',  ( -0.000000000000000000, 0.000000000000000000, -1.000000000000000000 ) ) ;
#304 = CIRCLE ( 'NONE', #387, 44.50000000000000000 ) ;
#305 = ORIENTED_EDGE ( 'NONE', *, *, #236, .F. ) ;
#306 = CC_DESIGN_APPROVAL ( #130, ( #185 ) ) ;
#307 = EDGE_CURVE ( 'NONE', #243, #407, #101, .T. ) ;
#308 = ORIENTED_EDGE ( 'NONE', *, *, #76, .F. ) ;
#309 = DIRECTION ( 'NONE',  ( 0.000000000000000000, 0.000000000000000000, 1.000000000000000000 ) ) ;
#310 = CARTESIAN_POINT ( 'NONE',  ( 0.000000000000000000, 130.5000000000000000, 20.00000000000000000 ) ) ;
#311 = CALENDAR_DATE ( 2026, 9, 1 ) ;
#312 = ORIENTED_EDGE ( 'NONE', *, *, #9, .F. ) ;
#313 = AXIS2_PLACEMENT_3D ( 'NONE', #396, #171, #373 ) ;
#314 = APPLICATION_PROTOCOL_DEFINITION ( 'international standard', 'config_control_design', 1994, #170 ) ;
#315 = VERTEX_POINT ( 'NONE', #430 ) ;
#316 = DIRECTION ( 'NONE',  ( 0.000000000000000000, 0.000000000000000000, 1.000000000000000000 ) ) ;
#317 = CARTESIAN_POINT ( 'NONE',  ( -50.49999999999999289, 130.5000000000000000, 20.00000000000000000 ) ) ;
#318 = COORDINATED_UNIVERSAL_TIME_OFFSET ( 10, 0, .AHEAD. ) ;
#319 = LINE ( 'NONE', #20, #14 ) ;
#320 = CC_DESIGN_APPROVAL ( #164, ( #180 ) ) ;
#321 = CC_DESIGN_PERSON_AND_ORGANIZATION_ASSIGNMENT ( #415, #11, ( #185 ) ) ;
#322 = PERSON_AND_ORGANIZATION_ROLE ( 'creator' ) ;
#323 = DIRECTION ( 'NONE',  ( -0.000000000000000000, 0.000000000000000000, -1.000000000000000000 ) ) ;
#324 = PERSON_AND_ORGANIZATION_ROLE ( 'design_supplier' ) ;
#325 = CARTESIAN_POINT ( 'NONE',  ( 50.49999999999999289, 5.999999999999991118, 20.00000000000000000 ) ) ;
#326 = SECURITY_CLASSIFICATION_LEVEL ( 'unclassified' ) ;
#327 = PLANE ( 'NONE',  #289 ) ;
#328 = DIRECTION ( 'NONE',  ( -0.000000000000000000, -0.000000000000000000, -1.000000000000000000 ) ) ;
#329 = EDGE_CURVE ( 'NONE', #296, #243, #400, .T. ) ;
#330 = DIRECTION ( 'NONE',  ( 0.000000000000000000, -1.000000000000000000, 0.000000000000000000 ) ) ;
#331 = FACE_OUTER_BOUND ( 'NONE', #365, .T. ) ;
#332 = EDGE_LOOP ( 'NONE', ( #18, #335, #404, #135 ) ) ;
#333 = EDGE_CURVE ( 'NONE', #265, #302, #304, .T. ) ;
#334 = CARTESIAN_POINT ( 'NONE',  ( 44.50000000000000000, 130.5000000000000000, -20.00000000000000000 ) ) ;
#335 = ORIENTED_EDGE ( 'NONE', *, *, #275, .F. ) ;
#336 = VECTOR ( 'NONE', #54, 1000.000000000000000 ) ;
#337 = CARTESIAN_POINT ( 'NONE',  ( -44.50000000000000000, 5.999999999999985789, 20.00000000000000000 ) ) ;
#338 = ORIENTED_EDGE ( 'NONE', *, *, #103, .T. ) ;
#339 = CARTESIAN_POINT ( 'NONE',  ( 44.50000000000000000, 130.5000000000000000, 20.00000000000000000 ) ) ;
#340 = ORIENTED_EDGE ( 'NONE', *, *, #124, .T. ) ;
#341 = EDGE_CURVE ( 'NONE', #111, #133, #197, .T. ) ;
#342 = AXIS2_PLACEMENT_3D ( 'NONE', #416, #376, #316 ) ;
#343 = ORIENTED_EDGE ( 'NONE', *, *, #147, .T. ) ;
#344 = VERTEX_POINT ( 'NONE', #402 ) ;
#345 = EDGE_LOOP ( 'NONE', ( #375, #32, #238, #140 ) ) ;
#346 = EDGE_CURVE ( 'NONE', #265, #176, #298, .T. ) ;
#347 = ORIENTED_EDGE ( 'NONE', *, *, #117, .F. ) ;
#348 = VECTOR ( 'NONE', #33, 1000.000000000000000 ) ;
#349 = LINE ( 'NONE', #17, #137 ) ;
#350 = VERTEX_POINT ( 'NONE', #69 ) ;
#351 = APPROVAL_STATUS ( 'not_yet_approved' ) ;
#352 = CARTESIAN_POINT ( 'NONE',  ( -44.50000000000000000, 5.999999999999985789, -20.00000000000000000 ) ) ;
#353 = FACE_OUTER_BOUND ( 'NONE', #241, .T. ) ;
#354 = AXIS2_PLACEMENT_3D ( 'NONE', #162, #323, #223 ) ;
#355 = VECTOR ( 'NONE', #414, 1000.000000000000000 ) ;
#356 = CARTESIAN_POINT ( 'NONE',  ( 50.49999999999999289, 130.5000000000000000, 20.00000000000000000 ) ) ;
#357 = PERSON_AND_ORGANIZATION ( #77, #3 ) ;
#358 = CARTESIAN_POINT ( 'NONE',  ( -44.50000000000000000, 130.5000000000000000, 20.00000000000000000 ) ) ;
#359 = APPROVAL_DATE_TIME ( #158, #164 ) ;
#360 = ADVANCED_FACE ( 'NONE', ( #134 ), #266, .F. ) ;
#361 = PLANE ( 'NONE',  #354 ) ;
#362 = LOCAL_TIME ( 13, 46, 15.00000000000000000, #274 ) ;
#363 = CARTESIAN_POINT ( 'NONE',  ( -44.50000000000000000, 130.5000000000000000, -20.00000000000000000 ) ) ;
#364 = DIRECTION ( 'NONE',  ( -1.000000000000000000, 0.000000000000000000, 0.000000000000000000 ) ) ;
#365 = EDGE_LOOP ( 'NONE', ( #36, #40, #347, #165 ) ) ;
#366 = CARTESIAN_POINT ( 'NONE',  ( 0.000000000000000000, 130.5000000000000000, 20.00000000000000000 ) ) ;
#367 = EDGE_LOOP ( 'NONE', ( #285, #235, #338, #217 ) ) ;
#368 = LOCAL_TIME ( 13, 46, 15.00000000000000000, #248 ) ;
#369 = DIRECTION ( 'NONE',  ( -0.000000000000000000, 0.000000000000000000, -1.000000000000000000 ) ) ;
#370 = ORIENTED_EDGE ( 'NONE', *, *, #341, .F. ) ;
#371 = DIRECTION ( 'NONE',  ( 1.000000000000000000, 0.000000000000000000, -0.000000000000000000 ) ) ;
#372 = VERTEX_POINT ( 'NONE', #200 ) ;
#373 = DIRECTION ( 'NONE',  ( -1.000000000000000000, 0.000000000000000000, 0.000000000000000000 ) ) ;
#374 = EDGE_CURVE ( 'NONE', #350, #265, #237, .T. ) ;
#375 = ORIENTED_EDGE ( 'NONE', *, *, #222, .T. ) ;
#376 = DIRECTION ( 'NONE',  ( -1.000000000000000000, -0.000000000000000000, 0.000000000000000000 ) ) ;
#377 = LOCAL_TIME ( 13, 46, 15.00000000000000000, #186 ) ;
#378 = ORIENTED_EDGE ( 'NONE', *, *, #333, .T. ) ;
#379 = VECTOR ( 'NONE', #254, 1000.000000000000000 ) ;
#380 = CARTESIAN_POINT ( 'NONE',  ( -50.49999999999999289, 5.999999999999985789, -20.00000000000000000 ) ) ;
#381 = DIRECTION ( 'NONE',  ( 0.000000000000000000, 0.000000000000000000, 1.000000000000000000 ) ) ;
#382 = ADVANCED_FACE ( 'NONE', ( #48 ), #52, .T. ) ;
#383 = CARTESIAN_POINT ( 'NONE',  ( -44.50000000000000000, 5.999999999999985789, -20.00000000000000000 ) ) ;
#384 = CARTESIAN_POINT ( 'NONE',  ( -44.50000000000000000, 5.999999999999985789, 20.00000000000000000 ) ) ;
#385 = DATE_TIME_ROLE ( 'creation_date' ) ;
#386 = EDGE_LOOP ( 'NONE', ( #231, #378, #433, #75 ) ) ;
#387 = AXIS2_PLACEMENT_3D ( 'NONE', #366, #65, #234 ) ;
#388 = AXIS2_PLACEMENT_3D ( 'NONE', #155, #29, #129 ) ;
#389 = CARTESIAN_POINT ( 'NONE',  ( 44.50000000000000000, 130.5000000000000000, -20.00000000000000000 ) ) ;
#390 = ORIENTED_EDGE ( 'NONE', *, *, #228, .T. ) ;
#391 = DIRECTION ( 'NONE',  ( -0.000000000000000000, -0.000000000000000000, -1.000000000000000000 ) ) ;
#392 = CARTESIAN_POINT ( 'NONE',  ( 44.50000000000000000, 130.5000000000000000, 20.00000000000000000 ) ) ;
#393 = DIRECTION ( 'NONE',  ( -0.000000000000000000, -0.000000000000000000, -1.000000000000000000 ) ) ;
#394 = CARTESIAN_POINT ( 'NONE',  ( -50.49999999999999289, 130.5000000000000000, 20.00000000000000000 ) ) ;
#395 = VECTOR ( 'NONE', #4, 1000.000000000000000 ) ;
#396 = CARTESIAN_POINT ( 'NONE',  ( 0.000000000000000000, 130.5000000000000000, -20.00000000000000000 ) ) ;
#397 = AXIS2_PLACEMENT_3D ( 'NONE', #63, #393, #31 ) ;
#398 = EDGE_CURVE ( 'NONE', #296, #302, #349, .T. ) ;
#399 = PRODUCT ( '4229-50-25-35_REV_', '4229-50-25-35_REV_', '', ( #278 ) ) ;
#400 = LINE ( 'NONE', #102, #270 ) ;
#401 = ORIENTED_EDGE ( 'NONE', *, *, #292, .F. ) ;
#402 = CARTESIAN_POINT ( 'NONE',  ( 50.49999999999999289, 130.5000000000000000, -20.00000000000000000 ) ) ;
#403 = ORIENTED_EDGE ( 'NONE', *, *, #85, .T. ) ;
#404 = ORIENTED_EDGE ( 'NONE', *, *, #117, .T. ) ;
#405 = ADVANCED_FACE ( 'NONE', ( #149 ), #282, .T. ) ;
#406 = CARTESIAN_POINT ( 'NONE',  ( -44.50000000000000000, 5.999999999999985789, 20.00000000000000000 ) ) ;
#407 = VERTEX_POINT ( 'NONE', #121 ) ;
#408 =( NAMED_UNIT ( * ) PLANE_ANGLE_UNIT ( ) SI_UNIT ( $, .RADIAN. ) );
#409 = ORIENTED_EDGE ( 'NONE', *, *, #45, .T. ) ;
#410 = PERSON_AND_ORGANIZATION_ROLE ( 'design_owner' ) ;
#411 = CARTESIAN_POINT ( 'NONE',  ( 50.49999999999999289, 5.999999999999991118, 20.00000000000000000 ) ) ;
#412 = EDGE_CURVE ( 'NONE', #111, #344, #81, .T. ) ;
#413 =( LENGTH_UNIT ( ) NAMED_UNIT ( * ) SI_UNIT ( .MILLI., .METRE. ) );
#414 = DIRECTION ( 'NONE',  ( -1.000000000000000000, 0.000000000000000000, 0.000000000000000000 ) ) ;
#415 = PERSON_AND_ORGANIZATION ( #77, #3 ) ;
#416 = CARTESIAN_POINT ( 'NONE',  ( -50.49999999999999289, 5.999999999999985789, 20.00000000000000000 ) ) ;
#417 = ORIENTED_EDGE ( 'NONE', *, *, #292, .T. ) ;
#418 = SECURITY_CLASSIFICATION ( '', '', #326 ) ;
#419 = CIRCLE ( 'NONE', #230, 50.49999999999999289 ) ;
#420 = CALENDAR_DATE ( 2026, 9, 1 ) ;
#421 = DIRECTION ( 'NONE',  ( -0.000000000000000000, 1.000000000000000000, 0.000000000000000000 ) ) ;
#422 = APPROVAL_ROLE ( '' ) ;
#423 = CYLINDRICAL_SURFACE ( 'NONE', #138, 50.49999999999999289 ) ;
#424 = DIRECTION ( 'NONE',  ( -0.000000000000000000, -0.000000000000000000, -1.000000000000000000 ) ) ;
#425 = EDGE_CURVE ( 'NONE', #70, #207, #183, .T. ) ;
#426 = APPROVAL_PERSON_ORGANIZATION ( #145, #164, #84 ) ;
#427 = PERSON_AND_ORGANIZATION ( #77, #3 ) ;
#428 = LINE ( 'NONE', #262, #271 ) ;
#429 = VECTOR ( 'NONE', #167, 1000.000000000000000 ) ;
#430 = CARTESIAN_POINT ( 'NONE',  ( 50.49999999999999289, 5.999999999999991118, -20.00000000000000000 ) ) ;
#431 = VERTEX_POINT ( 'NONE', #380 ) ;
#432 = CARTESIAN_POINT ( 'NONE',  ( -44.50000000000000000, 130.5000000000000000, 20.00000000000000000 ) ) ;
#433 = ORIENTED_EDGE ( 'NONE', *, *, #398, .F. ) ;
ENDSEC;
END-ISO-10303-21;
