ISO-10303-21;
HEADER;
FILE_DESCRIPTION (( 'STEP AP203' ),
    '1' );
FILE_NAME ('COPY OF LINKPLATE^EYE TO EYE 5 LEAF 60MM SUSPENSION_REV_.step',
    '2025-08-17T04:51:04',
    ( '' ),
    ( '' ),
    'SwSTEP 2.0',
    'SolidWorks 2024',
    '' );
FILE_SCHEMA (( 'CONFIG_CONTROL_DESIGN' ));
ENDSEC;

DATA;
#1 = ORIENTED_EDGE ( 'NONE', *, *, #61, .T. ) ;
#2 = FACE_OUTER_BOUND ( 'NONE', #193, .T. ) ;
#3 = AXIS2_PLACEMENT_3D ( 'NONE', #203, #353, #360 ) ;
#4 = APPROVAL_PERSON_ORGANIZATION ( #351, #202, #293 ) ;
#5 = ORIENTED_EDGE ( 'NONE', *, *, #76, .F. ) ;
#6 = DIRECTION ( 'NONE',  ( 1.000000000000000000, 0.000000000000000000, -0.000000000000000000 ) ) ;
#7 = VERTEX_POINT ( 'NONE', #108 ) ;
#8 = DIRECTION ( 'NONE',  ( 0.000000000000000000, 1.000000000000000000, 0.000000000000000000 ) ) ;
#9 = ORIENTED_EDGE ( 'NONE', *, *, #171, .F. ) ;
#10 = CC_DESIGN_DATE_AND_TIME_ASSIGNMENT ( #129, #18, ( #375 ) ) ;
#11 = ORIENTED_EDGE ( 'NONE', *, *, #76, .T. ) ;
#12 = AXIS2_PLACEMENT_3D ( 'NONE', #332, #368, #246 ) ;
#13 = LINE ( 'NONE', #15, #71 ) ;
#14 = DIRECTION ( 'NONE',  ( 1.000000000000000000, 0.000000000000000000, 0.000000000000000000 ) ) ;
#15 = CARTESIAN_POINT ( 'NONE',  ( -46.76128206112403518, 0.000000000000000000, -19.85000000000001563 ) ) ;
#16 = AXIS2_PLACEMENT_3D ( 'NONE', #27, #146, #200 ) ;
#17 = CC_DESIGN_SECURITY_CLASSIFICATION ( #375, ( #340 ) ) ;
#18 = DATE_TIME_ROLE ( 'classification_date' ) ;
#19 = DIRECTION ( 'NONE',  ( -1.000000000000000000, -0.000000000000000000, -0.000000000000000000 ) ) ;
#20 = EDGE_CURVE ( 'NONE', #280, #372, #13, .T. ) ;
#21 = DIRECTION ( 'NONE',  ( -1.000000000000000000, -0.000000000000000000, -0.000000000000000000 ) ) ;
#22 = DIRECTION ( 'NONE',  ( 0.000000000000000000, -0.000000000000000000, 1.000000000000000000 ) ) ;
#23 = EDGE_CURVE ( 'NONE', #39, #78, #196, .T. ) ;
#24 = AXIS2_PLACEMENT_3D ( 'NONE', #206, #329, #145 ) ;
#25 = CIRCLE ( 'NONE', #271, 50.80000000000001137 ) ;
#26 = FACE_BOUND ( 'NONE', #127, .T. ) ;
#27 = CARTESIAN_POINT ( 'NONE',  ( 0.000000000000000000, 8.000000000000000000, -5.830539651702232796E-15 ) ) ;
#28 = FACE_BOUND ( 'NONE', #69, .T. ) ;
#29 = AXIS2_PLACEMENT_3D ( 'NONE', #124, #304, #6 ) ;
#30 = FACE_OUTER_BOUND ( 'NONE', #160, .T. ) ;
#31 = EDGE_CURVE ( 'NONE', #254, #317, #169, .T. ) ;
#32 = ORIENTED_EDGE ( 'NONE', *, *, #23, .T. ) ;
#33 = VERTEX_POINT ( 'NONE', #291 ) ;
#34 = PRODUCT_RELATED_PRODUCT_CATEGORY ( 'detail', '', ( #105 ) ) ;
#35 = PERSON_AND_ORGANIZATION_ROLE ( 'design_owner' ) ;
#36 = VECTOR ( 'NONE', #324, 1000.000000000000000 ) ;
#37 = ORIENTED_EDGE ( 'NONE', *, *, #376, .T. ) ;
#38 = CARTESIAN_POINT ( 'NONE',  ( 0.000000000000000000, 0.000000000000000000, 0.000000000000000000 ) ) ;
#39 = VERTEX_POINT ( 'NONE', #138 ) ;
#40 = APPLICATION_CONTEXT ( 'configuration controlled 3d designs of mechanical parts and assemblies' ) ;
#41 = EDGE_CURVE ( 'NONE', #276, #7, #258, .T. ) ;
#42 = CARTESIAN_POINT ( 'NONE',  ( -46.76128206112403518, 8.000000000000000000, -19.85000000000001563 ) ) ;
#43 = ORIENTED_EDGE ( 'NONE', *, *, #362, .T. ) ;
#44 = AXIS2_PLACEMENT_3D ( 'NONE', #65, #8, #341 ) ;
#45 = CARTESIAN_POINT ( 'NONE',  ( 31.73997953674852113, 8.000000000000000000, -8.100000000000010303 ) ) ;
#46 = APPROVAL_PERSON_ORGANIZATION ( #306, #211, #349 ) ;
#47 = DIRECTION ( 'NONE',  ( -0.000000000000000000, -1.000000000000000000, -0.000000000000000000 ) ) ;
#48 = EDGE_LOOP ( 'NONE', ( #253, #103, #312, #242 ) ) ;
#49 = DIRECTION ( 'NONE',  ( 0.000000000000000000, 0.000000000000000000, 1.000000000000000000 ) ) ;
#50 = ORIENTED_EDGE ( 'NONE', *, *, #320, .T. ) ;
#51 = PLANE ( 'NONE',  #151 ) ;
#52 = PERSON_AND_ORGANIZATION ( #185, #282 ) ;
#53 = CYLINDRICAL_SURFACE ( 'NONE', #115, 50.80000000000001137 ) ;
#54 = DATE_AND_TIME ( #263, #136 ) ;
#55 = AXIS2_PLACEMENT_3D ( 'NONE', #178, #292, #300 ) ;
#56 = FACE_OUTER_BOUND ( 'NONE', #338, .T. ) ;
#57 = DIRECTION ( 'NONE',  ( -0.000000000000000000, -1.000000000000000000, -0.000000000000000000 ) ) ;
#58 = PLANE ( 'NONE',  #55 ) ;
#59 = AXIS2_PLACEMENT_3D ( 'NONE', #82, #389, #174 ) ;
#60 = EDGE_LOOP ( 'NONE', ( #153, #260, #11, #221 ) ) ;
#61 = EDGE_CURVE ( 'NONE', #213, #39, #251, .T. ) ;
#62 = CARTESIAN_POINT ( 'NONE',  ( -31.73997953674852113, 0.000000000000000000, 8.379959073497046163 ) ) ;
#63 = EDGE_LOOP ( 'NONE', ( #379, #1, #32, #90 ) ) ;
#64 = ORIENTED_EDGE ( 'NONE', *, *, #273, .F. ) ;
#65 = CARTESIAN_POINT ( 'NONE',  ( -31.73997953674852113, 8.000000000000000000, 0.000000000000000000 ) ) ;
#66 = VECTOR ( 'NONE', #95, 1000.000000000000000 ) ;
#67 = ORIENTED_EDGE ( 'NONE', *, *, #171, .T. ) ;
#68 = VERTEX_POINT ( 'NONE', #314 ) ;
#69 = EDGE_LOOP ( 'NONE', ( #367, #348 ) ) ;
#70 = ADVANCED_FACE ( 'NONE', ( #287 ), #135, .F. ) ;
#71 = VECTOR ( 'NONE', #19, 1000.000000000000000 ) ;
#72 = ORIENTED_EDGE ( 'NONE', *, *, #369, .T. ) ;
#73 = LOCAL_TIME ( 14, 51, 4.000000000000000000, #318 ) ;
#74 = ORIENTED_EDGE ( 'NONE', *, *, #249, .T. ) ;
#75 = CYLINDRICAL_SURFACE ( 'NONE', #79, 8.099999999999997868 ) ;
#76 = EDGE_CURVE ( 'NONE', #155, #33, #345, .T. ) ;
#77 = DATE_AND_TIME ( #259, #270 ) ;
#78 = VERTEX_POINT ( 'NONE', #161 ) ;
#79 = AXIS2_PLACEMENT_3D ( 'NONE', #256, #377, #104 ) ;
#80 = EDGE_CURVE ( 'NONE', #224, #317, #225, .T. ) ;
#81 = PERSON_AND_ORGANIZATION ( #185, #282 ) ;
#82 = CARTESIAN_POINT ( 'NONE',  ( -31.73997953674852113, 0.000000000000000000, 0.000000000000000000 ) ) ;
#83 = DIRECTION ( 'NONE',  ( -0.000000000000000000, -1.000000000000000000, -0.000000000000000000 ) ) ;
#84 = APPROVAL_STATUS ( 'not_yet_approved' ) ;
#85 = FACE_OUTER_BOUND ( 'NONE', #283, .T. ) ;
#86 = FACE_OUTER_BOUND ( 'NONE', #48, .T. ) ;
#87 = DIRECTION ( 'NONE',  ( 0.000000000000000000, 1.000000000000000000, 0.000000000000000000 ) ) ;
#88 = DIRECTION ( 'NONE',  ( 0.000000000000000000, 0.000000000000000000, -1.000000000000000000 ) ) ;
#89 = PERSON_AND_ORGANIZATION ( #185, #282 ) ;
#90 = ORIENTED_EDGE ( 'NONE', *, *, #313, .F. ) ;
#91 = CARTESIAN_POINT ( 'NONE',  ( -46.76128206112403518, 0.000000000000000000, -19.85000000000001563 ) ) ;
#92 = MECHANICAL_CONTEXT ( 'NONE', #40, 'mechanical' ) ;
#93 = EDGE_LOOP ( 'NONE', ( #9, #310 ) ) ;
#94 = AXIS2_PLACEMENT_3D ( 'NONE', #208, #152, #154 ) ;
#95 = DIRECTION ( 'NONE',  ( -0.000000000000000000, -1.000000000000000000, -0.000000000000000000 ) ) ;
#96 = ORIENTED_EDGE ( 'NONE', *, *, #107, .T. ) ;
#97 = APPLICATION_CONTEXT ( 'configuration controlled 3d designs of mechanical parts and assemblies' ) ;
#98 = PERSON_AND_ORGANIZATION ( #185, #282 ) ;
#99 = EDGE_LOOP ( 'NONE', ( #188, #303 ) ) ;
#100 = ADVANCED_FACE ( 'NONE', ( #227 ), #75, .F. ) ;
#101 = CARTESIAN_POINT ( 'NONE',  ( -31.73997953674852113, 8.000000000000000000, 0.000000000000000000 ) ) ;
#102 = CC_DESIGN_PERSON_AND_ORGANIZATION_ASSIGNMENT ( #81, #164, ( #381 ) ) ;
#103 = ORIENTED_EDGE ( 'NONE', *, *, #20, .F. ) ;
#104 = DIRECTION ( 'NONE',  ( 0.000000000000000000, 0.000000000000000000, -1.000000000000000000 ) ) ;
#105 = PRODUCT ( 'COPY OF LINKPLATE^EYE TO EYE 5 LEAF 60MM SUSPENSION_REV_', 'COPY OF LINKPLATE^EYE TO EYE 5 LEAF 60MM SUSPENSION_REV_', '', ( #92 ) ) ;
#106 = CARTESIAN_POINT ( 'NONE',  ( 31.73997953674852113, 8.000000000000000000, -1.166107930340446717E-14 ) ) ;
#107 = EDGE_CURVE ( 'NONE', #33, #364, #352, .T. ) ;
#108 = CARTESIAN_POINT ( 'NONE',  ( -46.76128206112403518, 8.000000000000000000, -19.85000000000001563 ) ) ;
#109 = CC_DESIGN_APPROVAL ( #202, ( #340 ) ) ;
#110 = SECURITY_CLASSIFICATION_LEVEL ( 'unclassified' ) ;
#111 = CARTESIAN_POINT ( 'NONE',  ( 46.76128206112403518, 8.000000000000000000, -19.85000000000001563 ) ) ;
#112 = PERSON_AND_ORGANIZATION ( #185, #282 ) ;
#113 = CARTESIAN_POINT ( 'NONE',  ( 46.76128206112403518, 0.000000000000000000, -19.85000000000001563 ) ) ;
#114 = FACE_OUTER_BOUND ( 'NONE', #247, .T. ) ;
#115 = AXIS2_PLACEMENT_3D ( 'NONE', #264, #83, #330 ) ;
#116 = CARTESIAN_POINT ( 'NONE',  ( -31.73997953674852113, 8.000000000000000000, -8.379959073497046163 ) ) ;
#117 = EDGE_CURVE ( 'NONE', #39, #213, #358, .T. ) ;
#118 = LINE ( 'NONE', #274, #66 ) ;
#119 = EDGE_LOOP ( 'NONE', ( #67, #184, #158, #5 ) ) ;
#120 = VECTOR ( 'NONE', #47, 1000.000000000000000 ) ;
#121 =( NAMED_UNIT ( * ) PLANE_ANGLE_UNIT ( ) SI_UNIT ( $, .RADIAN. ) );
#122 = ORIENTED_EDGE ( 'NONE', *, *, #308, .F. ) ;
#123 = EDGE_CURVE ( 'NONE', #364, #33, #165, .T. ) ;
#124 = CARTESIAN_POINT ( 'NONE',  ( -46.76128206112403518, 8.000000000000000000, -19.85000000000001563 ) ) ;
#125 = ORIENTED_EDGE ( 'NONE', *, *, #284, .F. ) ;
#126 = CARTESIAN_POINT ( 'NONE',  ( 0.000000000000000000, 0.000000000000000000, -5.830539651702232796E-15 ) ) ;
#127 = EDGE_LOOP ( 'NONE', ( #96, #130 ) ) ;
#128 = CIRCLE ( 'NONE', #12, 50.80000000000001137 ) ;
#129 = DATE_AND_TIME ( #144, #229 ) ;
#130 = ORIENTED_EDGE ( 'NONE', *, *, #123, .T. ) ;
#131 = ADVANCED_FACE ( 'NONE', ( #172, #85, #297 ), #268, .T. ) ;
#132 = DIRECTION ( 'NONE',  ( -0.000000000000000000, -1.000000000000000000, -0.000000000000000000 ) ) ;
#133 = DIRECTION ( 'NONE',  ( -0.000000000000000000, -1.000000000000000000, -0.000000000000000000 ) ) ;
#134 = AXIS2_PLACEMENT_3D ( 'NONE', #373, #322, #190 ) ;
#135 = CYLINDRICAL_SURFACE ( 'NONE', #261, 8.379959073497046163 ) ;
#136 = LOCAL_TIME ( 14, 51, 4.000000000000000000, #199 ) ;
#137 = PERSON_AND_ORGANIZATION ( #185, #282 ) ;
#138 = CARTESIAN_POINT ( 'NONE',  ( 31.73997953674852113, 8.000000000000000000, -8.100000000000010303 ) ) ;
#139 = ADVANCED_BREP_SHAPE_REPRESENTATION ( 'COPY OF LINKPLATE^EYE TO EYE 5 LEAF 60MM SUSPENSION_REV_', ( #141, #295 ), #359 ) ;
#140 = ORIENTED_EDGE ( 'NONE', *, *, #284, .T. ) ;
#141 = MANIFOLD_SOLID_BREP ( 'Boss-Extrude1', #315 ) ;
#142 = LINE ( 'NONE', #149, #255 ) ;
#143 = VECTOR ( 'NONE', #14, 1000.000000000000000 ) ;
#144 = CALENDAR_DATE ( 2025, 17, 8 ) ;
#145 = DIRECTION ( 'NONE',  ( 0.000000000000000000, -0.000000000000000000, 1.000000000000000000 ) ) ;
#146 = DIRECTION ( 'NONE',  ( -0.000000000000000000, -1.000000000000000000, -0.000000000000000000 ) ) ;
#147 = CARTESIAN_POINT ( 'NONE',  ( 0.000000000000000000, 0.000000000000000000, -5.830539651702232796E-15 ) ) ;
#148 = CIRCLE ( 'NONE', #197, 50.80000000000001137 ) ;
#149 = CARTESIAN_POINT ( 'NONE',  ( -46.76128206112404229, 8.000000000000000000, 19.84999999999996945 ) ) ;
#150 = VERTEX_POINT ( 'NONE', #262 ) ;
#151 = AXIS2_PLACEMENT_3D ( 'NONE', #147, #383, #22 ) ;
#152 = DIRECTION ( 'NONE',  ( 0.000000000000000000, 1.000000000000000000, 0.000000000000000000 ) ) ;
#153 = ORIENTED_EDGE ( 'NONE', *, *, #156, .F. ) ;
#154 = DIRECTION ( 'NONE',  ( 0.000000000000000000, 0.000000000000000000, 1.000000000000000000 ) ) ;
#155 = VERTEX_POINT ( 'NONE', #116 ) ;
#156 = EDGE_CURVE ( 'NONE', #305, #364, #205, .T. ) ;
#157 = DIRECTION ( 'NONE',  ( 0.000000000000000000, 1.000000000000000000, 0.000000000000000000 ) ) ;
#158 = ORIENTED_EDGE ( 'NONE', *, *, #107, .F. ) ;
#159 = CIRCLE ( 'NONE', #94, 8.099999999999997868 ) ;
#160 = EDGE_LOOP ( 'NONE', ( #347, #342, #64, #72 ) ) ;
#161 = CARTESIAN_POINT ( 'NONE',  ( 31.73997953674852113, 0.000000000000000000, -8.100000000000010303 ) ) ;
#162 = DIRECTION ( 'NONE',  ( -0.000000000000000000, -1.000000000000000000, -0.000000000000000000 ) ) ;
#163 = ADVANCED_FACE ( 'NONE', ( #56 ), #388, .T. ) ;
#164 = PERSON_AND_ORGANIZATION_ROLE ( 'creator' ) ;
#165 = CIRCLE ( 'NONE', #59, 8.379959073497046163 ) ;
#166 = ORIENTED_EDGE ( 'NONE', *, *, #41, .T. ) ;
#167 = LOCAL_TIME ( 14, 51, 4.000000000000000000, #176 ) ;
#168 = CC_DESIGN_PERSON_AND_ORGANIZATION_ASSIGNMENT ( #112, #290, ( #340 ) ) ;
#169 = LINE ( 'NONE', #374, #179 ) ;
#170 = UNCERTAINTY_MEASURE_WITH_UNIT (LENGTH_MEASURE( 1.000000000000000082E-05 ), #181, 'distance_accuracy_value', 'NONE');
#171 = EDGE_CURVE ( 'NONE', #155, #305, #386, .T. ) ;
#172 = FACE_BOUND ( 'NONE', #93, .T. ) ;
#173 = APPROVAL_STATUS ( 'not_yet_approved' ) ;
#174 = DIRECTION ( 'NONE',  ( 0.000000000000000000, 0.000000000000000000, 1.000000000000000000 ) ) ;
#175 = VECTOR ( 'NONE', #132, 1000.000000000000000 ) ;
#176 = COORDINATED_UNIVERSAL_TIME_OFFSET ( 10, 0, .AHEAD. ) ;
#177 = CARTESIAN_POINT ( 'NONE',  ( 31.73997953674852113, 8.000000000000000000, 8.099999999999985434 ) ) ;
#178 = CARTESIAN_POINT ( 'NONE',  ( -46.76128206112404229, 8.000000000000000000, 19.84999999999996945 ) ) ;
#179 = VECTOR ( 'NONE', #162, 1000.000000000000000 ) ;
#180 = EDGE_LOOP ( 'NONE', ( #189, #192, #122, #336 ) ) ;
#181 =( LENGTH_UNIT ( ) NAMED_UNIT ( * ) SI_UNIT ( .MILLI., .METRE. ) );
#182 = ORIENTED_EDGE ( 'NONE', *, *, #376, .F. ) ;
#183 = APPLICATION_PROTOCOL_DEFINITION ( 'international standard', 'config_control_design', 1994, #40 ) ;
#184 = ORIENTED_EDGE ( 'NONE', *, *, #156, .T. ) ;
#185 = PERSON ( 'UNSPECIFIED', 'UNSPECIFIED', 'UNSPECIFIED', ('UNSPECIFIED'), ('UNSPECIFIED'), ('UNSPECIFIED') ) ;
#186 = AXIS2_PLACEMENT_3D ( 'NONE', #241, #240, #88 ) ;
#187 = CARTESIAN_POINT ( 'NONE',  ( -31.73997953674852113, 8.000000000000000000, 8.379959073497046163 ) ) ;
#188 = ORIENTED_EDGE ( 'NONE', *, *, #117, .F. ) ;
#189 = ORIENTED_EDGE ( 'NONE', *, *, #117, .T. ) ;
#190 = DIRECTION ( 'NONE',  ( 0.000000000000000000, 0.000000000000000000, 1.000000000000000000 ) ) ;
#191 = AXIS2_PLACEMENT_3D ( 'NONE', #236, #230, #266 ) ;
#192 = ORIENTED_EDGE ( 'NONE', *, *, #228, .T. ) ;
#193 = EDGE_LOOP ( 'NONE', ( #245, #218, #250, #140 ) ) ;
#194 = ADVANCED_FACE ( 'NONE', ( #357 ), #296, .F. ) ;
#195 = PRODUCT_DEFINITION_SHAPE ( 'NONE', 'NONE',  #381 ) ;
#196 = LINE ( 'NONE', #45, #175 ) ;
#197 = AXIS2_PLACEMENT_3D ( 'NONE', #126, #157, #248 ) ;
#198 = DIRECTION ( 'NONE',  ( 0.000000000000000000, 0.000000000000000000, 1.000000000000000000 ) ) ;
#199 = COORDINATED_UNIVERSAL_TIME_OFFSET ( 10, 0, .AHEAD. ) ;
#200 = DIRECTION ( 'NONE',  ( 0.000000000000000000, 0.000000000000000000, -1.000000000000000000 ) ) ;
#201 = COORDINATED_UNIVERSAL_TIME_OFFSET ( 10, 0, .AHEAD. ) ;
#202 = APPROVAL ( #173, 'UNSPECIFIED' ) ;
#203 = CARTESIAN_POINT ( 'NONE',  ( -31.73997953674852113, 8.000000000000000000, 0.000000000000000000 ) ) ;
#204 = APPROVAL_DATE_TIME ( #77, #211 ) ;
#205 = LINE ( 'NONE', #299, #328 ) ;
#206 = CARTESIAN_POINT ( 'NONE',  ( 0.000000000000000000, 8.000000000000000000, -5.830539651702232796E-15 ) ) ;
#207 = DIRECTION ( 'NONE',  ( 0.000000000000000000, 0.000000000000000000, 1.000000000000000000 ) ) ;
#208 = CARTESIAN_POINT ( 'NONE',  ( 31.73997953674852113, 0.000000000000000000, -1.166107930340446717E-14 ) ) ;
#209 = CIRCLE ( 'NONE', #223, 50.80000000000001137 ) ;
#210 = APPLICATION_PROTOCOL_DEFINITION ( 'international standard', 'config_control_design', 1994, #97 ) ;
#211 = APPROVAL ( #84, 'UNSPECIFIED' ) ;
#212 =( NAMED_UNIT ( * ) SI_UNIT ( $, .STERADIAN. ) SOLID_ANGLE_UNIT ( ) );
#213 = VERTEX_POINT ( 'NONE', #177 ) ;
#214 = DIRECTION ( 'NONE',  ( 0.000000000000000000, 1.000000000000000000, 0.000000000000000000 ) ) ;
#215 = ORIENTED_EDGE ( 'NONE', *, *, #369, .F. ) ;
#216 = AXIS2_PLACEMENT_3D ( 'NONE', #365, #311, #217 ) ;
#217 = DIRECTION ( 'NONE',  ( 0.000000000000000000, 0.000000000000000000, 1.000000000000000000 ) ) ;
#218 = ORIENTED_EDGE ( 'NONE', *, *, #320, .F. ) ;
#219 = CC_DESIGN_PERSON_AND_ORGANIZATION_ASSIGNMENT ( #137, #371, ( #375 ) ) ;
#220 = CALENDAR_DATE ( 2025, 17, 8 ) ;
#221 = ORIENTED_EDGE ( 'NONE', *, *, #123, .F. ) ;
#222 = DIRECTION ( 'NONE',  ( 0.000000000000000000, 0.000000000000000000, -1.000000000000000000 ) ) ;
#223 = AXIS2_PLACEMENT_3D ( 'NONE', #361, #87, #207 ) ;
#224 = VERTEX_POINT ( 'NONE', #380 ) ;
#225 = LINE ( 'NONE', #285, #143 ) ;
#226 = DATE_AND_TIME ( #382, #73 ) ;
#227 = FACE_OUTER_BOUND ( 'NONE', #63, .T. ) ;
#228 = EDGE_CURVE ( 'NONE', #213, #150, #238, .T. ) ;
#229 = LOCAL_TIME ( 14, 51, 4.000000000000000000, #201 ) ;
#230 = DIRECTION ( 'NONE',  ( -0.000000000000000000, -1.000000000000000000, -0.000000000000000000 ) ) ;
#231 = DATE_AND_TIME ( #220, #167 ) ;
#232 = DIRECTION ( 'NONE',  ( -0.000000000000000000, -1.000000000000000000, -0.000000000000000000 ) ) ;
#233 = DATE_TIME_ROLE ( 'creation_date' ) ;
#234 = LINE ( 'NONE', #111, #385 ) ;
#235 = ADVANCED_FACE ( 'NONE', ( #114 ), #53, .T. ) ;
#236 = CARTESIAN_POINT ( 'NONE',  ( 31.73997953674852113, 8.000000000000000000, -1.166107930340446717E-14 ) ) ;
#237 = CIRCLE ( 'NONE', #44, 8.379959073497046163 ) ;
#238 = LINE ( 'NONE', #384, #36 ) ;
#239 = ADVANCED_FACE ( 'NONE', ( #86, #26, #28 ), #51, .F. ) ;
#240 = DIRECTION ( 'NONE',  ( -0.000000000000000000, -1.000000000000000000, -0.000000000000000000 ) ) ;
#241 = CARTESIAN_POINT ( 'NONE',  ( -31.73997953674852113, 8.000000000000000000, 0.000000000000000000 ) ) ;
#242 = ORIENTED_EDGE ( 'NONE', *, *, #80, .F. ) ;
#243 = CC_DESIGN_DATE_AND_TIME_ASSIGNMENT ( #226, #233, ( #381 ) ) ;
#244 = DIRECTION ( 'NONE',  ( 0.000000000000000000, 0.000000000000000000, 1.000000000000000000 ) ) ;
#245 = ORIENTED_EDGE ( 'NONE', *, *, #20, .T. ) ;
#246 = DIRECTION ( 'NONE',  ( 0.000000000000000000, 0.000000000000000000, 1.000000000000000000 ) ) ;
#247 = EDGE_LOOP ( 'NONE', ( #43, #215, #307, #50 ) ) ;
#248 = DIRECTION ( 'NONE',  ( 0.000000000000000000, 0.000000000000000000, 1.000000000000000000 ) ) ;
#249 = EDGE_CURVE ( 'NONE', #7, #68, #209, .T. ) ;
#250 = ORIENTED_EDGE ( 'NONE', *, *, #41, .F. ) ;
#251 = CIRCLE ( 'NONE', #134, 8.099999999999997868 ) ;
#252 = COORDINATED_UNIVERSAL_TIME_OFFSET ( 10, 0, .AHEAD. ) ;
#253 = ORIENTED_EDGE ( 'NONE', *, *, #362, .F. ) ;
#254 = VERTEX_POINT ( 'NONE', #331 ) ;
#255 = VECTOR ( 'NONE', #326, 1000.000000000000000 ) ;
#256 = CARTESIAN_POINT ( 'NONE',  ( 31.73997953674852113, 8.000000000000000000, -1.166107930340446717E-14 ) ) ;
#257 = APPROVAL_DATE_TIME ( #231, #202 ) ;
#258 = LINE ( 'NONE', #344, #294 ) ;
#259 = CALENDAR_DATE ( 2025, 17, 8 ) ;
#260 = ORIENTED_EDGE ( 'NONE', *, *, #325, .T. ) ;
#261 = AXIS2_PLACEMENT_3D ( 'NONE', #101, #133, #222 ) ;
#262 = CARTESIAN_POINT ( 'NONE',  ( 31.73997953674852113, 0.000000000000000000, 8.099999999999985434 ) ) ;
#263 = CALENDAR_DATE ( 2025, 17, 8 ) ;
#264 = CARTESIAN_POINT ( 'NONE',  ( 0.000000000000000000, 8.000000000000000000, -5.830539651702232796E-15 ) ) ;
#265 = ADVANCED_FACE ( 'NONE', ( #30 ), #58, .F. ) ;
#266 = DIRECTION ( 'NONE',  ( 0.000000000000000000, 0.000000000000000000, -1.000000000000000000 ) ) ;
#267 = CC_DESIGN_PERSON_AND_ORGANIZATION_ASSIGNMENT ( #89, #35, ( #105 ) ) ;
#268 = PLANE ( 'NONE',  #24 ) ;
#269 = CIRCLE ( 'NONE', #216, 8.099999999999997868 ) ;
#270 = LOCAL_TIME ( 14, 51, 4.000000000000000000, #252 ) ;
#271 = AXIS2_PLACEMENT_3D ( 'NONE', #279, #214, #244 ) ;
#272 = CARTESIAN_POINT ( 'NONE',  ( 46.76128206112403518, 8.000000000000000000, -19.85000000000001563 ) ) ;
#273 = EDGE_CURVE ( 'NONE', #68, #254, #142, .T. ) ;
#274 = CARTESIAN_POINT ( 'NONE',  ( -46.76128206112404229, 8.000000000000000000, 19.84999999999996945 ) ) ;
#275 = DIRECTION ( 'NONE',  ( 0.000000000000000000, 0.000000000000000000, 1.000000000000000000 ) ) ;
#276 = VERTEX_POINT ( 'NONE', #272 ) ;
#277 = CYLINDRICAL_SURFACE ( 'NONE', #186, 8.379959073497046163 ) ;
#278 = ORIENTED_EDGE ( 'NONE', *, *, #339, .T. ) ;
#279 = CARTESIAN_POINT ( 'NONE',  ( 0.000000000000000000, 8.000000000000000000, -5.830539651702232796E-15 ) ) ;
#280 = VERTEX_POINT ( 'NONE', #113 ) ;
#281 = PLANE ( 'NONE',  #29 ) ;
#282 = ORGANIZATION ( 'UNSPECIFIED', 'UNSPECIFIED', '' ) ;
#283 = EDGE_LOOP ( 'NONE', ( #74, #289, #37, #166 ) ) ;
#284 = EDGE_CURVE ( 'NONE', #276, #280, #234, .T. ) ;
#285 = CARTESIAN_POINT ( 'NONE',  ( -46.76128206112404229, 0.000000000000000000, 19.84999999999996945 ) ) ;
#286 = ADVANCED_FACE ( 'NONE', ( #355 ), #277, .F. ) ;
#287 = FACE_OUTER_BOUND ( 'NONE', #119, .T. ) ;
#288 = APPROVAL_STATUS ( 'not_yet_approved' ) ;
#289 = ORIENTED_EDGE ( 'NONE', *, *, #273, .T. ) ;
#290 = PERSON_AND_ORGANIZATION_ROLE ( 'design_supplier' ) ;
#291 = CARTESIAN_POINT ( 'NONE',  ( -31.73997953674852113, 0.000000000000000000, -8.379959073497046163 ) ) ;
#292 = DIRECTION ( 'NONE',  ( 0.000000000000000000, 0.000000000000000000, -1.000000000000000000 ) ) ;
#293 = APPROVAL_ROLE ( '' ) ;
#294 = VECTOR ( 'NONE', #21, 1000.000000000000000 ) ;
#295 = AXIS2_PLACEMENT_3D ( 'NONE', #38, #275, #363 ) ;
#296 = CYLINDRICAL_SURFACE ( 'NONE', #191, 8.099999999999997868 ) ;
#297 = FACE_BOUND ( 'NONE', #99, .T. ) ;
#298 = APPROVAL ( #288, 'UNSPECIFIED' ) ;
#299 = CARTESIAN_POINT ( 'NONE',  ( -31.73997953674852113, 8.000000000000000000, 8.379959073497046163 ) ) ;
#300 = DIRECTION ( 'NONE',  ( -1.000000000000000000, 0.000000000000000000, -0.000000000000000000 ) ) ;
#301 = AXIS2_PLACEMENT_3D ( 'NONE', #106, #350, #198 ) ;
#302 = LINE ( 'NONE', #42, #321 ) ;
#303 = ORIENTED_EDGE ( 'NONE', *, *, #61, .F. ) ;
#304 = DIRECTION ( 'NONE',  ( 0.000000000000000000, 0.000000000000000000, 1.000000000000000000 ) ) ;
#305 = VERTEX_POINT ( 'NONE', #187 ) ;
#306 = PERSON_AND_ORGANIZATION ( #185, #282 ) ;
#307 = ORIENTED_EDGE ( 'NONE', *, *, #249, .F. ) ;
#308 = EDGE_CURVE ( 'NONE', #78, #150, #269, .T. ) ;
#309 = CC_DESIGN_APPROVAL ( #211, ( #381 ) ) ;
#310 = ORIENTED_EDGE ( 'NONE', *, *, #325, .F. ) ;
#311 = DIRECTION ( 'NONE',  ( 0.000000000000000000, 1.000000000000000000, 0.000000000000000000 ) ) ;
#312 = ORIENTED_EDGE ( 'NONE', *, *, #339, .F. ) ;
#313 = EDGE_CURVE ( 'NONE', #150, #78, #159, .T. ) ;
#314 = CARTESIAN_POINT ( 'NONE',  ( -46.76128206112404229, 8.000000000000000000, 19.84999999999996945 ) ) ;
#315 = CLOSED_SHELL ( 'NONE', ( #194, #70, #131, #239, #235, #265, #163, #343, #286, #100 ) ) ;
#316 = CARTESIAN_POINT ( 'NONE',  ( -31.73997953674852113, 8.000000000000000000, -8.379959073497046163 ) ) ;
#317 = VERTEX_POINT ( 'NONE', #337 ) ;
#318 = COORDINATED_UNIVERSAL_TIME_OFFSET ( 10, 0, .AHEAD. ) ;
#319 = CARTESIAN_POINT ( 'NONE',  ( -31.73997953674852113, 0.000000000000000000, 0.000000000000000000 ) ) ;
#320 = EDGE_CURVE ( 'NONE', #7, #372, #302, .T. ) ;
#321 = VECTOR ( 'NONE', #333, 1000.000000000000000 ) ;
#322 = DIRECTION ( 'NONE',  ( 0.000000000000000000, 1.000000000000000000, 0.000000000000000000 ) ) ;
#323 = APPROVAL_DATE_TIME ( #54, #298 ) ;
#324 = DIRECTION ( 'NONE',  ( -0.000000000000000000, -1.000000000000000000, -0.000000000000000000 ) ) ;
#325 = EDGE_CURVE ( 'NONE', #305, #155, #237, .T. ) ;
#326 = DIRECTION ( 'NONE',  ( 1.000000000000000000, 0.000000000000000000, 0.000000000000000000 ) ) ;
#327 = SHAPE_DEFINITION_REPRESENTATION ( #195, #139 ) ;
#328 = VECTOR ( 'NONE', #57, 1000.000000000000000 ) ;
#329 = DIRECTION ( 'NONE',  ( 0.000000000000000000, 1.000000000000000000, 0.000000000000000000 ) ) ;
#330 = DIRECTION ( 'NONE',  ( 0.000000000000000000, 0.000000000000000000, -1.000000000000000000 ) ) ;
#331 = CARTESIAN_POINT ( 'NONE',  ( 46.76128206112404229, 8.000000000000000000, 19.84999999999996945 ) ) ;
#332 = CARTESIAN_POINT ( 'NONE',  ( 0.000000000000000000, 0.000000000000000000, -5.830539651702232796E-15 ) ) ;
#333 = DIRECTION ( 'NONE',  ( -0.000000000000000000, -1.000000000000000000, -0.000000000000000000 ) ) ;
#334 = DESIGN_CONTEXT ( 'detailed design', #97, 'design' ) ;
#335 = ORIENTED_EDGE ( 'NONE', *, *, #31, .T. ) ;
#336 = ORIENTED_EDGE ( 'NONE', *, *, #23, .F. ) ;
#337 = CARTESIAN_POINT ( 'NONE',  ( 46.76128206112404229, 0.000000000000000000, 19.84999999999996945 ) ) ;
#338 = EDGE_LOOP ( 'NONE', ( #278, #125, #182, #335 ) ) ;
#339 = EDGE_CURVE ( 'NONE', #317, #280, #148, .T. ) ;
#340 = PRODUCT_DEFINITION_FORMATION_WITH_SPECIFIED_SOURCE ( 'ANY', '', #105, .NOT_KNOWN. ) ;
#341 = DIRECTION ( 'NONE',  ( 0.000000000000000000, 0.000000000000000000, 1.000000000000000000 ) ) ;
#342 = ORIENTED_EDGE ( 'NONE', *, *, #31, .F. ) ;
#343 = ADVANCED_FACE ( 'NONE', ( #2 ), #281, .F. ) ;
#344 = CARTESIAN_POINT ( 'NONE',  ( -46.76128206112403518, 8.000000000000000000, -19.85000000000001563 ) ) ;
#345 = LINE ( 'NONE', #316, #120 ) ;
#346 = AXIS2_PLACEMENT_3D ( 'NONE', #319, #378, #49 ) ;
#347 = ORIENTED_EDGE ( 'NONE', *, *, #80, .T. ) ;
#348 = ORIENTED_EDGE ( 'NONE', *, *, #313, .T. ) ;
#349 = APPROVAL_ROLE ( '' ) ;
#350 = DIRECTION ( 'NONE',  ( 0.000000000000000000, 1.000000000000000000, 0.000000000000000000 ) ) ;
#351 = PERSON_AND_ORGANIZATION ( #185, #282 ) ;
#352 = CIRCLE ( 'NONE', #346, 8.379959073497046163 ) ;
#353 = DIRECTION ( 'NONE',  ( 0.000000000000000000, 1.000000000000000000, 0.000000000000000000 ) ) ;
#354 = PERSON_AND_ORGANIZATION_ROLE ( 'creator' ) ;
#355 = FACE_OUTER_BOUND ( 'NONE', #60, .T. ) ;
#356 = APPROVAL_ROLE ( '' ) ;
#357 = FACE_OUTER_BOUND ( 'NONE', #180, .T. ) ;
#358 = CIRCLE ( 'NONE', #301, 8.099999999999997868 ) ;
#359 =( GEOMETRIC_REPRESENTATION_CONTEXT ( 3 ) GLOBAL_UNCERTAINTY_ASSIGNED_CONTEXT ( ( #170 ) ) GLOBAL_UNIT_ASSIGNED_CONTEXT ( ( #181, #121, #212 ) ) REPRESENTATION_CONTEXT ( 'NONE', 'WORKASPACE' ) );
#360 = DIRECTION ( 'NONE',  ( 0.000000000000000000, 0.000000000000000000, 1.000000000000000000 ) ) ;
#361 = CARTESIAN_POINT ( 'NONE',  ( 0.000000000000000000, 8.000000000000000000, -5.830539651702232796E-15 ) ) ;
#362 = EDGE_CURVE ( 'NONE', #372, #224, #128, .T. ) ;
#363 = DIRECTION ( 'NONE',  ( 1.000000000000000000, 0.000000000000000000, 0.000000000000000000 ) ) ;
#364 = VERTEX_POINT ( 'NONE', #62 ) ;
#365 = CARTESIAN_POINT ( 'NONE',  ( 31.73997953674852113, 0.000000000000000000, -1.166107930340446717E-14 ) ) ;
#366 = CC_DESIGN_PERSON_AND_ORGANIZATION_ASSIGNMENT ( #52, #354, ( #340 ) ) ;
#367 = ORIENTED_EDGE ( 'NONE', *, *, #308, .T. ) ;
#368 = DIRECTION ( 'NONE',  ( 0.000000000000000000, 1.000000000000000000, 0.000000000000000000 ) ) ;
#369 = EDGE_CURVE ( 'NONE', #68, #224, #118, .T. ) ;
#370 = APPROVAL_PERSON_ORGANIZATION ( #98, #298, #356 ) ;
#371 = PERSON_AND_ORGANIZATION_ROLE ( 'classification_officer' ) ;
#372 = VERTEX_POINT ( 'NONE', #91 ) ;
#373 = CARTESIAN_POINT ( 'NONE',  ( 31.73997953674852113, 8.000000000000000000, -1.166107930340446717E-14 ) ) ;
#374 = CARTESIAN_POINT ( 'NONE',  ( 46.76128206112404229, 8.000000000000000000, 19.84999999999996945 ) ) ;
#375 = SECURITY_CLASSIFICATION ( '', '', #110 ) ;
#376 = EDGE_CURVE ( 'NONE', #254, #276, #25, .T. ) ;
#377 = DIRECTION ( 'NONE',  ( -0.000000000000000000, -1.000000000000000000, -0.000000000000000000 ) ) ;
#378 = DIRECTION ( 'NONE',  ( 0.000000000000000000, 1.000000000000000000, 0.000000000000000000 ) ) ;
#379 = ORIENTED_EDGE ( 'NONE', *, *, #228, .F. ) ;
#380 = CARTESIAN_POINT ( 'NONE',  ( -46.76128206112404229, 0.000000000000000000, 19.84999999999996945 ) ) ;
#381 = PRODUCT_DEFINITION ( 'UNKNOWN', '', #340, #334 ) ;
#382 = CALENDAR_DATE ( 2025, 17, 8 ) ;
#383 = DIRECTION ( 'NONE',  ( 0.000000000000000000, 1.000000000000000000, 0.000000000000000000 ) ) ;
#384 = CARTESIAN_POINT ( 'NONE',  ( 31.73997953674852113, 8.000000000000000000, 8.099999999999985434 ) ) ;
#385 = VECTOR ( 'NONE', #232, 1000.000000000000000 ) ;
#386 = CIRCLE ( 'NONE', #3, 8.379959073497046163 ) ;
#387 = CC_DESIGN_APPROVAL ( #298, ( #375 ) ) ;
#388 = CYLINDRICAL_SURFACE ( 'NONE', #16, 50.80000000000001137 ) ;
#389 = DIRECTION ( 'NONE',  ( 0.000000000000000000, 1.000000000000000000, 0.000000000000000000 ) ) ;
ENDSEC;
END-ISO-10303-21;
